  0
SECTION
  2
HEADER
  9
$ACADVER
  1
AC1015
  9
$ACADMAINTVER
 70
     6
  9
$DWGCODEPAGE
  3
ANSI_1252
  9
$INSBASE
 10
0.0
 20
0.0
 30
0.0
  9
$EXTMIN
 10
1.000000000000000E+20
 20
1.000000000000000E+20
 30
1.000000000000000E+20
  9
$EXTMAX
 10
-1.000000000000000E+20
 20
-1.000000000000000E+20
 30
-1.000000000000000E+20
  9
$LIMMIN
 10
0.0
 20
0.0
  9
$LIMMAX
 10
12.0
 20
9.0
  9
$ORTHOMODE
 70
     0
  9
$REGENMODE
 70
     1
  9
$FILLMODE
 70
     1
  9
$QTEXTMODE
 70
     0
  9
$MIRRTEXT
 70
     1
  9
$LTSCALE
 40
1.0
  9
$ATTMODE
 70
     1
  9
$TEXTSIZE
 40
0.2
  9
$TRACEWID
 40
0.05
  9
$TEXTSTYLE
  7
Standard
  9
$CLAYER
  8
0
  9
$CELTYPE
  6
ByLayer
  9
$CECOLOR
 62
   256
  9
$CELTSCALE
 40
1.0
  9
$DISPSILH
 70
     0
  9
$DIMSCALE
 40
1.0
  9
$DIMASZ
 40
0.18
  9
$DIMEXO
 40
0.0625
  9
$DIMDLI
 40
0.38
  9
$DIMRND
 40
0.0
  9
$DIMDLE
 40
0.0
  9
$DIMEXE
 40
0.18
  9
$DIMTP
 40
0.0
  9
$DIMTM
 40
0.0
  9
$DIMTXT
 40
0.18
  9
$DIMCEN
 40
0.09
  9
$DIMTSZ
 40
0.0
  9
$DIMTOL
 70
     0
  9
$DIMLIM
 70
     0
  9
$DIMTIH
 70
     1
  9
$DIMTOH
 70
     1
  9
$DIMSE1
 70
     0
  9
$DIMSE2
 70
     0
  9
$DIMTAD
 70
     0
  9
$DIMZIN
 70
     0
  9
$DIMBLK
  1

  9
$DIMASO
 70
     1
  9
$DIMSHO
 70
     1
  9
$DIMPOST
  1

  9
$DIMAPOST
  1

  9
$DIMALT
 70
     0
  9
$DIMALTD
 70
     2
  9
$DIMALTF
 40
25.4
  9
$DIMLFAC
 40
1.0
  9
$DIMTOFL
 70
     0
  9
$DIMTVP
 40
0.0
  9
$DIMTIX
 70
     0
  9
$DIMSOXD
 70
     0
  9
$DIMSAH
 70
     0
  9
$DIMBLK1
  1

  9
$DIMBLK2
  1

  9
$DIMSTYLE
  2
Standard
  9
$DIMCLRD
 70
     0
  9
$DIMCLRE
 70
     0
  9
$DIMCLRT
 70
     0
  9
$DIMTFAC
 40
1.0
  9
$DIMGAP
 40
0.09
  9
$DIMJUST
 70
     0
  9
$DIMSD1
 70
     0
  9
$DIMSD2
 70
     0
  9
$DIMTOLJ
 70
     1
  9
$DIMTZIN
 70
     0
  9
$DIMALTZ
 70
     0
  9
$DIMALTTZ
 70
     0
  9
$DIMUPT
 70
     0
  9
$DIMDEC
 70
     4
  9
$DIMTDEC
 70
     4
  9
$DIMALTU
 70
     2
  9
$DIMALTTD
 70
     2
  9
$DIMTXSTY
  7
Standard
  9
$DIMAUNIT
 70
     0
  9
$DIMADEC
 70
     0
  9
$DIMALTRND
 40
0.0
  9
$DIMAZIN
 70
     0
  9
$DIMDSEP
 70
    46
  9
$DIMATFIT
 70
     3
  9
$DIMFRAC
 70
     0
  9
$DIMLDRBLK
  1

  9
$DIMLUNIT
 70
     2
  9
$DIMLWD
 70
    -2
  9
$DIMLWE
 70
    -2
  9
$DIMTMOVE
 70
     0
  9
$LUNITS
 70
     2
  9
$LUPREC
 70
     4
  9
$SKETCHINC
 40
0.1
  9
$FILLETRAD
 40
0.5
  9
$AUNITS
 70
     0
  9
$AUPREC
 70
     0
  9
$MENU
  1
.
  9
$ELEVATION
 40
0.0
  9
$PELEVATION
 40
0.0
  9
$THICKNESS
 40
0.0
  9
$LIMCHECK
 70
     0
  9
$CHAMFERA
 40
0.0
  9
$CHAMFERB
 40
0.0
  9
$CHAMFERC
 40
0.0
  9
$CHAMFERD
 40
0.0
  9
$SKPOLY
 70
     0
  9
$TDCREATE
 40
2459275.43546919
  9
$TDUCREATE
 40
2459275.393802523
  9
$TDUPDATE
 40
2459275.435469838
  9
$TDUUPDATE
 40
2459275.393803171
  9
$TDINDWG
 40
0.0000000116
  9
$TDUSRTIMER
 40
0.0000000116
  9
$USRTIMER
 70
     1
  9
$ANGBASE
 50
0.0
  9
$ANGDIR
 70
     0
  9
$PDMODE
 70
     0
  9
$PDSIZE
 40
0.0
  9
$PLINEWID
 40
0.0
  9
$SPLFRAME
 70
     0
  9
$SPLINETYPE
 70
     6
  9
$SPLINESEGS
 70
     8
  9
$HANDSEED
  5
364
  9
$SURFTAB1
 70
     6
  9
$SURFTAB2
 70
     6
  9
$SURFTYPE
 70
     6
  9
$SURFU
 70
     6
  9
$SURFV
 70
     6
  9
$UCSBASE
  2

  9
$UCSNAME
  2

  9
$UCSORG
 10
0.0
 20
0.0
 30
0.0
  9
$UCSXDIR
 10
1.0
 20
0.0
 30
0.0
  9
$UCSYDIR
 10
0.0
 20
1.0
 30
0.0
  9
$UCSORTHOREF
  2

  9
$UCSORTHOVIEW
 70
     0
  9
$UCSORGTOP
 10
0.0
 20
0.0
 30
0.0
  9
$UCSORGBOTTOM
 10
0.0
 20
0.0
 30
0.0
  9
$UCSORGLEFT
 10
0.0
 20
0.0
 30
0.0
  9
$UCSORGRIGHT
 10
0.0
 20
0.0
 30
0.0
  9
$UCSORGFRONT
 10
0.0
 20
0.0
 30
0.0
  9
$UCSORGBACK
 10
0.0
 20
0.0
 30
0.0
  9
$PUCSBASE
  2

  9
$PUCSNAME
  2

  9
$PUCSORG
 10
0.0
 20
0.0
 30
0.0
  9
$PUCSXDIR
 10
1.0
 20
0.0
 30
0.0
  9
$PUCSYDIR
 10
0.0
 20
1.0
 30
0.0
  9
$PUCSORTHOREF
  2

  9
$PUCSORTHOVIEW
 70
     0
  9
$PUCSORGTOP
 10
0.0
 20
0.0
 30
0.0
  9
$PUCSORGBOTTOM
 10
0.0
 20
0.0
 30
0.0
  9
$PUCSORGLEFT
 10
0.0
 20
0.0
 30
0.0
  9
$PUCSORGRIGHT
 10
0.0
 20
0.0
 30
0.0
  9
$PUCSORGFRONT
 10
0.0
 20
0.0
 30
0.0
  9
$PUCSORGBACK
 10
0.0
 20
0.0
 30
0.0
  9
$USERI1
 70
     0
  9
$USERI2
 70
     0
  9
$USERI3
 70
     0
  9
$USERI4
 70
     0
  9
$USERI5
 70
     0
  9
$USERR1
 40
0.0
  9
$USERR2
 40
0.0
  9
$USERR3
 40
0.0
  9
$USERR4
 40
0.0
  9
$USERR5
 40
0.0
  9
$WORLDVIEW
 70
     1
  9
$SHADEDGE
 70
     3
  9
$SHADEDIF
 70
    70
  9
$TILEMODE
 70
     0
  9
$MAXACTVP
 70
    64
  9
$PINSBASE
 10
0.0
 20
0.0
 30
0.0
  9
$PLIMCHECK
 70
     0
  9
$PEXTMIN
 10
1.000000000000000E+20
 20
1.000000000000000E+20
 30
1.000000000000000E+20
  9
$PEXTMAX
 10
-1.000000000000000E+20
 20
-1.000000000000000E+20
 30
-1.000000000000000E+20
  9
$PLIMMIN
 10
0.0
 20
0.0
  9
$PLIMMAX
 10
12.0
 20
9.0
  9
$UNITMODE
 70
     0
  9
$VISRETAIN
 70
     1
  9
$PLINEGEN
 70
     0
  9
$PSLTSCALE
 70
     0
  9
$TREEDEPTH
 70
  3020
  9
$CMLSTYLE
  2
Standard
  9
$CMLJUST
 70
     0
  9
$CMLSCALE
 40
1.0
  9
$PROXYGRAPHICS
 70
     1
  9
$MEASUREMENT
 70
     0
  9
$CELWEIGHT
370
    -1
  9
$ENDCAPS
280
     0
  9
$JOINSTYLE
280
     0
  9
$LWDISPLAY
290
     1
  9
$INSUNITS
 70
     6
  9
$HYPERLINKBASE
  1

  9
$STYLESHEET
  1

  9
$XEDIT
290
     1
  9
$CEPSNTYPE
380
     0
  9
$PSTYLEMODE
290
     1
  9
$FINGERPRINTGUID
  2
{e29ecf93-1d3a-9144-bef3-e85c8ce2ef85}
  9
$VERSIONGUID
  2
{FAEB1C32-E019-11D5-929B-00C0DF256EC4}
  9
$EXTNAMES
290
     1
  9
$PSVPSCALE
 40
0.0
  9
$OLESTARTUP
290
     0
  0
ENDSEC
  0
SECTION
  2
CLASSES
  0
CLASS
  1
ACDBDICTIONARYWDFLT
  2
AcDbDictionaryWithDefault
  3
ObjectDBX Classes
 90
        0
280
     0
281
     0
  0
CLASS
  1
VISUALSTYLE
  2
AcDbVisualStyle
  3
ObjectDBX Classes
 90
     4095
280
     0
281
     0
  0
CLASS
  1
MATERIAL
  2
AcDbMaterial
  3
ObjectDBX Classes
 90
     1153
280
     0
281
     0
  0
CLASS
  1
SCALE
  2
AcDbScale
  3
ObjectDBX Classes
 90
     1153
280
     0
281
     0
  0
CLASS
  1
TABLESTYLE
  2
AcDbTableStyle
  3
ObjectDBX Classes
 90
     4095
280
     0
281
     0
  0
CLASS
  1
MLEADERSTYLE
  2
AcDbMLeaderStyle
  3
ACDB_MLEADERSTYLE_CLASS
 90
     4095
280
     0
281
     0
  0
CLASS
  1
SUN
  2
AcDbSun
  3
SCENEOE
 90
     1153
280
     0
281
     0
  0
CLASS
  1
SPATIAL_FILTER
  2
AcDbSpatialFilter
  3
ObjectDBX Classes
 90
        0
280
     0
281
     0
  0
CLASS
  1
DICTIONARYVAR
  2
AcDbDictionaryVar
  3
ObjectDBX Classes
 90
        0
280
     0
281
     0
  0
CLASS
  1
ACDBPLACEHOLDER
  2
AcDbPlaceHolder
  3
ObjectDBX Classes
 90
        0
280
     0
281
     0
  0
CLASS
  1
LAYOUT
  2
AcDbLayout
  3
ObjectDBX Classes
 90
        0
280
     0
281
     0
  0
ENDSEC
  0
SECTION
  2
TABLES
  0
TABLE
  2
VPORT
  5
8
102
{ACAD_XDICTIONARY
360
326
102
}
330
0
100
AcDbSymbolTable
 70
     1
  0
VPORT
  5
29
330
8
100
AcDbSymbolTableRecord
100
AcDbViewportTableRecord
  2
*Active
 70
     0
 10
0.0
 20
0.0
 11
1.0
 21
1.0
 12
10.42990654205607
 22
4.5
 13
0.0
 23
0.0
 14
0.5
 24
0.5
 15
0.5
 25
0.5
 16
0.0
 26
0.0
 36
1.0
 17
0.0
 27
0.0
 37
0.0
 40
9.0
 41
1.972972972850329
 42
50.0
 43
0.0
 44
0.0
 50
0.0
 51
0.0
 71
     0
 72
   100
 73
     1
 74
     3
 75
     0
 76
     0
 77
     0
 78
     0
281
     0
 65
     1
110
0.0
120
0.0
130
0.0
111
1.0
121
0.0
131
0.0
112
0.0
122
1.0
132
0.0
 79
     0
146
0.0
  0
ENDTAB
  0
TABLE
  2
LTYPE
  5
5
330
0
100
AcDbSymbolTable
 70
     2
  0
LTYPE
  5
14
330
5
100
AcDbSymbolTableRecord
100
AcDbLinetypeTableRecord
  2
ByBlock
 70
     0
  3

 72
    65
 73
     0
 40
0.0
  0
LTYPE
  5
15
330
5
100
AcDbSymbolTableRecord
100
AcDbLinetypeTableRecord
  2
ByLayer
 70
     0
  3

 72
    65
 73
     0
 40
0.0
  0
LTYPE
  5
16
330
5
100
AcDbSymbolTableRecord
100
AcDbLinetypeTableRecord
  2
Continuous
 70
     0
  3
Solid line
 72
    65
 73
     0
 40
0.0
  0
LTYPE
  5
2DB
330
5
100
AcDbSymbolTableRecord
100
AcDbLinetypeTableRecord
  2
STRICHLINIE_S4
 70
     0
  3
- - - - - 
 72
    65
 73
     2
 40
0.01
 49
0.005
 74
     0
 49
-0.005
 74
     0
  0
ENDTAB
  0
TABLE
  2
LAYER
  5
2
330
0
100
AcDbSymbolTable
 70
     6
  0
LAYER
  5
10
330
2
100
AcDbSymbolTableRecord
100
AcDbLayerTableRecord
  2
0
 70
     0
 62
     7
  6
Continuous
370
    -3
390
F
  0
LAYER
  5
70
330
2
100
AcDbSymbolTableRecord
100
AcDbLayerTableRecord
  2
FORMAT
 70
     1
 62
    -7
  6
Continuous
370
    -3
390
F
  0
LAYER
  5
78
330
2
100
AcDbSymbolTableRecord
100
AcDbLayerTableRecord
  2
A1------H2_______Schraffur_Filling_1_5
 70
     0
 62
     7
  6
Continuous
370
    -3
390
F
  0
LAYER
  5
8E
330
2
100
AcDbSymbolTableRecord
100
AcDbLayerTableRecord
  2
A1E-----M5_______Rohbau
 70
     0
 62
     7
  6
Continuous
370
    -3
390
F
  0
LAYER
  5
93
330
2
100
AcDbSymbolTableRecord
100
AcDbLayerTableRecord
  2
A1-----1H2_______Schraffur_1_5
 70
     0
 62
     7
  6
Continuous
370
    -3
390
F
  0
LAYER
  5
2E9
330
2
100
AcDbSymbolTableRecord
100
AcDbLayerTableRecord
  2
A1------T2_______Text_1_5
 70
     0
 62
     7
  6
Continuous
370
    -3
390
F
  0
ENDTAB
  0
TABLE
  2
STYLE
  5
3
330
0
100
AcDbSymbolTable
 70
     2
  0
STYLE
  5
11
330
3
100
AcDbSymbolTableRecord
100
AcDbTextStyleTableRecord
  2
Standard
 70
     0
 40
0.0
 41
1.0
 50
0.0
 71
     0
 42
0.2
  3
txt
  4

  0
STYLE
  5
2F6
330
3
100
AcDbSymbolTableRecord
100
AcDbTextStyleTableRecord
  2
ERSTELLTER_STIL_1
 70
     0
 40
0.0
 41
1.0
 50
0.0
 71
     0
 42
0.2
  3

  4

1001
ACAD
1000
Arial
1071
       34
  0
ENDTAB
  0
TABLE
  2
VIEW
  5
6
330
0
100
AcDbSymbolTable
 70
     0
  0
ENDTAB
  0
TABLE
  2
UCS
  5
7
330
0
100
AcDbSymbolTable
 70
     0
  0
ENDTAB
  0
TABLE
  2
APPID
  5
9
330
0
100
AcDbSymbolTable
 70
     2
  0
APPID
  5
12
330
9
100
AcDbSymbolTableRecord
100
AcDbRegAppTableRecord
  2
ACAD
 70
     0
  0
APPID
  5
360
330
9
100
AcDbSymbolTableRecord
100
AcDbRegAppTableRecord
  2
ACAD_MLEADERVER
 70
     0
  0
ENDTAB
  0
TABLE
  2
DIMSTYLE
  5
A
330
0
100
AcDbSymbolTable
 70
     1
100
AcDbDimStyleTable
  0
DIMSTYLE
105
27
330
A
100
AcDbSymbolTableRecord
100
AcDbDimStyleTableRecord
  2
Standard
 70
     0
178
     0
340
11
  0
ENDTAB
  0
TABLE
  2
BLOCK_RECORD
  5
1
330
0
100
AcDbSymbolTable
 70
     2
  0
BLOCK_RECORD
  5
1F
330
1
100
AcDbSymbolTableRecord
100
AcDbBlockTableRecord
  2
*Model_Space
340
22
  0
BLOCK_RECORD
  5
1B
330
1
100
AcDbSymbolTableRecord
100
AcDbBlockTableRecord
  2
*Paper_Space
340
1E
  0
BLOCK_RECORD
  5
74
330
1
100
AcDbSymbolTableRecord
100
AcDbBlockTableRecord
  2
Zeichnung_1_1
340
0
102
{BLKREFS
331
308
102
}
  0
BLOCK_RECORD
  5
30C
330
1
100
AcDbSymbolTableRecord
100
AcDbBlockTableRecord
  2
02.8 40. Detail J.3_STORY_MARKER
340
0
  0
ENDTAB
  0
ENDSEC
  0
SECTION
  2
BLOCKS
  0
BLOCK
  5
20
330
1F
100
AcDbEntity
  8
0
100
AcDbBlockBegin
  2
*Model_Space
 70
     0
 10
0.0
 20
0.0
 30
0.0
  3
*Model_Space
  1

  0
ENDBLK
  5
21
330
1F
100
AcDbEntity
  8
0
100
AcDbBlockEnd
  0
BLOCK
  5
1C
330
1B
100
AcDbEntity
 67
     1
  8
0
100
AcDbBlockBegin
  2
*Paper_Space
 70
     0
 10
0.0
 20
0.0
 30
0.0
  3
*Paper_Space
  1

  0
ENDBLK
  5
1D
330
1B
100
AcDbEntity
 67
     1
  8
0
100
AcDbBlockEnd
  0
BLOCK
  5
75
330
74
100
AcDbEntity
  8
0
100
AcDbBlockBegin
  2
Zeichnung_1_1
 70
     0
 10
1688.024586529066
 20
1652.125871091721
 30
0.0
  3
Zeichnung_1_1
  1

  0
HATCH
  5
77
330
74
100
AcDbEntity
  8
A1------H2_______Schraffur_Filling_1_5
  6
Continuous
 62
   254
370
    35
100
AcDbHatch
 10
0.0
 20
0.0
 30
0.0
210
0.0
220
0.0
230
1.0
  2
SOLID
 70
     1
 71
     0
 91
        1
 92
        3
 72
     0
 73
     1
 93
        4
 10
14.99999999999879
 20
197.7722744738273
 10
102.6550395961927
 20
197.7722744738273
 10
102.6550395961927
 20
198.853370835355
 10
14.99999999999879
 20
198.853370835355
 97
        0
 75
     0
 76
     1
 98
        0
  0
HATCH
  5
79
330
74
100
AcDbEntity
  8
A1------H2_______Schraffur_Filling_1_5
  6
Continuous
 62
   250
370
     0
100
AcDbHatch
 10
0.0
 20
0.0
 30
0.0
210
0.0
220
0.0
230
1.0
  2
SOLID
 70
     1
 71
     0
 91
        2
 92
        3
 72
     0
 73
     1
 93
       40
 10
103.2226701661791
 20
165.8105282814928
 10
103.1834746120925
 20
165.7909049066693
 10
103.1834746120925
 20
164.5151689566839
 10
103.2226701661791
 20
164.4955455818604
 10
103.2628252468477
 20
164.4779688864024
 10
103.3038330226579
 20
164.4624856035695
 10
103.3455844420104
 20
164.4491369272132
 10
103.3879685189092
 20
164.4379583798863
 10
103.4308725088164
 20
164.4289796369891
 10
103.4741823043228
 20
164.4222246146958
 10
103.5177827428952
 20
164.4177112501364
 10
103.5615578926372
 20
164.4154515673444
 10
103.6053913160722
 20
164.4154515673444
 10
103.6491664658143
 20
164.4177112501364
 10
103.6927669263683
 20
164.4222246146958
 10
103.7360767218751
 20
164.4289796369891
 10
103.7789807117819
 20
164.4379583798863
 10
103.821364766699
 20
164.4491369272132
 10
103.8631162080337
 20
164.4624856035695
 10
103.9041239838436
 20
164.4779688864024
 10
103.9442790425305
 20
164.4955455818604
 10
103.9834746185988
 20
164.5151689566839
 10
103.9834746185988
 20
165.7909049066693
 10
103.9442790425305
 20
165.8105282814928
 10
103.9041239838436
 20
165.8281049769508
 10
103.8631162080337
 20
165.8435882597837
 10
103.821364766699
 20
165.85693693614
 10
103.7789807117819
 20
165.8681154834669
 10
103.7360767218751
 20
165.8770942263641
 10
103.6927669263683
 20
165.8838492486574
 10
103.6491664658143
 20
165.8883626132166
 10
103.6053913160722
 20
165.8906222960088
 10
103.5615578926372
 20
165.8906222960088
 10
103.5177827428952
 20
165.8883626132166
 10
103.4741823043228
 20
165.8838492486574
 10
103.4308725088164
 20
165.8770942263641
 10
103.3879685189092
 20
165.8681154834669
 10
103.3455844420104
 20
165.85693693614
 10
103.3038330226579
 20
165.8435882597837
 10
103.2628252468477
 20
165.8281049769508
 97
        0
 92
        2
 72
     0
 73
     1
 93
       26
 10
103.4159709297686
 20
164.6371223650449
 10
103.3834746082236
 20
164.6467031228902
 10
103.3834746082236
 20
165.659370740463
 10
103.4159709297686
 20
165.6689514983083
 10
103.4489223180775
 20
165.6768260305623
 10
103.4822392413688
 20
165.682972970937
 10
103.5158311786819
 20
165.6873755912998
 10
103.5496068836577
 20
165.6900219775264
 10
103.5834746043549
 20
165.690904897613
 10
103.6173423250521
 20
165.6900219775264
 10
103.6511180300275
 20
165.6873755912998
 10
103.6847099893223
 20
165.682972970937
 10
103.7180269126139
 20
165.6768260305623
 10
103.7509782789407
 20
165.6689514983083
 10
103.7834746224675
 20
165.659370740463
 10
103.7834746224675
 20
164.6467031228902
 10
103.7509782789407
 20
164.6371223650449
 10
103.7180269126139
 20
164.6292478327909
 10
103.6847099893223
 20
164.6231008924162
 10
103.6511180300275
 20
164.6186982720535
 10
103.6173423250521
 20
164.6160518858268
 10
103.5834746043549
 20
164.6151689657403
 10
103.5496068836577
 20
164.6160518858268
 10
103.5158311786819
 20
164.6186982720535
 10
103.4822392413688
 20
164.6231008924162
 10
103.4489223180775
 20
164.6292478327909
 97
        0
 75
     0
 76
     1
 98
        0
  0
HATCH
  5
7A
330
74
100
AcDbEntity
  8
A1------H2_______Schraffur_Filling_1_5
  6
Continuous
 62
   252
370
     0
100
AcDbHatch
 10
0.0
 20
0.0
 30
0.0
210
0.0
220
0.0
230
1.0
  2
SOLID
 70
     1
 71
     0
 91
        1
 92
        3
 72
     0
 73
     1
 93
       12
 10
103.183474612093
 20
165.8909048973212
 10
102.9834746120926
 20
165.8909048973207
 10
102.983474612093
 20
165.3909048973212
 10
102.5834746120928
 20
165.3909048973212
 10
102.5834746120933
 20
165.5909048973214
 10
102.2834746120929
 20
165.5909048973212
 10
102.2834746120929
 20
164.9909048973211
 10
102.5834746120928
 20
164.9909048973208
 10
102.5834746120933
 20
165.190904897321
 10
102.983474612093
 20
165.190904897321
 10
102.983474612093
 20
164.6151689660329
 10
103.183474612093
 20
164.4151689660327
 97
        0
 75
     0
 76
     1
 98
        0
  0
LWPOLYLINE
  5
7B
330
74
100
AcDbEntity
  8
A1------H2_______Schraffur_Filling_1_5
  6
Continuous
 62
     7
 48
1000.0
370
    13
100
AcDbPolyline
 90
       12
 70
   129
 43
0.0
 10
103.183474612093
 20
165.8909048973212
 10
102.9834746120926
 20
165.8909048973207
 10
102.983474612093
 20
165.3909048973212
 10
102.5834746120928
 20
165.3909048973212
 10
102.5834746120933
 20
165.5909048973214
 10
102.2834746120929
 20
165.5909048973212
 10
102.2834746120929
 20
164.9909048973211
 10
102.5834746120928
 20
164.9909048973208
 10
102.5834746120933
 20
165.190904897321
 10
102.983474612093
 20
165.190904897321
 10
102.983474612093
 20
164.6151689660329
 10
103.183474612093
 20
164.4151689660327
  0
HATCH
  5
7C
330
74
100
AcDbEntity
  8
A1------H2_______Schraffur_Filling_1_5
  6
Continuous
 62
   252
370
     0
100
AcDbHatch
 10
0.0
 20
0.0
 30
0.0
210
0.0
220
0.0
230
1.0
  2
SOLID
 70
     1
 71
     0
 91
        1
 92
        3
 72
     0
 73
     1
 93
       77
 10
102.8834746120928
 20
165.490904897321
 10
102.8834746120928
 20
165.8909048973212
 10
101.9834746120929
 20
165.8909048973212
 10
101.9834746120931
 20
165.3909048973217
 10
100.7834746120928
 20
165.3909048973212
 10
100.7834746120928
 20
165.190904897321
 10
101.0911937988557
 20
165.190904897321
 10
101.0937888670245
 20
165.1809098248096
 10
101.0968963728693
 20
165.1710620199403
 10
101.1005080321017
 20
165.1613877359406
 10
101.1046142164127
 20
165.1519127634495
 10
101.1092039791401
 20
165.1426623617593
 10
101.1142650844528
 20
165.133661191484
 10
101.1197840399682
 20
165.1249332488094
 10
101.1257461327237
 20
165.1165018015264
 10
101.1321354683972
 20
165.1083893269982
 10
101.1389350136831
 20
165.1006174522429
 10
101.146126641698
 20
165.0932068962707
 10
101.1536911803077
 20
165.0861774148575
 10
101.1616084632352
 20
165.079547747871
 10
101.1698573838267
 20
165.0733355693164
 10
101.1784159513138
 20
165.0675574402172
 10
101.1872613494429
 20
165.0622287644674
 10
101.1963699973002
 20
165.0573637477639
 10
101.2057176121748
 20
165.052975359737
 10
101.2152792742931
 20
165.0490752993734
 10
101.2250294932571
 20
165.0456739638306
 10
101.2349422759926
 20
165.0427804207155
 10
101.2449911960485
 20
165.0404023839158
 10
101.2551494640463
 20
165.0385461930304
 10
101.2653899990956
 20
165.0372167964704
 10
101.2756855009926
 20
165.036417738271
 10
101.2860085229956
 20
165.0361511486378
 10
101.2963315449991
 20
165.036417738271
 10
101.3066270468959
 20
165.0372167964704
 10
101.3168675819454
 20
165.0385461930304
 10
101.3270258499432
 20
165.0404023839158
 10
101.3370747699991
 20
165.042780420716
 10
101.3469875527346
 20
165.0456739638306
 10
101.3567377716977
 20
165.049075299373
 10
101.3662994338169
 20
165.0529753597365
 10
101.3756470486911
 20
165.0573637477639
 10
101.3847556965481
 20
165.0622287644674
 10
101.3936010946779
 20
165.0675574402172
 10
101.402159662165
 20
165.0733355693164
 10
101.4104085827558
 20
165.0795477478715
 10
101.4183258656836
 20
165.0861774148575
 10
101.4258904042933
 20
165.0932068962707
 10
101.4330820323079
 20
165.1006174522427
 10
101.4398815775941
 20
165.1083893269985
 10
101.446270913268
 20
165.1165018015264
 10
101.4522330060232
 20
165.124933248809
 10
101.4577519615387
 20
165.133661191484
 10
101.4628130668513
 20
165.1426623617593
 10
101.467402829579
 20
165.1519127634491
 10
101.4715090138896
 20
165.1613877359406
 10
101.4751206731219
 20
165.1710620199403
 10
101.4782281789668
 20
165.1809098248096
 10
101.4808234052502
 20
165.1909045180233
 10
101.9834746120929
 20
165.190904897321
 10
101.9834746120929
 20
164.6909048973211
 10
102.6834746120926
 20
164.6909048973211
 10
102.6834746120926
 20
164.4909048973213
 10
103.0592105433807
 20
164.1151689660327
 10
103.4834746120932
 20
164.1151689660334
 10
103.4834746120932
 20
163.9151689660332
 10
103.5834746120934
 20
163.9151689660332
 10
103.5834746120929
 20
164.3151689660329
 10
103.1420532558556
 20
164.3151689660325
 10
102.8834746120928
 20
164.5737476097957
 10
102.8834746120928
 20
165.0909048973213
 10
102.6834746120926
 20
165.0909048973208
 10
102.6834746120926
 20
164.8909048973211
 10
102.1834746120927
 20
164.8909048973211
 10
102.1834746120927
 20
165.6909048973212
 10
102.683474612093
 20
165.6909048973212
 10
102.683474612093
 20
165.490904897321
 97
        0
 75
     0
 76
     1
 98
        0
  0
LWPOLYLINE
  5
7D
330
74
100
AcDbEntity
  8
A1------H2_______Schraffur_Filling_1_5
  6
Continuous
 62
     7
 48
1000.0
370
    13
100
AcDbPolyline
 90
       77
 70
   129
 43
0.0
 10
102.8834746120928
 20
165.490904897321
 10
102.8834746120928
 20
165.8909048973212
 10
101.9834746120929
 20
165.8909048973212
 10
101.9834746120931
 20
165.3909048973217
 10
100.7834746120928
 20
165.3909048973212
 10
100.7834746120928
 20
165.190904897321
 10
101.0911937988557
 20
165.190904897321
 10
101.0937888670245
 20
165.1809098248096
 10
101.0968963728693
 20
165.1710620199403
 10
101.1005080321017
 20
165.1613877359406
 10
101.1046142164127
 20
165.1519127634495
 10
101.1092039791401
 20
165.1426623617593
 10
101.1142650844528
 20
165.133661191484
 10
101.1197840399682
 20
165.1249332488094
 10
101.1257461327237
 20
165.1165018015264
 10
101.1321354683972
 20
165.1083893269982
 10
101.1389350136831
 20
165.1006174522429
 10
101.146126641698
 20
165.0932068962707
 10
101.1536911803077
 20
165.0861774148575
 10
101.1616084632352
 20
165.079547747871
 10
101.1698573838267
 20
165.0733355693164
 10
101.1784159513138
 20
165.0675574402172
 10
101.1872613494429
 20
165.0622287644674
 10
101.1963699973002
 20
165.0573637477639
 10
101.2057176121748
 20
165.052975359737
 10
101.2152792742931
 20
165.0490752993734
 10
101.2250294932571
 20
165.0456739638306
 10
101.2349422759926
 20
165.0427804207155
 10
101.2449911960485
 20
165.0404023839158
 10
101.2551494640463
 20
165.0385461930304
 10
101.2653899990956
 20
165.0372167964704
 10
101.2756855009926
 20
165.036417738271
 10
101.2860085229956
 20
165.0361511486378
 10
101.2963315449991
 20
165.036417738271
 10
101.3066270468959
 20
165.0372167964704
 10
101.3168675819454
 20
165.0385461930304
 10
101.3270258499432
 20
165.0404023839158
 10
101.3370747699991
 20
165.042780420716
 10
101.3469875527346
 20
165.0456739638306
 10
101.3567377716977
 20
165.049075299373
 10
101.3662994338169
 20
165.0529753597365
 10
101.3756470486911
 20
165.0573637477639
 10
101.3847556965481
 20
165.0622287644674
 10
101.3936010946779
 20
165.0675574402172
 10
101.402159662165
 20
165.0733355693164
 10
101.4104085827558
 20
165.0795477478715
 10
101.4183258656836
 20
165.0861774148575
 10
101.4258904042933
 20
165.0932068962707
 10
101.4330820323079
 20
165.1006174522427
 10
101.4398815775941
 20
165.1083893269985
 10
101.446270913268
 20
165.1165018015264
 10
101.4522330060232
 20
165.124933248809
 10
101.4577519615387
 20
165.133661191484
 10
101.4628130668513
 20
165.1426623617593
 10
101.467402829579
 20
165.1519127634491
 10
101.4715090138896
 20
165.1613877359406
 10
101.4751206731219
 20
165.1710620199403
 10
101.4782281789668
 20
165.1809098248096
 10
101.4808234052502
 20
165.1909045180233
 10
101.9834746120929
 20
165.190904897321
 10
101.9834746120929
 20
164.6909048973211
 10
102.6834746120926
 20
164.6909048973211
 10
102.6834746120926
 20
164.4909048973213
 10
103.0592105433807
 20
164.1151689660327
 10
103.4834746120932
 20
164.1151689660334
 10
103.4834746120932
 20
163.9151689660332
 10
103.5834746120934
 20
163.9151689660332
 10
103.5834746120929
 20
164.3151689660329
 10
103.1420532558556
 20
164.3151689660325
 10
102.8834746120928
 20
164.5737476097957
 10
102.8834746120928
 20
165.0909048973213
 10
102.6834746120926
 20
165.0909048973208
 10
102.6834746120926
 20
164.8909048973211
 10
102.1834746120927
 20
164.8909048973211
 10
102.1834746120927
 20
165.6909048973212
 10
102.683474612093
 20
165.6909048973212
 10
102.683474612093
 20
165.490904897321
  0
HATCH
  5
7E
330
74
100
AcDbEntity
  8
A1------H2_______Schraffur_Filling_1_5
  6
Continuous
 62
    21
370
    20
100
AcDbHatch
 10
0.0
 20
0.0
 30
0.0
210
0.0
220
0.0
230
1.0
  2
SOLID
 70
     1
 71
     0
 91
        1
 92
        3
 72
     0
 73
     1
 93
       10
 10
102.6834746120926
 20
164.4909048973213
 10
102.6834746120924
 20
164.6909048973211
 10
14.99999999999879
 20
164.6909048973211
 10
14.99999999999879
 20
163.6834371847951
 10
102.3050171133473
 20
163.7578352576039
 10
103.1018244154489
 20
163.7700650871143
 10
103.3399110726247
 20
163.8421355952955
 10
103.4834746120932
 20
163.9151689660332
 10
103.4834746120932
 20
164.1151689660334
 10
103.0592105433807
 20
164.1151689660327
 97
        0
 75
     0
 76
     1
 98
        0
  0
HATCH
  5
7F
330
74
100
AcDbEntity
  8
A1------H2_______Schraffur_Filling_1_5
  6
Continuous
 62
   254
370
    35
100
AcDbHatch
 10
0.0
 20
0.0
 30
0.0
210
0.0
220
0.0
230
1.0
  2
SOLID
 70
     1
 71
     0
 91
        1
 92
        3
 72
     0
 73
     1
 93
       61
 10
14.99999999999879
 20
165.8909043064369
 10
14.99999999999879
 20
164.6909048973211
 10
101.9834746120929
 20
164.6909048973211
 10
101.9834746120929
 20
165.3909052990004
 10
101.9818125719105
 20
165.1909051842346
 10
101.4808206905848
 20
165.1908949484213
 10
101.4782284708697
 20
165.1809099125601
 10
101.4751206220605
 20
165.1710617807014
 10
101.4715086594469
 20
165.1613876576687
 10
101.4674028188425
 20
165.1519131329948
 10
101.4628133360596
 20
165.1426625167371
 10
101.4577517263895
 20
165.1336613984278
 10
101.4522333435512
 20
165.1249328086477
 10
101.4462709823114
 20
165.1165023369292
 10
101.4398812758672
 20
165.1083891754226
 10
101.4330821368912
 20
165.1006176341845
 10
101.4258901985805
 20
165.093206905365
 10
101.4183259325616
 20
165.0861774605901
 10
101.4104085309844
 20
165.0795472125335
 10
101.4021597449517
 20
165.0733353533451
 10
101.3936013255674
 20
165.0675572367448
 10
101.3847563034109
 20
165.062228216452
 10
101.3756464295852
 20
165.0573636461876
 10
101.3662998525777
 20
165.0529750412408
 10
101.356738323491
 20
165.0490751963785
 10
101.3469874318589
 20
165.0456743474138
 10
101.3370753261673
 20
165.0427801712071
 10
101.3270263164727
 20
165.0404029035712
 10
101.3168672717857
 20
165.0385463829363
 10
101.3066276200687
 20
165.0372170066856
 10
101.2963316713786
 20
165.0364173337726
 10
101.2756860359791
 20
165.0364173337726
 10
101.2653900872891
 20
165.0372170066856
 10
101.2551491560956
 20
165.0385463829363
 10
101.2449913908853
 20
165.0404029035712
 10
101.2349423811909
 20
165.0427801712071
 10
101.2250289960226
 20
165.0456743474138
 10
101.2152793838668
 20
165.0490751963785
 10
101.20571785478
 20
165.0529750412408
 10
101.1963699982956
 20
165.0573636461876
 10
101.1872614039473
 20
165.062228216452
 10
101.1784163817908
 20
165.0675572367448
 10
101.1698579624063
 20
165.0733353533451
 10
101.1616078968971
 20
165.0795472125335
 10
101.1536917747962
 20
165.0861774605901
 10
101.1461262293007
 20
165.093206905365
 10
101.1389355704666
 20
165.1006176341845
 10
101.1321351520142
 20
165.1083891754226
 10
101.1257467250464
 20
165.1165023369292
 10
101.119784363807
 20
165.1249328086477
 10
101.1142647014918
 20
165.1336613984278
 10
101.1092043712982
 20
165.1426625167371
 10
101.104613609039
 20
165.1519131329948
 10
101.1005077684346
 20
165.1613876576687
 10
101.0968958058207
 20
165.1710617807014
 10
101.0937892364883
 20
165.1809099125601
 10
101.0911944578201
 20
165.1909051842346
 10
100.783475202977
 20
165.1909051842346
 10
100.783475202977
 20
165.3909052990004
 10
101.9834746120929
 20
165.3909052990004
 10
101.9834746120929
 20
165.8909043064369
 97
        0
 75
     0
 76
     1
 98
        0
  0
HATCH
  5
80
330
74
100
AcDbEntity
  8
A1------H2_______Schraffur_Filling_1_5
  6
Continuous
 62
   250
370
     0
100
AcDbHatch
 10
0.0
 20
0.0
 30
0.0
210
0.0
220
0.0
230
1.0
  2
SOLID
 70
     1
 71
     0
 91
        2
 92
        3
 72
     0
 73
     1
 93
       40
 10
151.2419595506589
 20
187.0282578709372
 10
151.0942344823936
 20
186.9542988607138
 10
151.0942344823936
 20
182.1461468982777
 10
151.2419595506589
 20
182.0721878880542
 10
151.3933010017798
 20
182.0059426570086
 10
151.5478561961676
 20
181.9475873392495
 10
151.7052141266209
 20
181.8972771912766
 10
151.8649564953454
 20
181.855146094895
 10
152.0266583767336
 20
181.8213058944349
 10
152.1898897086247
 20
181.795846728142
 10
152.3542164521696
 20
181.7788361996997
 10
152.5192016688528
 20
181.7703196267742
 10
152.6844065146609
 20
181.7703196267742
 10
152.8493917313438
 20
181.7788361996997
 10
153.0137185577365
 20
181.795846728142
 10
153.1769498896276
 20
181.8213058944349
 10
153.3386517710158
 20
181.855146094895
 10
153.4983940568926
 20
181.8972771912766
 10
153.6557520701936
 20
181.9475873392495
 10
153.8103072645813
 20
182.0059426570086
 10
153.9616486328545
 20
182.0721878880542
 10
154.1093737839676
 20
182.1461468982777
 10
154.1093737839676
 20
186.9542988607138
 10
153.9616486328545
 20
187.0282578709372
 10
153.8103072645813
 20
187.0945031019826
 10
153.6557520701936
 20
187.1528584197417
 10
153.4983940568926
 20
187.2031685677147
 10
153.3386517710158
 20
187.2452996640963
 10
153.1769498896276
 20
187.2791398645566
 10
153.0137185577365
 20
187.3045990308495
 10
152.8493917313438
 20
187.3216095592918
 10
152.6844065146609
 20
187.3301261322173
 10
152.5192016688528
 20
187.3301261322173
 10
152.3542164521696
 20
187.3216095592918
 10
152.1898897086247
 20
187.3045990308495
 10
152.0266583767336
 20
187.2791398645566
 10
151.8649564953454
 20
187.2452996640963
 10
151.7052141266209
 20
187.2031685677147
 10
151.5478561961676
 20
187.1528584197417
 10
151.3933010017798
 20
187.0945031019826
 97
        0
 92
        2
 72
     0
 73
     1
 93
       26
 10
151.9704954563881
 20
182.6057800376775
 10
151.848019287075
 20
182.6418891867814
 10
151.848019287075
 20
186.4585565722099
 10
151.9704954563881
 20
186.494665721314
 10
152.0946867377919
 20
186.5243442356732
 10
152.2202556927998
 20
186.5475115873705
 10
152.3468611547816
 20
186.564104729342
 10
152.4741592231338
 20
186.5740787581609
 10
152.6018040917567
 20
186.5774064169494
 10
152.7294489603799
 20
186.5740787581609
 10
152.8567470287319
 20
186.564104729342
 10
152.9833525735611
 20
186.5475115873705
 10
153.1089215285693
 20
186.5243442356732
 10
153.2331127271254
 20
186.494665721314
 10
153.3555889792859
 20
186.4585565722099
 10
153.3555889792859
 20
182.6418891867814
 10
153.2331127271254
 20
182.6057800376775
 10
153.1089215285693
 20
182.576101523318
 10
152.9833525735611
 20
182.552934171621
 10
152.8567470287319
 20
182.5363410296494
 10
152.7294489603799
 20
182.5263670008306
 10
152.6018040917567
 20
182.5230393420421
 10
152.4741592231338
 20
182.5263670008306
 10
152.3468611547816
 20
182.5363410296494
 10
152.2202556927998
 20
182.552934171621
 10
152.0946867377919
 20
182.576101523318
 97
        0
 75
     0
 76
     1
 98
        0
  0
HATCH
  5
81
330
74
100
AcDbEntity
  8
A1------H2_______Schraffur_Filling_1_5
  6
Continuous
 62
   252
370
     0
100
AcDbHatch
 10
0.0
 20
0.0
 30
0.0
210
0.0
220
0.0
230
1.0
  2
SOLID
 70
     1
 71
     0
 91
        1
 92
        3
 72
     0
 73
     1
 93
       12
 10
151.0942344823949
 20
187.3311912351132
 10
150.3404496631304
 20
187.3311912351121
 10
150.3404496631311
 20
185.4467291869551
 10
148.8328800246048
 20
185.4467291869551
 10
148.8328800246055
 20
186.2005140062188
 10
147.7022027957104
 20
186.2005140062182
 10
147.7022027957104
 20
183.9391595484288
 10
148.8328800246048
 20
183.9391595484277
 10
148.8328800246064
 20
184.6929443676917
 10
150.3404496631311
 20
184.6929443676917
 10
150.3404496631311
 20
182.5230393431447
 10
151.0942344823942
 20
181.7692545238818
 97
        0
 75
     0
 76
     1
 98
        0
  0
LWPOLYLINE
  5
82
330
74
100
AcDbEntity
  8
A1------H2_______Schraffur_Filling_1_5
  6
Continuous
 62
     7
 48
1000.0
370
    25
100
AcDbPolyline
 90
       12
 70
   129
 43
0.0
 10
151.0942344823949
 20
187.3311912351132
 10
150.3404496631304
 20
187.3311912351121
 10
150.3404496631311
 20
185.4467291869551
 10
148.8328800246048
 20
185.4467291869551
 10
148.8328800246055
 20
186.2005140062188
 10
147.7022027957104
 20
186.2005140062182
 10
147.7022027957104
 20
183.9391595484288
 10
148.8328800246048
 20
183.9391595484277
 10
148.8328800246064
 20
184.6929443676917
 10
150.3404496631311
 20
184.6929443676917
 10
150.3404496631311
 20
182.5230393431447
 10
151.0942344823942
 20
181.7692545238818
  0
HATCH
  5
83
330
74
100
AcDbEntity
  8
A1------H2_______Schraffur_Filling_1_5
  6
Continuous
 62
   252
370
     0
100
AcDbHatch
 10
0.0
 20
0.0
 30
0.0
210
0.0
220
0.0
230
1.0
  2
SOLID
 70
     1
 71
     0
 91
        1
 92
        3
 72
     0
 73
     1
 93
       77
 10
149.9635572534996
 20
185.8236215965865
 10
149.9635572534996
 20
187.3311912351128
 10
146.5715255668156
 20
187.3311912351128
 10
146.5715255668172
 20
185.4467291869568
 10
142.0488166512372
 20
185.4467291869551
 10
142.0488166512372
 20
184.6929443676917
 10
143.2085869091266
 20
184.6929443676917
 10
143.2183675240795
 20
184.6552736980578
 10
143.2300794777368
 20
184.618158068991
 10
143.2436915472457
 20
184.5816964269102
 10
143.2591674442394
 20
184.545985974776
 10
143.2764659115786
 20
184.5111219129458
 10
143.2955408333454
 20
184.4771971853998
 10
143.3163413577747
 20
184.4443022319417
 10
143.3388120328256
 20
184.4125247471102
 10
143.3628929540047
 20
184.3819494463805
 10
143.3885199240776
 20
184.3526578403418
 10
143.4156246241942
 20
184.3247280173719
 10
143.4441347960369
 20
184.298234435488
 10
143.4739744344404
 20
184.2732477238322
 10
143.5050639900259
 20
184.2498344943868
 10
143.537320581258
 20
184.2280571643937
 10
143.5706582154086
 20
184.2079737899593
 10
143.6049880178023
 20
184.1896379112757
 10
143.6402184687462
 20
184.1730984098966
 10
143.6762556475055
 20
184.1583993784157
 10
143.7130034827023
 20
184.1455800029293
 10
143.7503640084155
 20
184.1346744585595
 10
143.7882376253563
 20
184.1257118183628
 10
143.82652336639
 20
184.1187159758069
 10
143.8651191656961
 20
184.1137055810789
 10
143.9039221308796
 20
184.1106939913761
 10
143.9428288172537
 20
184.1096892352843
 10
143.9817355036295
 20
184.1106939913761
 10
144.0205384688116
 20
184.1137055810789
 10
144.0591342681197
 20
184.1187159758062
 10
144.0974200091529
 20
184.1257118183635
 10
144.1352936260936
 20
184.1346744585608
 10
144.1726541518074
 20
184.1455800029283
 10
144.2094019870028
 20
184.1583993784153
 10
144.2454391657637
 20
184.1730984098957
 10
144.280669616706
 20
184.1896379112766
 10
144.3149994190989
 20
184.2079737899593
 10
144.3483370532517
 20
184.2280571643944
 10
144.3805936444844
 20
184.2498344943868
 10
144.4116832000679
 20
184.2732477238329
 10
144.4415228384715
 20
184.2982344354889
 10
144.4700330103148
 20
184.3247280173719
 10
144.4971377104307
 20
184.352657840341
 10
144.5227646805036
 20
184.3819494463812
 10
144.546845601685
 20
184.4125247471102
 10
144.5693162767336
 20
184.4443022319411
 10
144.5901168011636
 20
184.4771971853998
 10
144.6091917229302
 20
184.5111219129458
 10
144.6264901902703
 20
184.5459859747753
 10
144.6419660872633
 20
184.5816964269102
 10
144.6555781567709
 20
184.618158068991
 10
144.6672901104295
 20
184.6552736980578
 10
144.6770713213039
 20
184.692942938147
 10
146.571525566815
 20
184.692944367691
 10
146.5715255668156
 20
182.8084823195342
 10
149.2097724342358
 20
182.8084823195337
 10
149.2097724342352
 20
182.0546975002715
 10
150.6258926395192
 20
180.6385772949868
 10
152.2249117112902
 20
180.6385772949888
 10
152.2249117112902
 20
179.8847924757252
 10
152.6018041209216
 20
179.8847924757252
 10
152.6018041209212
 20
181.3923621142508
 10
150.93812053477
 20
181.3923621142495
 10
149.963557253499
 20
182.3669253955202
 10
149.9635572534996
 20
184.3160519580605
 10
149.2097724342358
 20
184.3160519580598
 10
149.2097724342358
 20
183.5622671387966
 10
147.3253103860788
 20
183.5622671387975
 10
147.3253103860788
 20
186.5774064158499
 10
149.2097724342363
 20
186.5774064158499
 10
149.2097724342363
 20
185.8236215965865
 97
        0
 75
     0
 76
     1
 98
        0
  0
LWPOLYLINE
  5
84
330
74
100
AcDbEntity
  8
A1------H2_______Schraffur_Filling_1_5
  6
Continuous
 62
     7
 48
1000.0
370
    25
100
AcDbPolyline
 90
       77
 70
   129
 43
0.0
 10
149.9635572534996
 20
185.8236215965865
 10
149.9635572534996
 20
187.3311912351128
 10
146.5715255668156
 20
187.3311912351128
 10
146.5715255668172
 20
185.4467291869568
 10
142.0488166512372
 20
185.4467291869551
 10
142.0488166512372
 20
184.6929443676917
 10
143.2085869091266
 20
184.6929443676917
 10
143.2183675240795
 20
184.6552736980578
 10
143.2300794777368
 20
184.618158068991
 10
143.2436915472457
 20
184.5816964269102
 10
143.2591674442394
 20
184.545985974776
 10
143.2764659115786
 20
184.5111219129458
 10
143.2955408333454
 20
184.4771971853998
 10
143.3163413577747
 20
184.4443022319417
 10
143.3388120328256
 20
184.4125247471102
 10
143.3628929540047
 20
184.3819494463805
 10
143.3885199240776
 20
184.3526578403418
 10
143.4156246241942
 20
184.3247280173719
 10
143.4441347960369
 20
184.298234435488
 10
143.4739744344404
 20
184.2732477238322
 10
143.5050639900259
 20
184.2498344943868
 10
143.537320581258
 20
184.2280571643937
 10
143.5706582154086
 20
184.2079737899593
 10
143.6049880178023
 20
184.1896379112757
 10
143.6402184687462
 20
184.1730984098966
 10
143.6762556475055
 20
184.1583993784157
 10
143.7130034827023
 20
184.1455800029293
 10
143.7503640084155
 20
184.1346744585595
 10
143.7882376253563
 20
184.1257118183628
 10
143.82652336639
 20
184.1187159758069
 10
143.8651191656961
 20
184.1137055810789
 10
143.9039221308796
 20
184.1106939913761
 10
143.9428288172537
 20
184.1096892352843
 10
143.9817355036295
 20
184.1106939913761
 10
144.0205384688116
 20
184.1137055810789
 10
144.0591342681197
 20
184.1187159758062
 10
144.0974200091529
 20
184.1257118183635
 10
144.1352936260936
 20
184.1346744585608
 10
144.1726541518074
 20
184.1455800029283
 10
144.2094019870028
 20
184.1583993784153
 10
144.2454391657637
 20
184.1730984098957
 10
144.280669616706
 20
184.1896379112766
 10
144.3149994190989
 20
184.2079737899593
 10
144.3483370532517
 20
184.2280571643944
 10
144.3805936444844
 20
184.2498344943868
 10
144.4116832000679
 20
184.2732477238329
 10
144.4415228384715
 20
184.2982344354889
 10
144.4700330103148
 20
184.3247280173719
 10
144.4971377104307
 20
184.352657840341
 10
144.5227646805036
 20
184.3819494463812
 10
144.546845601685
 20
184.4125247471102
 10
144.5693162767336
 20
184.4443022319411
 10
144.5901168011636
 20
184.4771971853998
 10
144.6091917229302
 20
184.5111219129458
 10
144.6264901902703
 20
184.5459859747753
 10
144.6419660872633
 20
184.5816964269102
 10
144.6555781567709
 20
184.618158068991
 10
144.6672901104295
 20
184.6552736980578
 10
144.6770713213039
 20
184.692942938147
 10
146.571525566815
 20
184.692944367691
 10
146.5715255668156
 20
182.8084823195342
 10
149.2097724342358
 20
182.8084823195337
 10
149.2097724342352
 20
182.0546975002715
 10
150.6258926395192
 20
180.6385772949868
 10
152.2249117112902
 20
180.6385772949888
 10
152.2249117112902
 20
179.8847924757252
 10
152.6018041209216
 20
179.8847924757252
 10
152.6018041209212
 20
181.3923621142508
 10
150.93812053477
 20
181.3923621142495
 10
149.963557253499
 20
182.3669253955202
 10
149.9635572534996
 20
184.3160519580605
 10
149.2097724342358
 20
184.3160519580598
 10
149.2097724342358
 20
183.5622671387966
 10
147.3253103860788
 20
183.5622671387975
 10
147.3253103860788
 20
186.5774064158499
 10
149.2097724342363
 20
186.5774064158499
 10
149.2097724342363
 20
185.8236215965865
  0
HATCH
  5
85
330
74
100
AcDbEntity
  8
A1------H2_______Schraffur_Filling_1_5
  6
Continuous
 62
     7
370
    13
100
AcDbHatch
 10
0.0
 20
0.0
 30
0.0
210
0.0
220
0.0
230
1.0
  2
Dichtungsmasse_0001
 70
     0
 71
     0
 91
        1
 92
        3
 72
     0
 73
     1
 93
       13
 10
149.2097724342345
 20
182.8084823195337
 10
124.1062205504571
 20
182.8084823195342
 10
124.1627540159718
 20
182.1959171338887
 10
124.3283827323636
 20
180.9378421301737
 10
124.5596270186999
 20
179.6901596117806
 10
124.6523551347332
 20
179.2721022632773
 10
147.7833948477838
 20
179.2918136708648
 10
150.7865010887932
 20
179.337906969999
 10
151.6838316280347
 20
179.609535244917
 10
152.2249117112902
 20
179.8847924757252
 10
152.2249117112902
 20
180.6385772949888
 10
150.6258926395192
 20
180.6385772949868
 10
149.2097724342352
 20
182.0546975002715
 97
        0
 75
     0
 76
     2
 52
0.0
 41
1.0
 77
     0
 78
     2
 53
53.13010235415595
 43
1688.024586529066
 44
1656.125871091721
 45
-0.9545941546018389
 46
1.272792206135786
 79
     4
 49
0.0
 49
-1.060660171779821
 49
0.0
 49
-1.590990257669732
 53
105.2684716313825
 43
1691.024586529066
 44
1656.125871091721
 45
1.268585038060977
 46
0.6156362579861996
 79
     4
 49
0.0
 49
-0.857186052537228
 49
0.0
 49
-1.480594090746121
 98
        0
  0
LWPOLYLINE
  5
86
330
74
100
AcDbEntity
  8
A1------H2_______Schraffur_Filling_1_5
  6
Continuous
 62
     7
 48
1000.0
370
    25
100
AcDbPolyline
 90
       13
 70
   129
 43
0.0
 10
149.2097724342345
 20
182.8084823195337
 10
124.1062205504571
 20
182.8084823195342
 10
124.1627540159718
 20
182.1959171338887
 10
124.3283827323636
 20
180.9378421301737
 10
124.5596270186999
 20
179.6901596117806
 10
124.6523551347332
 20
179.2721022632773
 10
147.7833948477838
 20
179.2918136708648
 10
150.7865010887932
 20
179.337906969999
 10
151.6838316280347
 20
179.609535244917
 10
152.2249117112902
 20
179.8847924757252
 10
152.2249117112902
 20
180.6385772949888
 10
150.6258926395192
 20
180.6385772949868
 10
149.2097724342352
 20
182.0546975002715
  0
HATCH
  5
87
330
74
100
AcDbEntity
  8
A1------H2_______Schraffur_Filling_1_5
  6
Continuous
 62
   254
370
    35
100
AcDbHatch
 10
0.0
 20
0.0
 30
0.0
210
0.0
220
0.0
230
1.0
  2
SOLID
 70
     1
 71
     0
 91
        1
 92
        3
 72
     0
 73
     1
 93
       67
 10
124.0299781081862
 20
184.7294323720938
 10
124.0300056516215
 20
184.6929443741132
 10
124.0631948193802
 20
183.4609362536175
 10
124.1062206883963
 20
182.8084823195342
 10
146.5715255668156
 20
182.8084823195342
 10
146.5715255668156
 20
185.4467292631241
 10
146.5652597711779
 20
184.6929443741132
 10
144.6770625580542
 20
184.6929091050802
 10
144.6672900128474
 20
184.6552736878921
 10
144.6555780067202
 20
184.6181579011237
 10
144.6419661753478
 20
184.5816964388918
 10
144.6264901236585
 20
184.5459860391152
 10
144.6091918385963
 20
184.5111217602358
 10
144.5901166660612
 20
184.4771973171122
 10
144.5693163339681
 20
184.4443023938576
 10
144.5468455932919
 20
184.4125246592108
 10
144.5227645693368
 20
184.381949430642
 10
144.4971377540485
 20
184.3526579948751
 10
144.4700329983291
 20
184.3247279437832
 10
144.4415228556177
 20
184.2982345179693
 10
144.4116832383091
 20
184.273247583709
 10
144.3805937536495
 20
184.2498346560077
 10
144.3483370319445
 20
184.228057203752
 10
144.3149993983515
 20
184.207973672768
 10
144.2806695292962
 20
184.1896378063441
 10
144.2454391242645
 20
184.1730983093353
 10
144.2094018981153
 20
184.1583995199547
 10
144.1726542528725
 20
184.1455800661906
 10
144.1352935982463
 20
184.1346745452852
 10
144.0974200311114
 20
184.1257118442558
 10
144.0591343201332
 20
184.118715811687
 10
144.0205385775604
 20
184.1137055936246
 10
143.9817355874311
 20
184.1106939541002
 10
143.9636859040181
 20
184.1109814806934
 10
143.9039220237217
 20
184.1106939541002
 10
143.8651190335927
 20
184.1137055936246
 10
143.8265232910199
 20
184.118715811687
 10
143.7882375800417
 20
184.1257118442558
 10
143.7503640129065
 20
184.1346745452852
 10
143.7130033582805
 20
184.1455800661906
 10
143.6762557130376
 20
184.1583995199547
 10
143.6402184868886
 20
184.1730983093353
 10
143.6049880818568
 20
184.1896378063441
 10
143.5706582128014
 20
184.207973672768
 10
143.5373205792083
 20
184.228057203752
 10
143.5050638575035
 20
184.2498346560077
 10
143.4739743728437
 20
184.273247583709
 10
143.4441347555353
 20
184.2982345179693
 10
143.4156246128238
 20
184.3247279437832
 10
143.3885198571045
 20
184.3526579948751
 10
143.3628930418163
 20
184.381949430642
 10
143.3388120178609
 20
184.4125246592108
 10
143.316341277185
 20
184.4443023938576
 10
143.2955409450918
 20
184.4771973171122
 10
143.2764657725565
 20
184.5111217602358
 10
143.2591674874944
 20
184.5459860391152
 10
143.2436914358053
 20
184.5816964388918
 10
143.2300796044326
 20
184.6181579011237
 10
143.2183675983054
 20
184.6552736878921
 10
143.2085869916056
 20
184.6929437023221
 10
142.0488165686464
 20
184.6929443741132
 10
142.0488165686464
 20
185.4467292631241
 10
146.5715255668156
 20
185.4467292631241
 10
146.5715255668156
 20
187.3311913177034
 10
124.1700243845034
 20
187.3311913177034
 10
124.1627539252679
 20
187.2629477541823
 10
124.0631948193802
 20
185.9979284905704
 97
        0
 75
     0
 76
     1
 98
        0
  0
HATCH
  5
88
330
74
100
AcDbEntity
  8
A1------H2_______Schraffur_Filling_1_5
  6
Continuous
 62
   254
370
    35
100
AcDbHatch
 10
0.0
 20
0.0
 30
0.0
210
0.0
220
0.0
230
1.0
  2
SOLID
 70
     1
 71
     0
 91
        1
 92
        3
 72
     0
 73
     1
 93
        4
 10
14.99999999999879
 20
197.399363003985
 10
14.99999999999879
 20
166.2909048973214
 10
103.5834746120927
 20
166.2909048973214
 10
103.5834746120927
 20
197.399363003985
 97
        0
 75
     0
 76
     1
 98
        0
  0
HATCH
  5
89
330
74
100
AcDbEntity
  8
A1------H2_______Schraffur_Filling_1_5
  6
Continuous
 62
   254
370
    35
100
AcDbHatch
 10
0.0
 20
0.0
 30
0.0
210
0.0
220
0.0
230
1.0
  2
SOLID
 70
     1
 71
     0
 91
        1
 92
        3
 72
     0
 73
     1
 93
       33
 10
154.109373759445
 20
208.3199543709897
 10
152.0591316591786
 20
208.6685910569892
 10
150.8010566554636
 20
208.8342197733803
 10
149.5360374625636
 20
208.9337789430261
 10
148.2675414101562
 20
208.9669956811655
 10
146.999045357749
 20
208.9337789430261
 10
145.7340261648488
 20
208.8342197733803
 10
144.475951161134
 20
208.6685910569892
 10
143.2282686427413
 20
208.4373467706529
 10
141.9943984207281
 20
208.1411207388861
 10
140.7777224476088
 20
207.7807248966517
 10
139.5815755476546
 20
207.3571470639022
 10
138.4092362763754
 20
206.8715482380359
 10
137.2639179342256
 20
206.3252594116802
 10
136.1487597591711
 20
205.7197779245361
 10
135.0668183222554
 20
205.0567633592728
 10
134.0210591497526
 20
204.3380329927285
 10
133.0143485948649
 20
203.5655568148789
 10
132.0494459812476
 20
202.7414521292355
 10
131.1289960398947
 20
201.8679777494574
 10
130.2555216601162
 20
200.9475278081039
 10
129.4314169744726
 20
199.9826251944872
 10
128.6589407966234
 20
198.9759146395998
 10
127.9402104300791
 20
197.9301554670965
 10
127.2771958648162
 20
196.8482140301813
 10
126.6717143776719
 20
195.7330558551267
 10
126.125425551316
 20
194.5877375129765
 10
125.6398267254495
 20
193.4153982416973
 10
125.2162488927011
 20
192.2192513417433
 10
124.8558530504669
 20
191.002575368624
 10
124.5596270186999
 20
189.7687051466108
 10
124.0910895956713
 20
187.3311912351143
 10
154.109373759445
 20
187.3311912351148
 97
        0
 75
     0
 76
     1
 98
        0
  0
HATCH
  5
8A
330
74
100
AcDbEntity
  8
A1------H2_______Schraffur_Filling_1_5
  6
Continuous
 62
   254
370
    35
100
AcDbHatch
 10
0.0
 20
0.0
 30
0.0
210
0.0
220
0.0
230
1.0
  2
SOLID
 70
     1
 71
     0
 91
        1
 92
        3
 72
     0
 73
     1
 93
        4
 10
113.3728900316564
 20
160.4918690772252
 10
113.3728900316564
 20
215.0574140604711
 10
104.1142378370814
 20
215.0574140604711
 10
104.1142378370814
 20
160.4918690772252
 97
        0
 75
     0
 76
     1
 98
        0
  0
HATCH
  5
8B
330
74
100
AcDbEntity
  8
A1------H2_______Schraffur_Filling_1_5
  6
Continuous
 62
   254
370
    35
100
AcDbHatch
 10
0.0
 20
0.0
 30
0.0
210
0.0
220
0.0
230
1.0
  2
SOLID
 70
     1
 71
     0
 91
        1
 92
        3
 72
     0
 73
     1
 93
        4
 10
14.99999999999879
 20
198.8008888974617
 10
103.1108756488026
 20
198.8008888974617
 10
103.1108756488026
 20
214.9824901702355
 10
14.99999999999879
 20
214.9824901702355
 97
        0
 75
     0
 76
     1
 98
        0
  0
HATCH
  5
8C
330
74
100
AcDbEntity
  8
A1------H2_______Schraffur_Filling_1_5
  6
Continuous
 62
   254
370
    35
100
AcDbHatch
 10
0.0
 20
0.0
 30
0.0
210
0.0
220
0.0
230
1.0
  2
SOLID
 70
     1
 71
     0
 91
        1
 92
        3
 72
     1
 73
     1
 93
        4
 10
154.109373759445
 20
208.2524523728069
 42
0.0
 10
154.109373759445
 20
167.7890611456316
 42
0.0
 10
165.6019954623051
 20
167.7890611456316
 42
0.195926034545087
 10
172.5051047121269
 20
184.7294323791957
 42
0.3445864037339012
 97
        0
 75
     0
 76
     1
 98
        0
  0
LINE
  5
8D
330
74
100
AcDbEntity
  8
A1E-----M5_______Rohbau
  6
Continuous
 62
     7
 48
1000.0
370
    80
100
AcDbLine
 10
14.9999999999988
 20
198.853370835355
 30
0.0
 11
103.1108756488026
 21
198.853370835355
 31
0.0
  0
LINE
  5
8F
330
74
100
AcDbEntity
  8
A1E-----M5_______Rohbau
  6
Continuous
 62
     7
 48
1000.0
370
    80
100
AcDbLine
 10
103.1108756488026
 20
214.9824901702355
 30
0.0
 11
103.1108756488026
 21
198.853370835355
 31
0.0
  0
LINE
  5
90
330
74
100
AcDbEntity
  8
A1E-----M5_______Rohbau
  6
Continuous
 62
     7
 48
1000.0
370
    80
100
AcDbLine
 10
104.1142378370814
 20
215.0574140604711
 30
0.0
 11
104.1142378370814
 21
160.705836270286
 31
0.0
  0
LINE
  5
91
330
74
100
AcDbEntity
  8
A1E-----M5_______Rohbau
  6
Continuous
 62
     7
 48
1000.0
370
    25
100
AcDbLine
 10
14.9999999999988
 20
197.7722744738273
 30
0.0
 11
103.9834746120924
 21
197.7722744738273
 31
0.0
  0
LINE
  5
92
330
74
100
AcDbEntity
  8
A1-----1H2_______Schraffur_1_5
  6
Continuous
 62
     7
 48
1000.0
370
    13
100
AcDbLine
 10
16.11933127387033
 20
197.3993618595753
 30
0.0
 11
17.47533127387024
 21
197.2121618664418
 31
0.0
  0
LINE
  5
94
330
74
100
AcDbEntity
  8
A1-----1H2_______Schraffur_1_5
  6
Continuous
 62
     7
 48
1000.0
370
    13
100
AcDbLine
 10
17.47533127387024
 20
197.2121618664418
 30
0.0
 11
19.28733127386973
 21
196.9313618767416
 31
0.0
  0
LINE
  5
95
330
74
100
AcDbEntity
  8
A1-----1H2_______Schraffur_1_5
  6
Continuous
 62
     7
 48
1000.0
370
    13
100
AcDbLine
 10
19.28733127386973
 20
196.9313618767416
 30
0.0
 11
20.29533127387007
 21
196.5257618916192
 31
0.0
  0
LINE
  5
96
330
74
100
AcDbEntity
  8
A1-----1H2_______Schraffur_1_5
  6
Continuous
 62
     7
 48
1000.0
370
    13
100
AcDbLine
 10
20.29533127387007
 20
196.5257618916192
 30
0.0
 11
21.19533127386997
 21
195.5273619282403
 31
0.0
  0
LINE
  5
97
330
74
100
AcDbEntity
  8
A1-----1H2_______Schraffur_1_5
  6
Continuous
 62
     7
 48
1000.0
370
    13
100
AcDbLine
 10
21.19533127386997
 20
195.5273619282403
 30
0.0
 11
21.6873312738699
 21
194.5913619625725
 31
0.0
  0
LINE
  5
98
330
74
100
AcDbEntity
  8
A1-----1H2_______Schraffur_1_5
  6
Continuous
 62
     7
 48
1000.0
370
    13
100
AcDbLine
 10
21.6873312738699
 20
194.5913619625725
 30
0.0
 11
21.98733127386987
 21
193.4369620049154
 31
0.0
  0
LINE
  5
99
330
74
100
AcDbEntity
  8
A1-----1H2_______Schraffur_1_5
  6
Continuous
 62
     7
 48
1000.0
370
    13
100
AcDbLine
 10
21.98733127386987
 20
193.4369620049154
 30
0.0
 11
22.11933127386989
 21
191.4713620770134
 31
0.0
  0
LINE
  5
9A
330
74
100
AcDbEntity
  8
A1-----1H2_______Schraffur_1_5
  6
Continuous
 62
     7
 48
1000.0
370
    13
100
AcDbLine
 10
28.11933127387012
 20
197.3993618595757
 30
0.0
 11
29.47533127387003
 21
197.2121618664418
 31
0.0
  0
LINE
  5
9B
330
74
100
AcDbEntity
  8
A1-----1H2_______Schraffur_1_5
  6
Continuous
 62
     7
 48
1000.0
370
    13
100
AcDbLine
 10
29.47533127387003
 20
197.2121618664418
 30
0.0
 11
31.28733127387018
 21
196.9313618767416
 31
0.0
  0
LINE
  5
9C
330
74
100
AcDbEntity
  8
A1-----1H2_______Schraffur_1_5
  6
Continuous
 62
     7
 48
1000.0
370
    13
100
AcDbLine
 10
31.28733127387018
 20
196.9313618767416
 30
0.0
 11
32.29533127386986
 21
196.5257618916192
 31
0.0
  0
LINE
  5
9D
330
74
100
AcDbEntity
  8
A1-----1H2_______Schraffur_1_5
  6
Continuous
 62
     7
 48
1000.0
370
    13
100
AcDbLine
 10
32.29533127386986
 20
196.5257618916192
 30
0.0
 11
33.19533127386976
 21
195.5273619282403
 31
0.0
  0
LINE
  5
9E
330
74
100
AcDbEntity
  8
A1-----1H2_______Schraffur_1_5
  6
Continuous
 62
     7
 48
1000.0
370
    13
100
AcDbLine
 10
33.19533127386976
 20
195.5273619282403
 30
0.0
 11
33.68733127387036
 21
194.5913619625725
 31
0.0
  0
LINE
  5
9F
330
74
100
AcDbEntity
  8
A1-----1H2_______Schraffur_1_5
  6
Continuous
 62
     7
 48
1000.0
370
    13
100
AcDbLine
 10
33.68733127387036
 20
194.5913619625725
 30
0.0
 11
33.98733127387032
 21
193.4369620049154
 31
0.0
  0
LINE
  5
A0
330
74
100
AcDbEntity
  8
A1-----1H2_______Schraffur_1_5
  6
Continuous
 62
     7
 48
1000.0
370
    13
100
AcDbLine
 10
33.98733127387032
 20
193.4369620049154
 30
0.0
 11
34.11933127387035
 21
191.4713620770134
 31
0.0
  0
LINE
  5
A1
330
74
100
AcDbEntity
  8
A1-----1H2_______Schraffur_1_5
  6
Continuous
 62
     7
 48
1000.0
370
    13
100
AcDbLine
 10
40.1193312738699
 20
197.3993618595757
 30
0.0
 11
41.47533127387048
 21
197.2121618664418
 31
0.0
  0
LINE
  5
A2
330
74
100
AcDbEntity
  8
A1-----1H2_______Schraffur_1_5
  6
Continuous
 62
     7
 48
1000.0
370
    13
100
AcDbLine
 10
41.47533127387048
 20
197.2121618664418
 30
0.0
 11
43.28733127386997
 21
196.9313618767416
 31
0.0
  0
LINE
  5
A3
330
74
100
AcDbEntity
  8
A1-----1H2_______Schraffur_1_5
  6
Continuous
 62
     7
 48
1000.0
370
    13
100
AcDbLine
 10
43.28733127386997
 20
196.9313618767416
 30
0.0
 11
44.29533127387031
 21
196.5257618916192
 31
0.0
  0
LINE
  5
A4
330
74
100
AcDbEntity
  8
A1-----1H2_______Schraffur_1_5
  6
Continuous
 62
     7
 48
1000.0
370
    13
100
AcDbLine
 10
44.29533127387031
 20
196.5257618916192
 30
0.0
 11
45.19533127387021
 21
195.5273619282403
 31
0.0
  0
LINE
  5
A5
330
74
100
AcDbEntity
  8
A1-----1H2_______Schraffur_1_5
  6
Continuous
 62
     7
 48
1000.0
370
    13
100
AcDbLine
 10
45.19533127387021
 20
195.5273619282403
 30
0.0
 11
45.68733127387014
 21
194.5913619625725
 31
0.0
  0
LINE
  5
A6
330
74
100
AcDbEntity
  8
A1-----1H2_______Schraffur_1_5
  6
Continuous
 62
     7
 48
1000.0
370
    13
100
AcDbLine
 10
45.68733127387014
 20
194.5913619625725
 30
0.0
 11
45.98733127387011
 21
193.4369620049154
 31
0.0
  0
LINE
  5
A7
330
74
100
AcDbEntity
  8
A1-----1H2_______Schraffur_1_5
  6
Continuous
 62
     7
 48
1000.0
370
    13
100
AcDbLine
 10
45.98733127387011
 20
193.4369620049154
 30
0.0
 11
46.11933127387013
 21
191.4713620770134
 31
0.0
  0
LINE
  5
A8
330
74
100
AcDbEntity
  8
A1-----1H2_______Schraffur_1_5
  6
Continuous
 62
     7
 48
1000.0
370
    13
100
AcDbLine
 10
52.11933127387036
 20
197.3993618595757
 30
0.0
 11
53.47533127387005
 21
197.2121618664418
 31
0.0
  0
LINE
  5
A9
330
74
100
AcDbEntity
  8
A1-----1H2_______Schraffur_1_5
  6
Continuous
 62
     7
 48
1000.0
370
    13
100
AcDbLine
 10
53.47533127387005
 20
197.2121618664418
 30
0.0
 11
55.28733127387042
 21
196.9313618767416
 31
0.0
  0
LINE
  5
AA
330
74
100
AcDbEntity
  8
A1-----1H2_______Schraffur_1_5
  6
Continuous
 62
     7
 48
1000.0
370
    13
100
AcDbLine
 10
55.28733127387042
 20
196.9313618767416
 30
0.0
 11
56.29533127386988
 21
196.5257618916192
 31
0.0
  0
LINE
  5
AB
330
74
100
AcDbEntity
  8
A1-----1H2_______Schraffur_1_5
  6
Continuous
 62
     7
 48
1000.0
370
    13
100
AcDbLine
 10
56.29533127386988
 20
196.5257618916192
 30
0.0
 11
57.19533127387
 21
195.5273619282403
 31
0.0
  0
LINE
  5
AC
330
74
100
AcDbEntity
  8
A1-----1H2_______Schraffur_1_5
  6
Continuous
 62
     7
 48
1000.0
370
    13
100
AcDbLine
 10
57.19533127387
 20
195.5273619282403
 30
0.0
 11
57.68733127386994
 21
194.5913619625725
 31
0.0
  0
LINE
  5
AD
330
74
100
AcDbEntity
  8
A1-----1H2_______Schraffur_1_5
  6
Continuous
 62
     7
 48
1000.0
370
    13
100
AcDbLine
 10
57.68733127386994
 20
194.5913619625725
 30
0.0
 11
57.9873312738699
 21
193.4369620049154
 31
0.0
  0
LINE
  5
AE
330
74
100
AcDbEntity
  8
A1-----1H2_______Schraffur_1_5
  6
Continuous
 62
     7
 48
1000.0
370
    13
100
AcDbLine
 10
57.9873312738699
 20
193.4369620049154
 30
0.0
 11
58.11933127386992
 21
191.4713620770134
 31
0.0
  0
LINE
  5
AF
330
74
100
AcDbEntity
  8
A1-----1H2_______Schraffur_1_5
  6
Continuous
 62
     7
 48
1000.0
370
    13
100
AcDbLine
 10
64.11933127387015
 20
197.3993618595757
 30
0.0
 11
65.47533127387051
 21
197.2121618664418
 31
0.0
  0
LINE
  5
B0
330
74
100
AcDbEntity
  8
A1-----1H2_______Schraffur_1_5
  6
Continuous
 62
     7
 48
1000.0
370
    13
100
AcDbLine
 10
65.47533127387051
 20
197.2121618664418
 30
0.0
 11
67.28733127387021
 21
196.9313618767416
 31
0.0
  0
LINE
  5
B1
330
74
100
AcDbEntity
  8
A1-----1H2_______Schraffur_1_5
  6
Continuous
 62
     7
 48
1000.0
370
    13
100
AcDbLine
 10
67.28733127387021
 20
196.9313618767416
 30
0.0
 11
68.29533127387033
 21
196.5257618916192
 31
0.0
  0
LINE
  5
B2
330
74
100
AcDbEntity
  8
A1-----1H2_______Schraffur_1_5
  6
Continuous
 62
     7
 48
1000.0
370
    13
100
AcDbLine
 10
68.29533127387033
 20
196.5257618916192
 30
0.0
 11
69.19533127387045
 21
195.5273619282403
 31
0.0
  0
LINE
  5
B3
330
74
100
AcDbEntity
  8
A1-----1H2_______Schraffur_1_5
  6
Continuous
 62
     7
 48
1000.0
370
    13
100
AcDbLine
 10
69.19533127387045
 20
195.5273619282403
 30
0.0
 11
69.68733127387038
 21
194.5913619625725
 31
0.0
  0
LINE
  5
B4
330
74
100
AcDbEntity
  8
A1-----1H2_______Schraffur_1_5
  6
Continuous
 62
     7
 48
1000.0
370
    13
100
AcDbLine
 10
69.68733127387038
 20
194.5913619625725
 30
0.0
 11
69.98733127387035
 21
193.4369620049154
 31
0.0
  0
LINE
  5
B5
330
74
100
AcDbEntity
  8
A1-----1H2_______Schraffur_1_5
  6
Continuous
 62
     7
 48
1000.0
370
    13
100
AcDbLine
 10
69.98733127387035
 20
193.4369620049154
 30
0.0
 11
70.11933127387037
 21
191.4713620770134
 31
0.0
  0
LINE
  5
B6
330
74
100
AcDbEntity
  8
A1-----1H2_______Schraffur_1_5
  6
Continuous
 62
     7
 48
1000.0
370
    13
100
AcDbLine
 10
76.11933127386972
 20
197.3993618595757
 30
0.0
 11
77.4753312738703
 21
197.2121618664418
 31
0.0
  0
LINE
  5
B7
330
74
100
AcDbEntity
  8
A1-----1H2_______Schraffur_1_5
  6
Continuous
 62
     7
 48
1000.0
370
    13
100
AcDbLine
 10
77.4753312738703
 20
197.2121618664418
 30
0.0
 11
79.28733127387
 21
196.9313618767416
 31
0.0
  0
LINE
  5
B8
330
74
100
AcDbEntity
  8
A1-----1H2_______Schraffur_1_5
  6
Continuous
 62
     7
 48
1000.0
370
    13
100
AcDbLine
 10
79.28733127387
 20
196.9313618767416
 30
0.0
 11
80.29533127387079
 21
196.5257618916192
 31
0.0
  0
LINE
  5
B9
330
74
100
AcDbEntity
  8
A1-----1H2_______Schraffur_1_5
  6
Continuous
 62
     7
 48
1000.0
370
    13
100
AcDbLine
 10
80.29533127387079
 20
196.5257618916192
 30
0.0
 11
81.1953312738709
 21
195.5273619282403
 31
0.0
  0
LINE
  5
BA
330
74
100
AcDbEntity
  8
A1-----1H2_______Schraffur_1_5
  6
Continuous
 62
     7
 48
1000.0
370
    13
100
AcDbLine
 10
81.1953312738709
 20
195.5273619282403
 30
0.0
 11
81.68733127387085
 21
194.5913619625725
 31
0.0
  0
LINE
  5
BB
330
74
100
AcDbEntity
  8
A1-----1H2_______Schraffur_1_5
  6
Continuous
 62
     7
 48
1000.0
370
    13
100
AcDbLine
 10
81.68733127387085
 20
194.5913619625725
 30
0.0
 11
81.98733127387081
 21
193.4369620049154
 31
0.0
  0
LINE
  5
BC
330
74
100
AcDbEntity
  8
A1-----1H2_______Schraffur_1_5
  6
Continuous
 62
     7
 48
1000.0
370
    13
100
AcDbLine
 10
81.98733127387081
 20
193.4369620049154
 30
0.0
 11
82.11933127387083
 21
191.4713620770134
 31
0.0
  0
LINE
  5
BD
330
74
100
AcDbEntity
  8
A1-----1H2_______Schraffur_1_5
  6
Continuous
 62
     7
 48
1000.0
370
    13
100
AcDbLine
 10
88.11933127387017
 20
197.3993618595757
 30
0.0
 11
89.47533127387052
 21
197.2121618664418
 31
0.0
  0
LINE
  5
BE
330
74
100
AcDbEntity
  8
A1-----1H2_______Schraffur_1_5
  6
Continuous
 62
     7
 48
1000.0
370
    13
100
AcDbLine
 10
89.47533127387052
 20
197.2121618664418
 30
0.0
 11
91.28733127387068
 21
196.9313618767416
 31
0.0
  0
LINE
  5
BF
330
74
100
AcDbEntity
  8
A1-----1H2_______Schraffur_1_5
  6
Continuous
 62
     7
 48
1000.0
370
    13
100
AcDbLine
 10
91.28733127387068
 20
196.9313618767416
 30
0.0
 11
92.29533127387033
 21
196.5257618916192
 31
0.0
  0
LINE
  5
C0
330
74
100
AcDbEntity
  8
A1-----1H2_______Schraffur_1_5
  6
Continuous
 62
     7
 48
1000.0
370
    13
100
AcDbLine
 10
92.29533127387033
 20
196.5257618916192
 30
0.0
 11
93.19533127387025
 21
195.5273619282403
 31
0.0
  0
LINE
  5
C1
330
74
100
AcDbEntity
  8
A1-----1H2_______Schraffur_1_5
  6
Continuous
 62
     7
 48
1000.0
370
    13
100
AcDbLine
 10
93.19533127387025
 20
195.5273619282403
 30
0.0
 11
93.68733127387041
 21
194.5913619625725
 31
0.0
  0
LINE
  5
C2
330
74
100
AcDbEntity
  8
A1-----1H2_______Schraffur_1_5
  6
Continuous
 62
     7
 48
1000.0
370
    13
100
AcDbLine
 10
93.68733127387041
 20
194.5913619625725
 30
0.0
 11
93.98733127387058
 21
193.4369620049154
 31
0.0
  0
LINE
  5
C3
330
74
100
AcDbEntity
  8
A1-----1H2_______Schraffur_1_5
  6
Continuous
 62
     7
 48
1000.0
370
    13
100
AcDbLine
 10
93.98733127387058
 20
193.4369620049154
 30
0.0
 11
94.1193312738704
 21
191.4713620770134
 31
0.0
  0
LINE
  5
C4
330
74
100
AcDbEntity
  8
A1-----1H2_______Schraffur_1_5
  6
Continuous
 62
     7
 48
1000.0
370
    13
100
AcDbLine
 10
100.1193312738706
 20
197.3993618595757
 30
0.0
 11
101.4753312738701
 21
197.2121618664418
 31
0.0
  0
LINE
  5
C5
330
74
100
AcDbEntity
  8
A1-----1H2_______Schraffur_1_5
  6
Continuous
 62
     7
 48
1000.0
370
    13
100
AcDbLine
 10
101.4753312738701
 20
197.2121618664418
 30
0.0
 11
103.2873312738705
 21
196.9313618767416
 31
0.0
  0
LINE
  5
C6
330
74
100
AcDbEntity
  8
A1-----1H2_______Schraffur_1_5
  6
Continuous
 62
     7
 48
1000.0
370
    13
100
AcDbLine
 10
103.2873312738705
 20
196.9313618767416
 30
0.0
 11
103.5834746120927
 21
196.8121994426377
 31
0.0
  0
LINE
  5
C7
330
74
100
AcDbEntity
  8
A1-----1H2_______Schraffur_1_5
  6
Continuous
 62
     7
 48
1000.0
370
    13
100
AcDbLine
 10
21.99933127387022
 20
189.6929621422445
 30
0.0
 11
21.80733127387025
 21
188.6009621822991
 31
0.0
  0
LINE
  5
C8
330
74
100
AcDbEntity
  8
A1-----1H2_______Schraffur_1_5
  6
Continuous
 62
     7
 48
1000.0
370
    13
100
AcDbLine
 10
21.80733127387025
 20
188.6009621822991
 30
0.0
 11
21.41133127386974
 21
187.4777622234978
 31
0.0
  0
LINE
  5
C9
330
74
100
AcDbEntity
  8
A1-----1H2_______Schraffur_1_5
  6
Continuous
 62
     7
 48
1000.0
370
    13
100
AcDbLine
 10
33.99933127387001
 20
189.6929621422445
 30
0.0
 11
33.80733127387003
 21
188.6009621822991
 31
0.0
  0
LINE
  5
CA
330
74
100
AcDbEntity
  8
A1-----1H2_______Schraffur_1_5
  6
Continuous
 62
     7
 48
1000.0
370
    13
100
AcDbLine
 10
33.80733127387003
 20
188.6009621822991
 30
0.0
 11
33.41133127387019
 21
187.4777622234978
 31
0.0
  0
LINE
  5
CB
330
74
100
AcDbEntity
  8
A1-----1H2_______Schraffur_1_5
  6
Continuous
 62
     7
 48
1000.0
370
    13
100
AcDbLine
 10
45.99933127387046
 20
189.6929621422445
 30
0.0
 11
45.80733127386982
 21
188.6009621822991
 31
0.0
  0
LINE
  5
CC
330
74
100
AcDbEntity
  8
A1-----1H2_______Schraffur_1_5
  6
Continuous
 62
     7
 48
1000.0
370
    13
100
AcDbLine
 10
45.80733127386982
 20
188.6009621822991
 30
0.0
 11
45.41133127387064
 21
187.4777622234978
 31
0.0
  0
LINE
  5
CD
330
74
100
AcDbEntity
  8
A1-----1H2_______Schraffur_1_5
  6
Continuous
 62
     7
 48
1000.0
370
    13
100
AcDbLine
 10
57.99933127387003
 20
189.6929621422445
 30
0.0
 11
57.80733127387028
 21
188.6009621822991
 31
0.0
  0
LINE
  5
CE
330
74
100
AcDbEntity
  8
A1-----1H2_______Schraffur_1_5
  6
Continuous
 62
     7
 48
1000.0
370
    13
100
AcDbLine
 10
57.80733127387028
 20
188.6009621822991
 30
0.0
 11
57.41133127387044
 21
187.4777622234978
 31
0.0
  0
LINE
  5
CF
330
74
100
AcDbEntity
  8
A1-----1H2_______Schraffur_1_5
  6
Continuous
 62
     7
 48
1000.0
370
    13
100
AcDbLine
 10
69.99933127387048
 20
189.6929621422445
 30
0.0
 11
69.80733127387006
 21
188.6009621822991
 31
0.0
  0
LINE
  5
D0
330
74
100
AcDbEntity
  8
A1-----1H2_______Schraffur_1_5
  6
Continuous
 62
     7
 48
1000.0
370
    13
100
AcDbLine
 10
69.80733127387006
 20
188.6009621822991
 30
0.0
 11
69.41133127387
 21
187.4777622234978
 31
0.0
  0
LINE
  5
D1
330
74
100
AcDbEntity
  8
A1-----1H2_______Schraffur_1_5
  6
Continuous
 62
     7
 48
1000.0
370
    13
100
AcDbLine
 10
81.99933127387027
 20
189.6929621422445
 30
0.0
 11
81.80733127387052
 21
188.6009621822991
 31
0.0
  0
LINE
  5
D2
330
74
100
AcDbEntity
  8
A1-----1H2_______Schraffur_1_5
  6
Continuous
 62
     7
 48
1000.0
370
    13
100
AcDbLine
 10
81.80733127387052
 20
188.6009621822991
 30
0.0
 11
81.41133127387045
 21
187.4777622234978
 31
0.0
  0
LINE
  5
D3
330
74
100
AcDbEntity
  8
A1-----1H2_______Schraffur_1_5
  6
Continuous
 62
     7
 48
1000.0
370
    13
100
AcDbLine
 10
93.9993312738705
 20
189.6929621422445
 30
0.0
 11
93.80733127387053
 21
188.6009621822991
 31
0.0
  0
LINE
  5
D4
330
74
100
AcDbEntity
  8
A1-----1H2_______Schraffur_1_5
  6
Continuous
 62
     7
 48
1000.0
370
    13
100
AcDbLine
 10
93.80733127387053
 20
188.6009621822991
 30
0.0
 11
93.41133127387069
 21
187.4777622234978
 31
0.0
  0
LINE
  5
D5
330
74
100
AcDbEntity
  8
A1-----1H2_______Schraffur_1_5
  6
Continuous
 62
     7
 48
1000.0
370
    13
100
AcDbLine
 10
22.11933127386989
 20
191.4713620770134
 30
0.0
 11
21.99933127387022
 21
189.6929621422445
 31
0.0
  0
LINE
  5
D6
330
74
100
AcDbEntity
  8
A1-----1H2_______Schraffur_1_5
  6
Continuous
 62
     7
 48
1000.0
370
    13
100
AcDbLine
 10
34.11933127387035
 20
191.4713620770134
 30
0.0
 11
33.99933127387001
 21
189.6929621422445
 31
0.0
  0
LINE
  5
D7
330
74
100
AcDbEntity
  8
A1-----1H2_______Schraffur_1_5
  6
Continuous
 62
     7
 48
1000.0
370
    13
100
AcDbLine
 10
46.11933127387013
 20
191.4713620770134
 30
0.0
 11
45.99933127387046
 21
189.6929621422445
 31
0.0
  0
LINE
  5
D8
330
74
100
AcDbEntity
  8
A1-----1H2_______Schraffur_1_5
  6
Continuous
 62
     7
 48
1000.0
370
    13
100
AcDbLine
 10
58.11933127386992
 20
191.4713620770134
 30
0.0
 11
57.99933127387003
 21
189.6929621422445
 31
0.0
  0
LINE
  5
D9
330
74
100
AcDbEntity
  8
A1-----1H2_______Schraffur_1_5
  6
Continuous
 62
     7
 48
1000.0
370
    13
100
AcDbLine
 10
70.11933127387037
 20
191.4713620770134
 30
0.0
 11
69.99933127387048
 21
189.6929621422445
 31
0.0
  0
LINE
  5
DA
330
74
100
AcDbEntity
  8
A1-----1H2_______Schraffur_1_5
  6
Continuous
 62
     7
 48
1000.0
370
    13
100
AcDbLine
 10
82.11933127387083
 20
191.4713620770134
 30
0.0
 11
81.99933127387027
 21
189.6929621422445
 31
0.0
  0
LINE
  5
DB
330
74
100
AcDbEntity
  8
A1-----1H2_______Schraffur_1_5
  6
Continuous
 62
     7
 48
1000.0
370
    13
100
AcDbLine
 10
94.1193312738704
 20
191.4713620770134
 30
0.0
 11
93.9993312738705
 21
189.6929621422445
 31
0.0
  0
LINE
  5
DC
330
74
100
AcDbEntity
  8
A1-----1H2_______Schraffur_1_5
  6
Continuous
 62
     7
 48
1000.0
370
    13
100
AcDbLine
 10
28.11933127387012
 20
197.3993618595757
 30
0.0
 11
26.75133127387009
 21
197.2121618664418
 31
0.0
  0
LINE
  5
DD
330
74
100
AcDbEntity
  8
A1-----1H2_______Schraffur_1_5
  6
Continuous
 62
     7
 48
1000.0
370
    13
100
AcDbLine
 10
40.1193312738699
 20
197.3993618595757
 30
0.0
 11
38.75133127386987
 21
197.2121618664418
 31
0.0
  0
LINE
  5
DE
330
74
100
AcDbEntity
  8
A1-----1H2_______Schraffur_1_5
  6
Continuous
 62
     7
 48
1000.0
370
    13
100
AcDbLine
 10
52.11933127387036
 20
197.3993618595757
 30
0.0
 11
50.75133127387033
 21
197.2121618664418
 31
0.0
  0
LINE
  5
DF
330
74
100
AcDbEntity
  8
A1-----1H2_______Schraffur_1_5
  6
Continuous
 62
     7
 48
1000.0
370
    13
100
AcDbLine
 10
64.11933127387015
 20
197.3993618595757
 30
0.0
 11
62.75133127386989
 21
197.2121618664418
 31
0.0
  0
LINE
  5
E0
330
74
100
AcDbEntity
  8
A1-----1H2_______Schraffur_1_5
  6
Continuous
 62
     7
 48
1000.0
370
    13
100
AcDbLine
 10
76.11933127386972
 20
197.3993618595757
 30
0.0
 11
74.75133127387035
 21
197.2121618664418
 31
0.0
  0
LINE
  5
E1
330
74
100
AcDbEntity
  8
A1-----1H2_______Schraffur_1_5
  6
Continuous
 62
     7
 48
1000.0
370
    13
100
AcDbLine
 10
88.11933127387017
 20
197.3993618595757
 30
0.0
 11
86.7513312738708
 21
197.2121618664418
 31
0.0
  0
LINE
  5
E2
330
74
100
AcDbEntity
  8
A1-----1H2_______Schraffur_1_5
  6
Continuous
 62
     7
 48
1000.0
370
    13
100
AcDbLine
 10
100.1193312738706
 20
197.3993618595757
 30
0.0
 11
98.75133127387059
 21
197.2121618664418
 31
0.0
  0
LINE
  5
E3
330
74
100
AcDbEntity
  8
A1-----1H2_______Schraffur_1_5
  6
Continuous
 62
     7
 48
1000.0
370
    13
100
AcDbLine
 10
26.76333127387021
 20
197.2121618664418
 30
0.0
 11
24.95133127387006
 21
196.9313618767416
 31
0.0
  0
LINE
  5
E4
330
74
100
AcDbEntity
  8
A1-----1H2_______Schraffur_1_5
  6
Continuous
 62
     7
 48
1000.0
370
    13
100
AcDbLine
 10
24.95133127387006
 20
196.9313618767416
 30
0.0
 11
23.94333127387038
 21
196.5257618916192
 31
0.0
  0
LINE
  5
E5
330
74
100
AcDbEntity
  8
A1-----1H2_______Schraffur_1_5
  6
Continuous
 62
     7
 48
1000.0
370
    13
100
AcDbLine
 10
23.94333127387038
 20
196.5257618916192
 30
0.0
 11
23.04333127387049
 21
195.5273619282403
 31
0.0
  0
LINE
  5
E6
330
74
100
AcDbEntity
  8
A1-----1H2_______Schraffur_1_5
  6
Continuous
 62
     7
 48
1000.0
370
    13
100
AcDbLine
 10
23.04333127387049
 20
195.5273619282403
 30
0.0
 11
22.55133127386988
 21
194.5913619625725
 31
0.0
  0
LINE
  5
E7
330
74
100
AcDbEntity
  8
A1-----1H2_______Schraffur_1_5
  6
Continuous
 62
     7
 48
1000.0
370
    13
100
AcDbLine
 10
22.55133127386988
 20
194.5913619625725
 30
0.0
 11
22.25133127386991
 21
193.4369620049154
 31
0.0
  0
LINE
  5
E8
330
74
100
AcDbEntity
  8
A1-----1H2_______Schraffur_1_5
  6
Continuous
 62
     7
 48
1000.0
370
    13
100
AcDbLine
 10
22.25133127386991
 20
193.4369620049154
 30
0.0
 11
22.11933127386989
 21
191.4713620770134
 31
0.0
  0
LINE
  5
E9
330
74
100
AcDbEntity
  8
A1-----1H2_______Schraffur_1_5
  6
Continuous
 62
     7
 48
1000.0
370
    13
100
AcDbLine
 10
22.11933127386989
 20
191.4713620770134
 30
0.0
 11
22.23933127387023
 21
189.6929621422445
 31
0.0
  0
LINE
  5
EA
330
74
100
AcDbEntity
  8
A1-----1H2_______Schraffur_1_5
  6
Continuous
 62
     7
 48
1000.0
370
    13
100
AcDbLine
 10
22.23933127387023
 20
189.6929621422445
 30
0.0
 11
22.4313312738702
 21
188.6009621822991
 31
0.0
  0
LINE
  5
EB
330
74
100
AcDbEntity
  8
A1-----1H2_______Schraffur_1_5
  6
Continuous
 62
     7
 48
1000.0
370
    13
100
AcDbLine
 10
22.4313312738702
 20
188.6009621822991
 30
0.0
 11
22.82733127387005
 21
187.4777622234978
 31
0.0
  0
LINE
  5
EC
330
74
100
AcDbEntity
  8
A1-----1H2_______Schraffur_1_5
  6
Continuous
 62
     7
 48
1000.0
370
    13
100
AcDbLine
 10
38.76333127386999
 20
197.2121618664418
 30
0.0
 11
36.95133127387052
 21
196.9313618767416
 31
0.0
  0
LINE
  5
ED
330
74
100
AcDbEntity
  8
A1-----1H2_______Schraffur_1_5
  6
Continuous
 62
     7
 48
1000.0
370
    13
100
AcDbLine
 10
36.95133127387052
 20
196.9313618767416
 30
0.0
 11
35.94333127387017
 21
196.5257618916192
 31
0.0
  0
LINE
  5
EE
330
74
100
AcDbEntity
  8
A1-----1H2_______Schraffur_1_5
  6
Continuous
 62
     7
 48
1000.0
370
    13
100
AcDbLine
 10
35.94333127387017
 20
196.5257618916192
 30
0.0
 11
35.04333127387027
 21
195.5273619282403
 31
0.0
  0
LINE
  5
EF
330
74
100
AcDbEntity
  8
A1-----1H2_______Schraffur_1_5
  6
Continuous
 62
     7
 48
1000.0
370
    13
100
AcDbLine
 10
35.04333127387027
 20
195.5273619282403
 30
0.0
 11
34.55133127387033
 21
194.5913619625725
 31
0.0
  0
LINE
  5
F0
330
74
100
AcDbEntity
  8
A1-----1H2_______Schraffur_1_5
  6
Continuous
 62
     7
 48
1000.0
370
    13
100
AcDbLine
 10
34.55133127387033
 20
194.5913619625725
 30
0.0
 11
34.25133127387036
 21
193.4369620049154
 31
0.0
  0
LINE
  5
F1
330
74
100
AcDbEntity
  8
A1-----1H2_______Schraffur_1_5
  6
Continuous
 62
     7
 48
1000.0
370
    13
100
AcDbLine
 10
34.25133127387036
 20
193.4369620049154
 30
0.0
 11
34.11933127387035
 21
191.4713620770134
 31
0.0
  0
LINE
  5
F2
330
74
100
AcDbEntity
  8
A1-----1H2_______Schraffur_1_5
  6
Continuous
 62
     7
 48
1000.0
370
    13
100
AcDbLine
 10
34.11933127387035
 20
191.4713620770134
 30
0.0
 11
34.23933127387002
 21
189.6929621422445
 31
0.0
  0
LINE
  5
F3
330
74
100
AcDbEntity
  8
A1-----1H2_______Schraffur_1_5
  6
Continuous
 62
     7
 48
1000.0
370
    13
100
AcDbLine
 10
34.23933127387002
 20
189.6929621422445
 30
0.0
 11
34.43133127386999
 21
188.6009621822991
 31
0.0
  0
LINE
  5
F4
330
74
100
AcDbEntity
  8
A1-----1H2_______Schraffur_1_5
  6
Continuous
 62
     7
 48
1000.0
370
    13
100
AcDbLine
 10
34.43133127386999
 20
188.6009621822991
 30
0.0
 11
34.82733127387051
 21
187.4777622234978
 31
0.0
  0
LINE
  5
F5
330
74
100
AcDbEntity
  8
A1-----1H2_______Schraffur_1_5
  6
Continuous
 62
     7
 48
1000.0
370
    13
100
AcDbLine
 10
50.76333127387045
 20
197.2121618664418
 30
0.0
 11
48.95133127387008
 21
196.9313618767416
 31
0.0
  0
LINE
  5
F6
330
74
100
AcDbEntity
  8
A1-----1H2_______Schraffur_1_5
  6
Continuous
 62
     7
 48
1000.0
370
    13
100
AcDbLine
 10
48.95133127387008
 20
196.9313618767416
 30
0.0
 11
47.94333127386996
 21
196.5257618916192
 31
0.0
  0
LINE
  5
F7
330
74
100
AcDbEntity
  8
A1-----1H2_______Schraffur_1_5
  6
Continuous
 62
     7
 48
1000.0
370
    13
100
AcDbLine
 10
47.94333127386996
 20
196.5257618916192
 30
0.0
 11
47.04333127386984
 21
195.5273619282403
 31
0.0
  0
LINE
  5
F8
330
74
100
AcDbEntity
  8
A1-----1H2_______Schraffur_1_5
  6
Continuous
 62
     7
 48
1000.0
370
    13
100
AcDbLine
 10
47.04333127386984
 20
195.5273619282403
 30
0.0
 11
46.55133127387012
 21
194.5913619625725
 31
0.0
  0
LINE
  5
F9
330
74
100
AcDbEntity
  8
A1-----1H2_______Schraffur_1_5
  6
Continuous
 62
     7
 48
1000.0
370
    13
100
AcDbLine
 10
46.55133127387012
 20
194.5913619625725
 30
0.0
 11
46.25133127387016
 21
193.4369620049154
 31
0.0
  0
LINE
  5
FA
330
74
100
AcDbEntity
  8
A1-----1H2_______Schraffur_1_5
  6
Continuous
 62
     7
 48
1000.0
370
    13
100
AcDbLine
 10
46.25133127387016
 20
193.4369620049154
 30
0.0
 11
46.11933127387013
 21
191.4713620770134
 31
0.0
  0
LINE
  5
FB
330
74
100
AcDbEntity
  8
A1-----1H2_______Schraffur_1_5
  6
Continuous
 62
     7
 48
1000.0
370
    13
100
AcDbLine
 10
46.11933127387013
 20
191.4713620770134
 30
0.0
 11
46.23933127387048
 21
189.6929621422445
 31
0.0
  0
LINE
  5
FC
330
74
100
AcDbEntity
  8
A1-----1H2_______Schraffur_1_5
  6
Continuous
 62
     7
 48
1000.0
370
    13
100
AcDbLine
 10
46.23933127387048
 20
189.6929621422445
 30
0.0
 11
46.43133127387045
 21
188.6009621822991
 31
0.0
  0
LINE
  5
FD
330
74
100
AcDbEntity
  8
A1-----1H2_______Schraffur_1_5
  6
Continuous
 62
     7
 48
1000.0
370
    13
100
AcDbLine
 10
46.43133127387045
 20
188.6009621822991
 30
0.0
 11
46.82733127387029
 21
187.4777622234978
 31
0.0
  0
LINE
  5
FE
330
74
100
AcDbEntity
  8
A1-----1H2_______Schraffur_1_5
  6
Continuous
 62
     7
 48
1000.0
370
    13
100
AcDbLine
 10
62.76333127387024
 20
197.2121618664418
 30
0.0
 11
60.95133127386987
 21
196.9313618767416
 31
0.0
  0
LINE
  5
FF
330
74
100
AcDbEntity
  8
A1-----1H2_______Schraffur_1_5
  6
Continuous
 62
     7
 48
1000.0
370
    13
100
AcDbLine
 10
60.95133127386987
 20
196.9313618767416
 30
0.0
 11
59.94333127387041
 21
196.5257618916192
 31
0.0
  0
LINE
  5
100
330
74
100
AcDbEntity
  8
A1-----1H2_______Schraffur_1_5
  6
Continuous
 62
     7
 48
1000.0
370
    13
100
AcDbLine
 10
59.94333127387041
 20
196.5257618916192
 30
0.0
 11
59.04333127387029
 21
195.5273619282403
 31
0.0
  0
LINE
  5
101
330
74
100
AcDbEntity
  8
A1-----1H2_______Schraffur_1_5
  6
Continuous
 62
     7
 48
1000.0
370
    13
100
AcDbLine
 10
59.04333127387029
 20
195.5273619282403
 30
0.0
 11
58.55133127386991
 21
194.5913619625725
 31
0.0
  0
LINE
  5
102
330
74
100
AcDbEntity
  8
A1-----1H2_______Schraffur_1_5
  6
Continuous
 62
     7
 48
1000.0
370
    13
100
AcDbLine
 10
58.55133127386991
 20
194.5913619625725
 30
0.0
 11
58.25133127386972
 21
193.4369620049154
 31
0.0
  0
LINE
  5
103
330
74
100
AcDbEntity
  8
A1-----1H2_______Schraffur_1_5
  6
Continuous
 62
     7
 48
1000.0
370
    13
100
AcDbLine
 10
58.25133127386972
 20
193.4369620049154
 30
0.0
 11
58.11933127386992
 21
191.4713620770134
 31
0.0
  0
LINE
  5
104
330
74
100
AcDbEntity
  8
A1-----1H2_______Schraffur_1_5
  6
Continuous
 62
     7
 48
1000.0
370
    13
100
AcDbLine
 10
58.11933127386992
 20
191.4713620770134
 30
0.0
 11
58.23933127387026
 21
189.6929621422445
 31
0.0
  0
LINE
  5
105
330
74
100
AcDbEntity
  8
A1-----1H2_______Schraffur_1_5
  6
Continuous
 62
     7
 48
1000.0
370
    13
100
AcDbLine
 10
58.23933127387026
 20
189.6929621422445
 30
0.0
 11
58.43133127387001
 21
188.6009621822991
 31
0.0
  0
LINE
  5
106
330
74
100
AcDbEntity
  8
A1-----1H2_______Schraffur_1_5
  6
Continuous
 62
     7
 48
1000.0
370
    13
100
AcDbLine
 10
58.43133127387001
 20
188.6009621822991
 30
0.0
 11
58.82733127387007
 21
187.4777622234978
 31
0.0
  0
LINE
  5
107
330
74
100
AcDbEntity
  8
A1-----1H2_______Schraffur_1_5
  6
Continuous
 62
     7
 48
1000.0
370
    13
100
AcDbLine
 10
74.76333127387002
 20
197.2121618664418
 30
0.0
 11
72.95133127387032
 21
196.9313618767416
 31
0.0
  0
LINE
  5
108
330
74
100
AcDbEntity
  8
A1-----1H2_______Schraffur_1_5
  6
Continuous
 62
     7
 48
1000.0
370
    13
100
AcDbLine
 10
72.95133127387032
 20
196.9313618767416
 30
0.0
 11
71.9433312738702
 21
196.5257618916192
 31
0.0
  0
LINE
  5
109
330
74
100
AcDbEntity
  8
A1-----1H2_______Schraffur_1_5
  6
Continuous
 62
     7
 48
1000.0
370
    13
100
AcDbLine
 10
71.9433312738702
 20
196.5257618916192
 30
0.0
 11
71.04333127387008
 21
195.5273619282403
 31
0.0
  0
LINE
  5
10A
330
74
100
AcDbEntity
  8
A1-----1H2_______Schraffur_1_5
  6
Continuous
 62
     7
 48
1000.0
370
    13
100
AcDbLine
 10
71.04333127387008
 20
195.5273619282403
 30
0.0
 11
70.55133127387036
 21
194.5913619625725
 31
0.0
  0
LINE
  5
10B
330
74
100
AcDbEntity
  8
A1-----1H2_______Schraffur_1_5
  6
Continuous
 62
     7
 48
1000.0
370
    13
100
AcDbLine
 10
70.55133127387036
 20
194.5913619625725
 30
0.0
 11
70.25133127387018
 21
193.4369620049154
 31
0.0
  0
LINE
  5
10C
330
74
100
AcDbEntity
  8
A1-----1H2_______Schraffur_1_5
  6
Continuous
 62
     7
 48
1000.0
370
    13
100
AcDbLine
 10
70.25133127387018
 20
193.4369620049154
 30
0.0
 11
70.11933127387037
 21
191.4713620770134
 31
0.0
  0
LINE
  5
10D
330
74
100
AcDbEntity
  8
A1-----1H2_______Schraffur_1_5
  6
Continuous
 62
     7
 48
1000.0
370
    13
100
AcDbLine
 10
70.11933127387037
 20
191.4713620770134
 30
0.0
 11
70.23933127387072
 21
189.6929621422445
 31
0.0
  0
LINE
  5
10E
330
74
100
AcDbEntity
  8
A1-----1H2_______Schraffur_1_5
  6
Continuous
 62
     7
 48
1000.0
370
    13
100
AcDbLine
 10
70.23933127387072
 20
189.6929621422445
 30
0.0
 11
70.43133127387047
 21
188.6009621822991
 31
0.0
  0
LINE
  5
10F
330
74
100
AcDbEntity
  8
A1-----1H2_______Schraffur_1_5
  6
Continuous
 62
     7
 48
1000.0
370
    13
100
AcDbLine
 10
70.43133127387047
 20
188.6009621822991
 30
0.0
 11
70.82733127387053
 21
187.4777622234978
 31
0.0
  0
LINE
  5
110
330
74
100
AcDbEntity
  8
A1-----1H2_______Schraffur_1_5
  6
Continuous
 62
     7
 48
1000.0
370
    13
100
AcDbLine
 10
86.76333127387115
 20
197.2121618664418
 30
0.0
 11
84.95133127387078
 21
196.9313618767416
 31
0.0
  0
LINE
  5
111
330
74
100
AcDbEntity
  8
A1-----1H2_______Schraffur_1_5
  6
Continuous
 62
     7
 48
1000.0
370
    13
100
AcDbLine
 10
84.95133127387078
 20
196.9313618767416
 30
0.0
 11
83.94333127387065
 21
196.5257618916192
 31
0.0
  0
LINE
  5
112
330
74
100
AcDbEntity
  8
A1-----1H2_______Schraffur_1_5
  6
Continuous
 62
     7
 48
1000.0
370
    13
100
AcDbLine
 10
83.94333127387065
 20
196.5257618916192
 30
0.0
 11
83.04333127387052
 21
195.5273619282403
 31
0.0
  0
LINE
  5
113
330
74
100
AcDbEntity
  8
A1-----1H2_______Schraffur_1_5
  6
Continuous
 62
     7
 48
1000.0
370
    13
100
AcDbLine
 10
83.04333127387052
 20
195.5273619282403
 30
0.0
 11
82.55133127387082
 21
194.5913619625725
 31
0.0
  0
LINE
  5
114
330
74
100
AcDbEntity
  8
A1-----1H2_______Schraffur_1_5
  6
Continuous
 62
     7
 48
1000.0
370
    13
100
AcDbLine
 10
82.55133127387082
 20
194.5913619625725
 30
0.0
 11
82.25133127387063
 21
193.4369620049154
 31
0.0
  0
LINE
  5
115
330
74
100
AcDbEntity
  8
A1-----1H2_______Schraffur_1_5
  6
Continuous
 62
     7
 48
1000.0
370
    13
100
AcDbLine
 10
82.25133127387063
 20
193.4369620049154
 30
0.0
 11
82.11933127387083
 21
191.4713620770134
 31
0.0
  0
LINE
  5
116
330
74
100
AcDbEntity
  8
A1-----1H2_______Schraffur_1_5
  6
Continuous
 62
     7
 48
1000.0
370
    13
100
AcDbLine
 10
82.11933127387083
 20
191.4713620770134
 30
0.0
 11
82.2393312738705
 21
189.6929621422445
 31
0.0
  0
LINE
  5
117
330
74
100
AcDbEntity
  8
A1-----1H2_______Schraffur_1_5
  6
Continuous
 62
     7
 48
1000.0
370
    13
100
AcDbLine
 10
82.2393312738705
 20
189.6929621422445
 30
0.0
 11
82.43133127387092
 21
188.6009621822991
 31
0.0
  0
LINE
  5
118
330
74
100
AcDbEntity
  8
A1-----1H2_______Schraffur_1_5
  6
Continuous
 62
     7
 48
1000.0
370
    13
100
AcDbLine
 10
82.43133127387092
 20
188.6009621822991
 30
0.0
 11
82.82733127387031
 21
187.4777622234978
 31
0.0
  0
LINE
  5
119
330
74
100
AcDbEntity
  8
A1-----1H2_______Schraffur_1_5
  6
Continuous
 62
     7
 48
1000.0
370
    13
100
AcDbLine
 10
98.76333127387048
 20
197.2121618664418
 30
0.0
 11
96.95133127387012
 21
196.9313618767416
 31
0.0
  0
LINE
  5
11A
330
74
100
AcDbEntity
  8
A1-----1H2_______Schraffur_1_5
  6
Continuous
 62
     7
 48
1000.0
370
    13
100
AcDbLine
 10
96.95133127387012
 20
196.9313618767416
 30
0.0
 11
95.94333127387067
 21
196.5257618916192
 31
0.0
  0
LINE
  5
11B
330
74
100
AcDbEntity
  8
A1-----1H2_______Schraffur_1_5
  6
Continuous
 62
     7
 48
1000.0
370
    13
100
AcDbLine
 10
95.94333127387067
 20
196.5257618916192
 30
0.0
 11
95.04333127387032
 21
195.5273619282403
 31
0.0
  0
LINE
  5
11C
330
74
100
AcDbEntity
  8
A1-----1H2_______Schraffur_1_5
  6
Continuous
 62
     7
 48
1000.0
370
    13
100
AcDbLine
 10
95.04333127387032
 20
195.5273619282403
 30
0.0
 11
94.55133127387037
 21
194.5913619625725
 31
0.0
  0
LINE
  5
11D
330
74
100
AcDbEntity
  8
A1-----1H2_______Schraffur_1_5
  6
Continuous
 62
     7
 48
1000.0
370
    13
100
AcDbLine
 10
94.55133127387037
 20
194.5913619625725
 30
0.0
 11
94.25133127387042
 21
193.4369620049154
 31
0.0
  0
LINE
  5
11E
330
74
100
AcDbEntity
  8
A1-----1H2_______Schraffur_1_5
  6
Continuous
 62
     7
 48
1000.0
370
    13
100
AcDbLine
 10
94.25133127387042
 20
193.4369620049154
 30
0.0
 11
94.1193312738704
 21
191.4713620770134
 31
0.0
  0
LINE
  5
11F
330
74
100
AcDbEntity
  8
A1-----1H2_______Schraffur_1_5
  6
Continuous
 62
     7
 48
1000.0
370
    13
100
AcDbLine
 10
94.1193312738704
 20
191.4713620770134
 30
0.0
 11
94.23933127387052
 21
189.6929621422445
 31
0.0
  0
LINE
  5
120
330
74
100
AcDbEntity
  8
A1-----1H2_______Schraffur_1_5
  6
Continuous
 62
     7
 48
1000.0
370
    13
100
AcDbLine
 10
94.23933127387052
 20
189.6929621422445
 30
0.0
 11
94.43133127387047
 21
188.6009621822991
 31
0.0
  0
LINE
  5
121
330
74
100
AcDbEntity
  8
A1-----1H2_______Schraffur_1_5
  6
Continuous
 62
     7
 48
1000.0
370
    13
100
AcDbLine
 10
94.43133127387047
 20
188.6009621822991
 30
0.0
 11
94.82733127387033
 21
187.4777622234978
 31
0.0
  0
LINE
  5
122
330
74
100
AcDbEntity
  8
A1-----1H2_______Schraffur_1_5
  6
Continuous
 62
     7
 48
1000.0
370
    13
100
AcDbLine
 10
17.04333127387025
 20
168.0713629353203
 30
0.0
 11
16.55133127387032
 21
169.0073629009878
 31
0.0
  0
LINE
  5
123
330
74
100
AcDbEntity
  8
A1-----1H2_______Schraffur_1_5
  6
Continuous
 62
     7
 48
1000.0
370
    13
100
AcDbLine
 10
16.55133127387032
 20
169.0073629009878
 30
0.0
 11
16.25133127387035
 21
170.1617628586449
 31
0.0
  0
LINE
  5
124
330
74
100
AcDbEntity
  8
A1-----1H2_______Schraffur_1_5
  6
Continuous
 62
     7
 48
1000.0
370
    13
100
AcDbLine
 10
16.25133127387035
 20
170.1617628586449
 30
0.0
 11
16.11933127387033
 21
172.1273627865483
 31
0.0
  0
LINE
  5
125
330
74
100
AcDbEntity
  8
A1-----1H2_______Schraffur_1_5
  6
Continuous
 62
     7
 48
1000.0
370
    13
100
AcDbLine
 10
29.04333127387005
 20
168.0713629353203
 30
0.0
 11
28.5513312738701
 21
169.0073629009878
 31
0.0
  0
LINE
  5
126
330
74
100
AcDbEntity
  8
A1-----1H2_______Schraffur_1_5
  6
Continuous
 62
     7
 48
1000.0
370
    13
100
AcDbLine
 10
28.5513312738701
 20
169.0073629009878
 30
0.0
 11
28.25133127387014
 21
170.1617628586449
 31
0.0
  0
LINE
  5
127
330
74
100
AcDbEntity
  8
A1-----1H2_______Schraffur_1_5
  6
Continuous
 62
     7
 48
1000.0
370
    13
100
AcDbLine
 10
28.25133127387014
 20
170.1617628586449
 30
0.0
 11
28.11933127387012
 21
172.1273627865469
 31
0.0
  0
LINE
  5
128
330
74
100
AcDbEntity
  8
A1-----1H2_______Schraffur_1_5
  6
Continuous
 62
     7
 48
1000.0
370
    13
100
AcDbLine
 10
41.0433312738705
 20
168.0713629353203
 30
0.0
 11
40.5513312738699
 21
169.0073629009878
 31
0.0
  0
LINE
  5
129
330
74
100
AcDbEntity
  8
A1-----1H2_______Schraffur_1_5
  6
Continuous
 62
     7
 48
1000.0
370
    13
100
AcDbLine
 10
40.5513312738699
 20
169.0073629009878
 30
0.0
 11
40.25133127386993
 21
170.1617628586449
 31
0.0
  0
LINE
  5
12A
330
74
100
AcDbEntity
  8
A1-----1H2_______Schraffur_1_5
  6
Continuous
 62
     7
 48
1000.0
370
    13
100
AcDbLine
 10
40.25133127386993
 20
170.1617628586449
 30
0.0
 11
40.1193312738699
 21
172.1273627865469
 31
0.0
  0
LINE
  5
12B
330
74
100
AcDbEntity
  8
A1-----1H2_______Schraffur_1_5
  6
Continuous
 62
     7
 48
1000.0
370
    13
100
AcDbLine
 10
53.04333127387007
 20
168.0713629353203
 30
0.0
 11
52.55133127387035
 21
169.0073629009878
 31
0.0
  0
LINE
  5
12C
330
74
100
AcDbEntity
  8
A1-----1H2_______Schraffur_1_5
  6
Continuous
 62
     7
 48
1000.0
370
    13
100
AcDbLine
 10
52.55133127387035
 20
169.0073629009878
 30
0.0
 11
52.25133127387038
 21
170.1617628586449
 31
0.0
  0
LINE
  5
12D
330
74
100
AcDbEntity
  8
A1-----1H2_______Schraffur_1_5
  6
Continuous
 62
     7
 48
1000.0
370
    13
100
AcDbLine
 10
52.25133127387038
 20
170.1617628586449
 30
0.0
 11
52.11933127387036
 21
172.1273627865469
 31
0.0
  0
LINE
  5
12E
330
74
100
AcDbEntity
  8
A1-----1H2_______Schraffur_1_5
  6
Continuous
 62
     7
 48
1000.0
370
    13
100
AcDbLine
 10
65.04333127387052
 20
168.0713629353203
 30
0.0
 11
64.55133127387013
 21
169.0073629009878
 31
0.0
  0
LINE
  5
12F
330
74
100
AcDbEntity
  8
A1-----1H2_______Schraffur_1_5
  6
Continuous
 62
     7
 48
1000.0
370
    13
100
AcDbLine
 10
64.55133127387013
 20
169.0073629009878
 30
0.0
 11
64.25133127386995
 21
170.1617628586449
 31
0.0
  0
LINE
  5
130
330
74
100
AcDbEntity
  8
A1-----1H2_______Schraffur_1_5
  6
Continuous
 62
     7
 48
1000.0
370
    13
100
AcDbLine
 10
64.25133127386995
 20
170.1617628586449
 30
0.0
 11
64.11933127387015
 21
172.1273627865469
 31
0.0
  0
LINE
  5
131
330
74
100
AcDbEntity
  8
A1-----1H2_______Schraffur_1_5
  6
Continuous
 62
     7
 48
1000.0
370
    13
100
AcDbLine
 10
77.04333127387031
 20
168.0713629353203
 30
0.0
 11
76.5513312738697
 21
169.0073629009878
 31
0.0
  0
LINE
  5
132
330
74
100
AcDbEntity
  8
A1-----1H2_______Schraffur_1_5
  6
Continuous
 62
     7
 48
1000.0
370
    13
100
AcDbLine
 10
76.5513312738697
 20
169.0073629009878
 30
0.0
 11
76.25133127386974
 21
170.1617628586449
 31
0.0
  0
LINE
  5
133
330
74
100
AcDbEntity
  8
A1-----1H2_______Schraffur_1_5
  6
Continuous
 62
     7
 48
1000.0
370
    13
100
AcDbLine
 10
76.25133127386974
 20
170.1617628586449
 30
0.0
 11
76.11933127386972
 21
172.1273627865469
 31
0.0
  0
LINE
  5
134
330
74
100
AcDbEntity
  8
A1-----1H2_______Schraffur_1_5
  6
Continuous
 62
     7
 48
1000.0
370
    13
100
AcDbLine
 10
89.04333127387054
 20
168.0713629353203
 30
0.0
 11
88.55133127387016
 21
169.0073629009878
 31
0.0
  0
LINE
  5
135
330
74
100
AcDbEntity
  8
A1-----1H2_______Schraffur_1_5
  6
Continuous
 62
     7
 48
1000.0
370
    13
100
AcDbLine
 10
88.55133127387016
 20
169.0073629009878
 30
0.0
 11
88.25133127386997
 21
170.1617628586449
 31
0.0
  0
LINE
  5
136
330
74
100
AcDbEntity
  8
A1-----1H2_______Schraffur_1_5
  6
Continuous
 62
     7
 48
1000.0
370
    13
100
AcDbLine
 10
88.25133127386997
 20
170.1617628586449
 30
0.0
 11
88.11933127387017
 21
172.1273627865469
 31
0.0
  0
LINE
  5
137
330
74
100
AcDbEntity
  8
A1-----1H2_______Schraffur_1_5
  6
Continuous
 62
     7
 48
1000.0
370
    13
100
AcDbLine
 10
101.0433312738705
 20
168.0713629353203
 30
0.0
 11
100.5513312738706
 21
169.0073629009878
 31
0.0
  0
LINE
  5
138
330
74
100
AcDbEntity
  8
A1-----1H2_______Schraffur_1_5
  6
Continuous
 62
     7
 48
1000.0
370
    13
100
AcDbLine
 10
100.5513312738706
 20
169.0073629009878
 30
0.0
 11
100.2513312738704
 21
170.1617628586449
 31
0.0
  0
LINE
  5
139
330
74
100
AcDbEntity
  8
A1-----1H2_______Schraffur_1_5
  6
Continuous
 62
     7
 48
1000.0
370
    13
100
AcDbLine
 10
100.2513312738704
 20
170.1617628586449
 30
0.0
 11
100.1193312738706
 21
172.1273627865469
 31
0.0
  0
LINE
  5
13A
330
74
100
AcDbEntity
  8
A1-----1H2_______Schraffur_1_5
  6
Continuous
 62
     7
 48
1000.0
370
    13
100
AcDbLine
 10
16.23933127387
 20
173.9057627213159
 30
0.0
 11
16.43133127386998
 21
174.9977626812615
 31
0.0
  0
LINE
  5
13B
330
74
100
AcDbEntity
  8
A1-----1H2_______Schraffur_1_5
  6
Continuous
 62
     7
 48
1000.0
370
    13
100
AcDbLine
 10
16.43133127386998
 20
174.9977626812615
 30
0.0
 11
16.82733127387048
 21
176.1209626400628
 31
0.0
  0
LINE
  5
13C
330
74
100
AcDbEntity
  8
A1-----1H2_______Schraffur_1_5
  6
Continuous
 62
     7
 48
1000.0
370
    13
100
AcDbLine
 10
28.23933127387046
 20
173.9057627213159
 30
0.0
 11
28.43133127386977
 21
174.9977626812615
 31
0.0
  0
LINE
  5
13D
330
74
100
AcDbEntity
  8
A1-----1H2_______Schraffur_1_5
  6
Continuous
 62
     7
 48
1000.0
370
    13
100
AcDbLine
 10
28.43133127386977
 20
174.9977626812615
 30
0.0
 11
28.82733127387027
 21
176.1209626400628
 31
0.0
  0
LINE
  5
13E
330
74
100
AcDbEntity
  8
A1-----1H2_______Schraffur_1_5
  6
Continuous
 62
     7
 48
1000.0
370
    13
100
AcDbLine
 10
40.23933127387025
 20
173.9057627213159
 30
0.0
 11
40.43133127387022
 21
174.9977626812615
 31
0.0
  0
LINE
  5
13F
330
74
100
AcDbEntity
  8
A1-----1H2_______Schraffur_1_5
  6
Continuous
 62
     7
 48
1000.0
370
    13
100
AcDbLine
 10
40.43133127387022
 20
174.9977626812615
 30
0.0
 11
40.82733127387006
 21
176.1209626400628
 31
0.0
  0
LINE
  5
140
330
74
100
AcDbEntity
  8
A1-----1H2_______Schraffur_1_5
  6
Continuous
 62
     7
 48
1000.0
370
    13
100
AcDbLine
 10
52.23933127387004
 20
173.9057627213159
 30
0.0
 11
52.43133127387068
 21
174.9977626812615
 31
0.0
  0
LINE
  5
141
330
74
100
AcDbEntity
  8
A1-----1H2_______Schraffur_1_5
  6
Continuous
 62
     7
 48
1000.0
370
    13
100
AcDbLine
 10
52.43133127387068
 20
174.9977626812615
 30
0.0
 11
52.82733127386985
 21
176.1209626400628
 31
0.0
  0
LINE
  5
142
330
74
100
AcDbEntity
  8
A1-----1H2_______Schraffur_1_5
  6
Continuous
 62
     7
 48
1000.0
370
    13
100
AcDbLine
 10
64.23933127387049
 20
173.9057627213159
 30
0.0
 11
64.43133127387024
 21
174.9977626812615
 31
0.0
  0
LINE
  5
143
330
74
100
AcDbEntity
  8
A1-----1H2_______Schraffur_1_5
  6
Continuous
 62
     7
 48
1000.0
370
    13
100
AcDbLine
 10
64.43133127387024
 20
174.9977626812615
 30
0.0
 11
64.8273312738703
 21
176.1209626400628
 31
0.0
  0
LINE
  5
144
330
74
100
AcDbEntity
  8
A1-----1H2_______Schraffur_1_5
  6
Continuous
 62
     7
 48
1000.0
370
    13
100
AcDbLine
 10
76.23933127387028
 20
173.9057627213159
 30
0.0
 11
76.43133127387004
 21
174.9977626812615
 31
0.0
  0
LINE
  5
145
330
74
100
AcDbEntity
  8
A1-----1H2_______Schraffur_1_5
  6
Continuous
 62
     7
 48
1000.0
370
    13
100
AcDbLine
 10
76.43133127387004
 20
174.9977626812615
 30
0.0
 11
76.82733127387009
 21
176.1209626400628
 31
0.0
  0
LINE
  5
146
330
74
100
AcDbEntity
  8
A1-----1H2_______Schraffur_1_5
  6
Continuous
 62
     7
 48
1000.0
370
    13
100
AcDbLine
 10
88.23933127387052
 20
173.9057627213159
 30
0.0
 11
88.43133127387026
 21
174.9977626812615
 31
0.0
  0
LINE
  5
147
330
74
100
AcDbEntity
  8
A1-----1H2_______Schraffur_1_5
  6
Continuous
 62
     7
 48
1000.0
370
    13
100
AcDbLine
 10
88.43133127387026
 20
174.9977626812615
 30
0.0
 11
88.82733127387033
 21
176.1209626400628
 31
0.0
  0
LINE
  5
148
330
74
100
AcDbEntity
  8
A1-----1H2_______Schraffur_1_5
  6
Continuous
 62
     7
 48
1000.0
370
    13
100
AcDbLine
 10
100.2393312738707
 20
173.9057627213159
 30
0.0
 11
100.4313312738707
 21
174.9977626812615
 31
0.0
  0
LINE
  5
149
330
74
100
AcDbEntity
  8
A1-----1H2_______Schraffur_1_5
  6
Continuous
 62
     7
 48
1000.0
370
    13
100
AcDbLine
 10
100.4313312738707
 20
174.9977626812615
 30
0.0
 11
100.8273312738706
 21
176.1209626400628
 31
0.0
  0
LINE
  5
14A
330
74
100
AcDbEntity
  8
A1-----1H2_______Schraffur_1_5
  6
Continuous
 62
     7
 48
1000.0
370
    13
100
AcDbLine
 10
21.45037125956439
 20
166.2909048973209
 30
0.0
 11
20.75133127386986
 21
166.3865629971184
 31
0.0
  0
LINE
  5
14B
330
74
100
AcDbEntity
  8
A1-----1H2_______Schraffur_1_5
  6
Continuous
 62
     7
 48
1000.0
370
    13
100
AcDbLine
 10
33.45037125956551
 20
166.2909048973209
 30
0.0
 11
32.75133127387031
 21
166.3865629971184
 31
0.0
  0
LINE
  5
14C
330
74
100
AcDbEntity
  8
A1-----1H2_______Schraffur_1_5
  6
Continuous
 62
     7
 48
1000.0
370
    13
100
AcDbLine
 10
45.45037125956463
 20
166.2909048973209
 30
0.0
 11
44.7513312738701
 21
166.3865629971184
 31
0.0
  0
LINE
  5
14D
330
74
100
AcDbEntity
  8
A1-----1H2_______Schraffur_1_5
  6
Continuous
 62
     7
 48
1000.0
370
    13
100
AcDbLine
 10
57.45037125956576
 20
166.2909048973209
 30
0.0
 11
56.75133127386967
 21
166.3865629971184
 31
0.0
  0
LINE
  5
14E
330
74
100
AcDbEntity
  8
A1-----1H2_______Schraffur_1_5
  6
Continuous
 62
     7
 48
1000.0
370
    13
100
AcDbLine
 10
69.45037125956554
 20
166.2909048973209
 30
0.0
 11
68.75133127387012
 21
166.3865629971184
 31
0.0
  0
LINE
  5
14F
330
74
100
AcDbEntity
  8
A1-----1H2_______Schraffur_1_5
  6
Continuous
 62
     7
 48
1000.0
370
    13
100
AcDbLine
 10
81.45037125956598
 20
166.2909048973209
 30
0.0
 11
80.75133127387058
 21
166.3865629971184
 31
0.0
  0
LINE
  5
150
330
74
100
AcDbEntity
  8
A1-----1H2_______Schraffur_1_5
  6
Continuous
 62
     7
 48
1000.0
370
    13
100
AcDbLine
 10
93.45037125956601
 20
166.2909048973209
 30
0.0
 11
92.75133127387036
 21
166.3865629971184
 31
0.0
  0
LINE
  5
151
330
74
100
AcDbEntity
  8
A1-----1H2_______Schraffur_1_5
  6
Continuous
 62
     7
 48
1000.0
370
    13
100
AcDbLine
 10
20.76333127386998
 20
166.3865629971184
 30
0.0
 11
18.9513312738705
 21
166.6673629868187
 31
0.0
  0
LINE
  5
152
330
74
100
AcDbEntity
  8
A1-----1H2_______Schraffur_1_5
  6
Continuous
 62
     7
 48
1000.0
370
    13
100
AcDbLine
 10
18.9513312738705
 20
166.6673629868187
 30
0.0
 11
17.94333127387016
 21
167.0729629719414
 31
0.0
  0
LINE
  5
153
330
74
100
AcDbEntity
  8
A1-----1H2_______Schraffur_1_5
  6
Continuous
 62
     7
 48
1000.0
370
    13
100
AcDbLine
 10
17.94333127387016
 20
167.0729629719414
 30
0.0
 11
17.04333127387025
 21
168.0713629353203
 31
0.0
  0
LINE
  5
154
330
74
100
AcDbEntity
  8
A1-----1H2_______Schraffur_1_5
  6
Continuous
 62
     7
 48
1000.0
370
    13
100
AcDbLine
 10
32.76333127386977
 20
166.3865629971184
 30
0.0
 11
30.95133127387029
 21
166.6673629868187
 31
0.0
  0
LINE
  5
155
330
74
100
AcDbEntity
  8
A1-----1H2_______Schraffur_1_5
  6
Continuous
 62
     7
 48
1000.0
370
    13
100
AcDbLine
 10
30.95133127387029
 20
166.6673629868187
 30
0.0
 11
29.94333127386994
 21
167.0729629719414
 31
0.0
  0
LINE
  5
156
330
74
100
AcDbEntity
  8
A1-----1H2_______Schraffur_1_5
  6
Continuous
 62
     7
 48
1000.0
370
    13
100
AcDbLine
 10
29.94333127386994
 20
167.0729629719414
 30
0.0
 11
29.04333127387005
 21
168.0713629353203
 31
0.0
  0
LINE
  5
157
330
74
100
AcDbEntity
  8
A1-----1H2_______Schraffur_1_5
  6
Continuous
 62
     7
 48
1000.0
370
    13
100
AcDbLine
 10
44.76333127387022
 20
166.3865629971184
 30
0.0
 11
42.95133127386985
 21
166.6673629868187
 31
0.0
  0
LINE
  5
158
330
74
100
AcDbEntity
  8
A1-----1H2_______Schraffur_1_5
  6
Continuous
 62
     7
 48
1000.0
370
    13
100
AcDbLine
 10
42.95133127386985
 20
166.6673629868187
 30
0.0
 11
41.9433312738704
 21
167.0729629719414
 31
0.0
  0
LINE
  5
159
330
74
100
AcDbEntity
  8
A1-----1H2_______Schraffur_1_5
  6
Continuous
 62
     7
 48
1000.0
370
    13
100
AcDbLine
 10
41.9433312738704
 20
167.0729629719414
 30
0.0
 11
41.0433312738705
 21
168.0713629353203
 31
0.0
  0
LINE
  5
15A
330
74
100
AcDbEntity
  8
A1-----1H2_______Schraffur_1_5
  6
Continuous
 62
     7
 48
1000.0
370
    13
100
AcDbLine
 10
56.76333127387001
 20
166.3865629971184
 30
0.0
 11
54.95133127387031
 21
166.6673629868187
 31
0.0
  0
LINE
  5
15B
330
74
100
AcDbEntity
  8
A1-----1H2_______Schraffur_1_5
  6
Continuous
 62
     7
 48
1000.0
370
    13
100
AcDbLine
 10
54.95133127387031
 20
166.6673629868187
 30
0.0
 11
53.94333127387019
 21
167.0729629719414
 31
0.0
  0
LINE
  5
15C
330
74
100
AcDbEntity
  8
A1-----1H2_______Schraffur_1_5
  6
Continuous
 62
     7
 48
1000.0
370
    13
100
AcDbLine
 10
53.94333127387019
 20
167.0729629719414
 30
0.0
 11
53.04333127387007
 21
168.0713629353203
 31
0.0
  0
LINE
  5
15D
330
74
100
AcDbEntity
  8
A1-----1H2_______Schraffur_1_5
  6
Continuous
 62
     7
 48
1000.0
370
    13
100
AcDbLine
 10
68.76333127387046
 20
166.3865629971184
 30
0.0
 11
66.9513312738701
 21
166.6673629868187
 31
0.0
  0
LINE
  5
15E
330
74
100
AcDbEntity
  8
A1-----1H2_______Schraffur_1_5
  6
Continuous
 62
     7
 48
1000.0
370
    13
100
AcDbLine
 10
66.9513312738701
 20
166.6673629868187
 30
0.0
 11
65.94333127386997
 21
167.0729629719414
 31
0.0
  0
LINE
  5
15F
330
74
100
AcDbEntity
  8
A1-----1H2_______Schraffur_1_5
  6
Continuous
 62
     7
 48
1000.0
370
    13
100
AcDbLine
 10
65.94333127386997
 20
167.0729629719414
 30
0.0
 11
65.04333127387052
 21
168.0713629353203
 31
0.0
  0
LINE
  5
160
330
74
100
AcDbEntity
  8
A1-----1H2_______Schraffur_1_5
  6
Continuous
 62
     7
 48
1000.0
370
    13
100
AcDbLine
 10
80.7633312738709
 20
166.3865629971184
 30
0.0
 11
78.95133127387055
 21
166.6673629868187
 31
0.0
  0
LINE
  5
161
330
74
100
AcDbEntity
  8
A1-----1H2_______Schraffur_1_5
  6
Continuous
 62
     7
 48
1000.0
370
    13
100
AcDbLine
 10
78.95133127387055
 20
166.6673629868187
 30
0.0
 11
77.94333127387043
 21
167.0729629719414
 31
0.0
  0
LINE
  5
162
330
74
100
AcDbEntity
  8
A1-----1H2_______Schraffur_1_5
  6
Continuous
 62
     7
 48
1000.0
370
    13
100
AcDbLine
 10
77.94333127387043
 20
167.0729629719414
 30
0.0
 11
77.04333127387031
 21
168.0713629353203
 31
0.0
  0
LINE
  5
163
330
74
100
AcDbEntity
  8
A1-----1H2_______Schraffur_1_5
  6
Continuous
 62
     7
 48
1000.0
370
    13
100
AcDbLine
 10
92.76333127387026
 20
166.3865629971184
 30
0.0
 11
90.95133127387034
 21
166.6673629868187
 31
0.0
  0
LINE
  5
164
330
74
100
AcDbEntity
  8
A1-----1H2_______Schraffur_1_5
  6
Continuous
 62
     7
 48
1000.0
370
    13
100
AcDbLine
 10
90.95133127387034
 20
166.6673629868187
 30
0.0
 11
89.94333127387044
 21
167.0729629719414
 31
0.0
  0
LINE
  5
165
330
74
100
AcDbEntity
  8
A1-----1H2_______Schraffur_1_5
  6
Continuous
 62
     7
 48
1000.0
370
    13
100
AcDbLine
 10
89.94333127387044
 20
167.0729629719414
 30
0.0
 11
89.04333127387054
 21
168.0713629353203
 31
0.0
  0
LINE
  5
166
330
74
100
AcDbEntity
  8
A1-----1H2_______Schraffur_1_5
  6
Continuous
 62
     7
 48
1000.0
370
    13
100
AcDbLine
 10
103.5834746120923
 20
166.5694017048865
 30
0.0
 11
102.9513312738704
 21
166.6673629868187
 31
0.0
  0
LINE
  5
167
330
74
100
AcDbEntity
  8
A1-----1H2_______Schraffur_1_5
  6
Continuous
 62
     7
 48
1000.0
370
    13
100
AcDbLine
 10
102.9513312738704
 20
166.6673629868187
 30
0.0
 11
101.9433312738707
 21
167.0729629719414
 31
0.0
  0
LINE
  5
168
330
74
100
AcDbEntity
  8
A1-----1H2_______Schraffur_1_5
  6
Continuous
 62
     7
 48
1000.0
370
    13
100
AcDbLine
 10
101.9433312738707
 20
167.0729629719414
 30
0.0
 11
101.0433312738705
 21
168.0713629353203
 31
0.0
  0
LINE
  5
169
330
74
100
AcDbEntity
  8
A1-----1H2_______Schraffur_1_5
  6
Continuous
 62
     7
 48
1000.0
370
    13
100
AcDbLine
 10
22.78242321787261
 20
166.2909048973209
 30
0.0
 11
23.47533127387047
 21
166.3865629971184
 31
0.0
  0
LINE
  5
16A
330
74
100
AcDbEntity
  8
A1-----1H2_______Schraffur_1_5
  6
Continuous
 62
     7
 48
1000.0
370
    13
100
AcDbLine
 10
23.47533127387047
 20
166.3865629971184
 30
0.0
 11
25.28733127386996
 21
166.6673629868187
 31
0.0
  0
LINE
  5
16B
330
74
100
AcDbEntity
  8
A1-----1H2_______Schraffur_1_5
  6
Continuous
 62
     7
 48
1000.0
370
    13
100
AcDbLine
 10
25.28733127386996
 20
166.6673629868187
 30
0.0
 11
26.2953312738703
 21
167.0729629719414
 31
0.0
  0
LINE
  5
16C
330
74
100
AcDbEntity
  8
A1-----1H2_______Schraffur_1_5
  6
Continuous
 62
     7
 48
1000.0
370
    13
100
AcDbLine
 10
26.2953312738703
 20
167.0729629719414
 30
0.0
 11
27.1953312738702
 21
168.0713629353203
 31
0.0
  0
LINE
  5
16D
330
74
100
AcDbEntity
  8
A1-----1H2_______Schraffur_1_5
  6
Continuous
 62
     7
 48
1000.0
370
    13
100
AcDbLine
 10
27.1953312738702
 20
168.0713629353203
 30
0.0
 11
27.68733127387013
 21
169.0073629009878
 31
0.0
  0
LINE
  5
16E
330
74
100
AcDbEntity
  8
A1-----1H2_______Schraffur_1_5
  6
Continuous
 62
     7
 48
1000.0
370
    13
100
AcDbLine
 10
27.68733127387013
 20
169.0073629009878
 30
0.0
 11
27.9873312738701
 21
170.1617628586449
 31
0.0
  0
LINE
  5
16F
330
74
100
AcDbEntity
  8
A1-----1H2_______Schraffur_1_5
  6
Continuous
 62
     7
 48
1000.0
370
    13
100
AcDbLine
 10
27.9873312738701
 20
170.1617628586449
 30
0.0
 11
28.11933127387012
 21
172.1273627865469
 31
0.0
  0
LINE
  5
170
330
74
100
AcDbEntity
  8
A1-----1H2_______Schraffur_1_5
  6
Continuous
 62
     7
 48
1000.0
370
    13
100
AcDbLine
 10
34.78242321787239
 20
166.2909048973209
 30
0.0
 11
35.47533127387027
 21
166.3865629971184
 31
0.0
  0
LINE
  5
171
330
74
100
AcDbEntity
  8
A1-----1H2_______Schraffur_1_5
  6
Continuous
 62
     7
 48
1000.0
370
    13
100
AcDbLine
 10
35.47533127387027
 20
166.3865629971184
 30
0.0
 11
37.28733127387041
 21
166.6673629868187
 31
0.0
  0
LINE
  5
172
330
74
100
AcDbEntity
  8
A1-----1H2_______Schraffur_1_5
  6
Continuous
 62
     7
 48
1000.0
370
    13
100
AcDbLine
 10
37.28733127387041
 20
166.6673629868187
 30
0.0
 11
38.29533127387008
 21
167.0729629719414
 31
0.0
  0
LINE
  5
173
330
74
100
AcDbEntity
  8
A1-----1H2_______Schraffur_1_5
  6
Continuous
 62
     7
 48
1000.0
370
    13
100
AcDbLine
 10
38.29533127387008
 20
167.0729629719414
 30
0.0
 11
39.19533127386998
 21
168.0713629353203
 31
0.0
  0
LINE
  5
174
330
74
100
AcDbEntity
  8
A1-----1H2_______Schraffur_1_5
  6
Continuous
 62
     7
 48
1000.0
370
    13
100
AcDbLine
 10
39.19533127386998
 20
168.0713629353203
 30
0.0
 11
39.68733127386992
 21
169.0073629009878
 31
0.0
  0
LINE
  5
175
330
74
100
AcDbEntity
  8
A1-----1H2_______Schraffur_1_5
  6
Continuous
 62
     7
 48
1000.0
370
    13
100
AcDbLine
 10
39.68733127386992
 20
169.0073629009878
 30
0.0
 11
39.98733127386988
 21
170.1617628586449
 31
0.0
  0
LINE
  5
176
330
74
100
AcDbEntity
  8
A1-----1H2_______Schraffur_1_5
  6
Continuous
 62
     7
 48
1000.0
370
    13
100
AcDbLine
 10
39.98733127386988
 20
170.1617628586449
 30
0.0
 11
40.1193312738699
 21
172.1273627865469
 31
0.0
  0
LINE
  5
177
330
74
100
AcDbEntity
  8
A1-----1H2_______Schraffur_1_5
  6
Continuous
 62
     7
 48
1000.0
370
    13
100
AcDbLine
 10
46.78242321787285
 20
166.2909048973209
 30
0.0
 11
47.47533127386983
 21
166.3865629971184
 31
0.0
  0
LINE
  5
178
330
74
100
AcDbEntity
  8
A1-----1H2_______Schraffur_1_5
  6
Continuous
 62
     7
 48
1000.0
370
    13
100
AcDbLine
 10
47.47533127386983
 20
166.3865629971184
 30
0.0
 11
49.28733127387019
 21
166.6673629868187
 31
0.0
  0
LINE
  5
179
330
74
100
AcDbEntity
  8
A1-----1H2_______Schraffur_1_5
  6
Continuous
 62
     7
 48
1000.0
370
    13
100
AcDbLine
 10
49.28733127387019
 20
166.6673629868187
 30
0.0
 11
50.29533127387054
 21
167.0729629719414
 31
0.0
  0
LINE
  5
17A
330
74
100
AcDbEntity
  8
A1-----1H2_______Schraffur_1_5
  6
Continuous
 62
     7
 48
1000.0
370
    13
100
AcDbLine
 10
50.29533127387054
 20
167.0729629719414
 30
0.0
 11
51.19533127387044
 21
168.0713629353203
 31
0.0
  0
LINE
  5
17B
330
74
100
AcDbEntity
  8
A1-----1H2_______Schraffur_1_5
  6
Continuous
 62
     7
 48
1000.0
370
    13
100
AcDbLine
 10
51.19533127387044
 20
168.0713629353203
 30
0.0
 11
51.68733127387037
 21
169.0073629009878
 31
0.0
  0
LINE
  5
17C
330
74
100
AcDbEntity
  8
A1-----1H2_______Schraffur_1_5
  6
Continuous
 62
     7
 48
1000.0
370
    13
100
AcDbLine
 10
51.68733127387037
 20
169.0073629009878
 30
0.0
 11
51.98733127387034
 21
170.1617628586449
 31
0.0
  0
LINE
  5
17D
330
74
100
AcDbEntity
  8
A1-----1H2_______Schraffur_1_5
  6
Continuous
 62
     7
 48
1000.0
370
    13
100
AcDbLine
 10
51.98733127387034
 20
170.1617628586449
 30
0.0
 11
52.11933127387036
 21
172.1273627865469
 31
0.0
  0
LINE
  5
17E
330
74
100
AcDbEntity
  8
A1-----1H2_______Schraffur_1_5
  6
Continuous
 62
     7
 48
1000.0
370
    13
100
AcDbLine
 10
58.78242321787263
 20
166.2909048973209
 30
0.0
 11
59.47533127387028
 21
166.3865629971184
 31
0.0
  0
LINE
  5
17F
330
74
100
AcDbEntity
  8
A1-----1H2_______Schraffur_1_5
  6
Continuous
 62
     7
 48
1000.0
370
    13
100
AcDbLine
 10
59.47533127387028
 20
166.3865629971184
 30
0.0
 11
61.28733127387065
 21
166.6673629868187
 31
0.0
  0
LINE
  5
180
330
74
100
AcDbEntity
  8
A1-----1H2_______Schraffur_1_5
  6
Continuous
 62
     7
 48
1000.0
370
    13
100
AcDbLine
 10
61.28733127387065
 20
166.6673629868187
 30
0.0
 11
62.29533127387011
 21
167.0729629719414
 31
0.0
  0
LINE
  5
181
330
74
100
AcDbEntity
  8
A1-----1H2_______Schraffur_1_5
  6
Continuous
 62
     7
 48
1000.0
370
    13
100
AcDbLine
 10
62.29533127387011
 20
167.0729629719414
 30
0.0
 11
63.19533127387022
 21
168.0713629353203
 31
0.0
  0
LINE
  5
182
330
74
100
AcDbEntity
  8
A1-----1H2_______Schraffur_1_5
  6
Continuous
 62
     7
 48
1000.0
370
    13
100
AcDbLine
 10
63.19533127387022
 20
168.0713629353203
 30
0.0
 11
63.68733127387016
 21
169.0073629009878
 31
0.0
  0
LINE
  5
183
330
74
100
AcDbEntity
  8
A1-----1H2_______Schraffur_1_5
  6
Continuous
 62
     7
 48
1000.0
370
    13
100
AcDbLine
 10
63.68733127387016
 20
169.0073629009878
 30
0.0
 11
63.98733127387013
 21
170.1617628586449
 31
0.0
  0
LINE
  5
184
330
74
100
AcDbEntity
  8
A1-----1H2_______Schraffur_1_5
  6
Continuous
 62
     7
 48
1000.0
370
    13
100
AcDbLine
 10
63.98733127387013
 20
170.1617628586449
 30
0.0
 11
64.11933127387015
 21
172.1273627865469
 31
0.0
  0
LINE
  5
185
330
74
100
AcDbEntity
  8
A1-----1H2_______Schraffur_1_5
  6
Continuous
 62
     7
 48
1000.0
370
    13
100
AcDbLine
 10
70.78242321787242
 20
166.2909048973209
 30
0.0
 11
71.47533127387007
 21
166.3865629971184
 31
0.0
  0
LINE
  5
186
330
74
100
AcDbEntity
  8
A1-----1H2_______Schraffur_1_5
  6
Continuous
 62
     7
 48
1000.0
370
    13
100
AcDbLine
 10
71.47533127387007
 20
166.3865629971184
 30
0.0
 11
73.28733127387044
 21
166.6673629868187
 31
0.0
  0
LINE
  5
187
330
74
100
AcDbEntity
  8
A1-----1H2_______Schraffur_1_5
  6
Continuous
 62
     7
 48
1000.0
370
    13
100
AcDbLine
 10
73.28733127387044
 20
166.6673629868187
 30
0.0
 11
74.29533127387056
 21
167.0729629719414
 31
0.0
  0
LINE
  5
188
330
74
100
AcDbEntity
  8
A1-----1H2_______Schraffur_1_5
  6
Continuous
 62
     7
 48
1000.0
370
    13
100
AcDbLine
 10
74.29533127387056
 20
167.0729629719414
 30
0.0
 11
75.19533127387001
 21
168.0713629353203
 31
0.0
  0
LINE
  5
189
330
74
100
AcDbEntity
  8
A1-----1H2_______Schraffur_1_5
  6
Continuous
 62
     7
 48
1000.0
370
    13
100
AcDbLine
 10
75.19533127387001
 20
168.0713629353203
 30
0.0
 11
75.68733127386975
 21
169.0073629009878
 31
0.0
  0
LINE
  5
18A
330
74
100
AcDbEntity
  8
A1-----1H2_______Schraffur_1_5
  6
Continuous
 62
     7
 48
1000.0
370
    13
100
AcDbLine
 10
75.68733127386975
 20
169.0073629009878
 30
0.0
 11
75.9873312738706
 21
170.1617628586449
 31
0.0
  0
LINE
  5
18B
330
74
100
AcDbEntity
  8
A1-----1H2_______Schraffur_1_5
  6
Continuous
 62
     7
 48
1000.0
370
    13
100
AcDbLine
 10
75.9873312738706
 20
170.1617628586449
 30
0.0
 11
76.11933127386972
 21
172.1273627865469
 31
0.0
  0
LINE
  5
18C
330
74
100
AcDbEntity
  8
A1-----1H2_______Schraffur_1_5
  6
Continuous
 62
     7
 48
1000.0
370
    13
100
AcDbLine
 10
82.78242321787289
 20
166.2909048973209
 30
0.0
 11
83.47533127387052
 21
166.3865629971184
 31
0.0
  0
LINE
  5
18D
330
74
100
AcDbEntity
  8
A1-----1H2_______Schraffur_1_5
  6
Continuous
 62
     7
 48
1000.0
370
    13
100
AcDbLine
 10
83.47533127387052
 20
166.3865629971184
 30
0.0
 11
85.28733127387089
 21
166.6673629868187
 31
0.0
  0
LINE
  5
18E
330
74
100
AcDbEntity
  8
A1-----1H2_______Schraffur_1_5
  6
Continuous
 62
     7
 48
1000.0
370
    13
100
AcDbLine
 10
85.28733127387089
 20
166.6673629868187
 30
0.0
 11
86.29533127387035
 21
167.0729629719414
 31
0.0
  0
LINE
  5
18F
330
74
100
AcDbEntity
  8
A1-----1H2_______Schraffur_1_5
  6
Continuous
 62
     7
 48
1000.0
370
    13
100
AcDbLine
 10
86.29533127387035
 20
167.0729629719414
 30
0.0
 11
87.19533127387045
 21
168.0713629353203
 31
0.0
  0
LINE
  5
190
330
74
100
AcDbEntity
  8
A1-----1H2_______Schraffur_1_5
  6
Continuous
 62
     7
 48
1000.0
370
    13
100
AcDbLine
 10
87.19533127387045
 20
168.0713629353203
 30
0.0
 11
87.68733127387019
 21
169.0073629009878
 31
0.0
  0
LINE
  5
191
330
74
100
AcDbEntity
  8
A1-----1H2_______Schraffur_1_5
  6
Continuous
 62
     7
 48
1000.0
370
    13
100
AcDbLine
 10
87.68733127387019
 20
169.0073629009878
 30
0.0
 11
87.98733127387037
 21
170.1617628586449
 31
0.0
  0
LINE
  5
192
330
74
100
AcDbEntity
  8
A1-----1H2_______Schraffur_1_5
  6
Continuous
 62
     7
 48
1000.0
370
    13
100
AcDbLine
 10
87.98733127387037
 20
170.1617628586449
 30
0.0
 11
88.11933127387017
 21
172.1273627865469
 31
0.0
  0
LINE
  5
193
330
74
100
AcDbEntity
  8
A1-----1H2_______Schraffur_1_5
  6
Continuous
 62
     7
 48
1000.0
370
    13
100
AcDbLine
 10
94.78242321787289
 20
166.2909048973209
 30
0.0
 11
95.47533127387032
 21
166.3865629971184
 31
0.0
  0
LINE
  5
194
330
74
100
AcDbEntity
  8
A1-----1H2_______Schraffur_1_5
  6
Continuous
 62
     7
 48
1000.0
370
    13
100
AcDbLine
 10
95.47533127387032
 20
166.3865629971184
 30
0.0
 11
97.28733127387024
 21
166.6673629868187
 31
0.0
  0
LINE
  5
195
330
74
100
AcDbEntity
  8
A1-----1H2_______Schraffur_1_5
  6
Continuous
 62
     7
 48
1000.0
370
    13
100
AcDbLine
 10
97.28733127387024
 20
166.6673629868187
 30
0.0
 11
98.29533127387059
 21
167.0729629719414
 31
0.0
  0
LINE
  5
196
330
74
100
AcDbEntity
  8
A1-----1H2_______Schraffur_1_5
  6
Continuous
 62
     7
 48
1000.0
370
    13
100
AcDbLine
 10
98.29533127387059
 20
167.0729629719414
 30
0.0
 11
99.19533127387048
 21
168.0713629353203
 31
0.0
  0
LINE
  5
197
330
74
100
AcDbEntity
  8
A1-----1H2_______Schraffur_1_5
  6
Continuous
 62
     7
 48
1000.0
370
    13
100
AcDbLine
 10
99.19533127387048
 20
168.0713629353203
 30
0.0
 11
99.68733127387064
 21
169.0073629009878
 31
0.0
  0
LINE
  5
198
330
74
100
AcDbEntity
  8
A1-----1H2_______Schraffur_1_5
  6
Continuous
 62
     7
 48
1000.0
370
    13
100
AcDbLine
 10
99.68733127387064
 20
169.0073629009878
 30
0.0
 11
99.98733127387084
 21
170.1617628586449
 31
0.0
  0
LINE
  5
199
330
74
100
AcDbEntity
  8
A1-----1H2_______Schraffur_1_5
  6
Continuous
 62
     7
 48
1000.0
370
    13
100
AcDbLine
 10
99.98733127387084
 20
170.1617628586449
 30
0.0
 11
100.1193312738706
 21
172.1273627865469
 31
0.0
  0
LINE
  5
19A
330
74
100
AcDbEntity
  8
A1-----1H2_______Schraffur_1_5
  6
Continuous
 62
     7
 48
1000.0
370
    13
100
AcDbLine
 10
27.99933127387044
 20
174.2177627098717
 30
0.0
 11
27.80733127387047
 21
175.3097626698172
 31
0.0
  0
LINE
  5
19B
330
74
100
AcDbEntity
  8
A1-----1H2_______Schraffur_1_5
  6
Continuous
 62
     7
 48
1000.0
370
    13
100
AcDbLine
 10
27.80733127387047
 20
175.3097626698172
 30
0.0
 11
27.41133127386997
 21
176.4329626286185
 31
0.0
  0
LINE
  5
19C
330
74
100
AcDbEntity
  8
A1-----1H2_______Schraffur_1_5
  6
Continuous
 62
     7
 48
1000.0
370
    13
100
AcDbLine
 10
39.99933127387023
 20
174.2177627098717
 30
0.0
 11
39.80733127387026
 21
175.3097626698172
 31
0.0
  0
LINE
  5
19D
330
74
100
AcDbEntity
  8
A1-----1H2_______Schraffur_1_5
  6
Continuous
 62
     7
 48
1000.0
370
    13
100
AcDbLine
 10
39.80733127387026
 20
175.3097626698172
 30
0.0
 11
39.41133127386976
 21
176.4329626286185
 31
0.0
  0
LINE
  5
19E
330
74
100
AcDbEntity
  8
A1-----1H2_______Schraffur_1_5
  6
Continuous
 62
     7
 48
1000.0
370
    13
100
AcDbLine
 10
51.99933127386979
 20
174.2177627098717
 30
0.0
 11
51.80733127387005
 21
175.3097626698172
 31
0.0
  0
LINE
  5
19F
330
74
100
AcDbEntity
  8
A1-----1H2_______Schraffur_1_5
  6
Continuous
 62
     7
 48
1000.0
370
    13
100
AcDbLine
 10
51.80733127387005
 20
175.3097626698172
 30
0.0
 11
51.41133127387022
 21
176.4329626286185
 31
0.0
  0
LINE
  5
1A0
330
74
100
AcDbEntity
  8
A1-----1H2_______Schraffur_1_5
  6
Continuous
 62
     7
 48
1000.0
370
    13
100
AcDbLine
 10
63.99933127387025
 20
174.2177627098717
 30
0.0
 11
63.8073312738705
 21
175.3097626698172
 31
0.0
  0
LINE
  5
1A1
330
74
100
AcDbEntity
  8
A1-----1H2_______Schraffur_1_5
  6
Continuous
 62
     7
 48
1000.0
370
    13
100
AcDbLine
 10
63.8073312738705
 20
175.3097626698172
 30
0.0
 11
63.41133127386978
 21
176.4329626286185
 31
0.0
  0
LINE
  5
1A2
330
74
100
AcDbEntity
  8
A1-----1H2_______Schraffur_1_5
  6
Continuous
 62
     7
 48
1000.0
370
    13
100
AcDbLine
 10
75.99933127387004
 20
174.2177627098717
 30
0.0
 11
75.80733127387029
 21
175.3097626698172
 31
0.0
  0
LINE
  5
1A3
330
74
100
AcDbEntity
  8
A1-----1H2_______Schraffur_1_5
  6
Continuous
 62
     7
 48
1000.0
370
    13
100
AcDbLine
 10
75.80733127387029
 20
175.3097626698172
 30
0.0
 11
75.41133127387023
 21
176.4329626286185
 31
0.0
  0
LINE
  5
1A4
330
74
100
AcDbEntity
  8
A1-----1H2_______Schraffur_1_5
  6
Continuous
 62
     7
 48
1000.0
370
    13
100
AcDbLine
 10
87.99933127387051
 20
174.2177627098717
 30
0.0
 11
87.80733127387074
 21
175.3097626698172
 31
0.0
  0
LINE
  5
1A5
330
74
100
AcDbEntity
  8
A1-----1H2_______Schraffur_1_5
  6
Continuous
 62
     7
 48
1000.0
370
    13
100
AcDbLine
 10
87.80733127387074
 20
175.3097626698172
 30
0.0
 11
87.4113312738707
 21
176.4329626286185
 31
0.0
  0
LINE
  5
1A6
330
74
100
AcDbEntity
  8
A1-----1H2_______Schraffur_1_5
  6
Continuous
 62
     7
 48
1000.0
370
    13
100
AcDbLine
 10
99.99933127387072
 20
174.2177627098717
 30
0.0
 11
99.80733127387053
 21
175.3097626698172
 31
0.0
  0
LINE
  5
1A7
330
74
100
AcDbEntity
  8
A1-----1H2_______Schraffur_1_5
  6
Continuous
 62
     7
 48
1000.0
370
    13
100
AcDbLine
 10
99.80733127387053
 20
175.3097626698172
 30
0.0
 11
99.41133127387047
 21
176.4329626286185
 31
0.0
  0
LINE
  5
1A8
330
74
100
AcDbEntity
  8
A1-----1H2_______Schraffur_1_5
  6
Continuous
 62
     7
 48
1000.0
370
    13
100
AcDbLine
 10
28.11933127387012
 20
172.4393627751029
 30
0.0
 11
27.99933127387044
 21
174.2177627098717
 31
0.0
  0
LINE
  5
1A9
330
74
100
AcDbEntity
  8
A1-----1H2_______Schraffur_1_5
  6
Continuous
 62
     7
 48
1000.0
370
    13
100
AcDbLine
 10
40.1193312738699
 20
172.4393627751029
 30
0.0
 11
39.99933127387023
 21
174.2177627098717
 31
0.0
  0
LINE
  5
1AA
330
74
100
AcDbEntity
  8
A1-----1H2_______Schraffur_1_5
  6
Continuous
 62
     7
 48
1000.0
370
    13
100
AcDbLine
 10
52.11933127387036
 20
172.4393627751029
 30
0.0
 11
51.99933127386979
 21
174.2177627098717
 31
0.0
  0
LINE
  5
1AB
330
74
100
AcDbEntity
  8
A1-----1H2_______Schraffur_1_5
  6
Continuous
 62
     7
 48
1000.0
370
    13
100
AcDbLine
 10
64.11933127387015
 20
172.4393627751029
 30
0.0
 11
63.99933127387025
 21
174.2177627098717
 31
0.0
  0
LINE
  5
1AC
330
74
100
AcDbEntity
  8
A1-----1H2_______Schraffur_1_5
  6
Continuous
 62
     7
 48
1000.0
370
    13
100
AcDbLine
 10
76.11933127386972
 20
172.4393627751029
 30
0.0
 11
75.99933127387004
 21
174.2177627098717
 31
0.0
  0
LINE
  5
1AD
330
74
100
AcDbEntity
  8
A1-----1H2_______Schraffur_1_5
  6
Continuous
 62
     7
 48
1000.0
370
    13
100
AcDbLine
 10
88.11933127387017
 20
172.4393627751029
 30
0.0
 11
87.99933127387051
 21
174.2177627098717
 31
0.0
  0
LINE
  5
1AE
330
74
100
AcDbEntity
  8
A1-----1H2_______Schraffur_1_5
  6
Continuous
 62
     7
 48
1000.0
370
    13
100
AcDbLine
 10
100.1193312738706
 20
172.4393627751029
 30
0.0
 11
99.99933127387072
 21
174.2177627098717
 31
0.0
  0
LINE
  5
1AF
330
74
100
AcDbEntity
  8
A1-----1H2_______Schraffur_1_5
  6
Continuous
 62
     7
 48
1000.0
370
    13
100
AcDbLine
 10
16.82733127387048
 20
176.1209626400628
 30
0.0
 11
21.41133127386974
 21
187.4777622234978
 31
0.0
  0
LINE
  5
1B0
330
74
100
AcDbEntity
  8
A1-----1H2_______Schraffur_1_5
  6
Continuous
 62
     7
 48
1000.0
370
    13
100
AcDbLine
 10
28.82733127387027
 20
176.1209626400628
 30
0.0
 11
33.41133127387019
 21
187.4777622234978
 31
0.0
  0
LINE
  5
1B1
330
74
100
AcDbEntity
  8
A1-----1H2_______Schraffur_1_5
  6
Continuous
 62
     7
 48
1000.0
370
    13
100
AcDbLine
 10
40.82733127387006
 20
176.1209626400628
 30
0.0
 11
45.41133127387064
 21
187.4777622234978
 31
0.0
  0
LINE
  5
1B2
330
74
100
AcDbEntity
  8
A1-----1H2_______Schraffur_1_5
  6
Continuous
 62
     7
 48
1000.0
370
    13
100
AcDbLine
 10
52.82733127386985
 20
176.1209626400628
 30
0.0
 11
57.41133127387044
 21
187.4777622234978
 31
0.0
  0
LINE
  5
1B3
330
74
100
AcDbEntity
  8
A1-----1H2_______Schraffur_1_5
  6
Continuous
 62
     7
 48
1000.0
370
    13
100
AcDbLine
 10
64.8273312738703
 20
176.1209626400628
 30
0.0
 11
69.41133127387
 21
187.4777622234978
 31
0.0
  0
LINE
  5
1B4
330
74
100
AcDbEntity
  8
A1-----1H2_______Schraffur_1_5
  6
Continuous
 62
     7
 48
1000.0
370
    13
100
AcDbLine
 10
76.82733127387009
 20
176.1209626400628
 30
0.0
 11
81.41133127387045
 21
187.4777622234978
 31
0.0
  0
LINE
  5
1B5
330
74
100
AcDbEntity
  8
A1-----1H2_______Schraffur_1_5
  6
Continuous
 62
     7
 48
1000.0
370
    13
100
AcDbLine
 10
88.82733127387033
 20
176.1209626400628
 30
0.0
 11
93.41133127387069
 21
187.4777622234978
 31
0.0
  0
LINE
  5
1B6
330
74
100
AcDbEntity
  8
A1-----1H2_______Schraffur_1_5
  6
Continuous
 62
     7
 48
1000.0
370
    13
100
AcDbLine
 10
100.8273312738706
 20
176.1209626400628
 30
0.0
 11
103.5834746120927
 21
182.9492714348715
 31
0.0
  0
LINE
  5
1B7
330
74
100
AcDbEntity
  8
A1-----1H2_______Schraffur_1_5
  6
Continuous
 62
     7
 48
1000.0
370
    13
100
AcDbLine
 10
22.82733127387005
 20
187.4777622234978
 30
0.0
 11
27.41133127386997
 21
176.4329626286185
 31
0.0
  0
LINE
  5
1B8
330
74
100
AcDbEntity
  8
A1-----1H2_______Schraffur_1_5
  6
Continuous
 62
     7
 48
1000.0
370
    13
100
AcDbLine
 10
34.82733127387051
 20
187.4777622234978
 30
0.0
 11
39.41133127386976
 21
176.4329626286185
 31
0.0
  0
LINE
  5
1B9
330
74
100
AcDbEntity
  8
A1-----1H2_______Schraffur_1_5
  6
Continuous
 62
     7
 48
1000.0
370
    13
100
AcDbLine
 10
46.82733127387029
 20
187.4777622234978
 30
0.0
 11
51.41133127387022
 21
176.4329626286185
 31
0.0
  0
LINE
  5
1BA
330
74
100
AcDbEntity
  8
A1-----1H2_______Schraffur_1_5
  6
Continuous
 62
     7
 48
1000.0
370
    13
100
AcDbLine
 10
58.82733127387007
 20
187.4777622234978
 30
0.0
 11
63.41133127386978
 21
176.4329626286185
 31
0.0
  0
LINE
  5
1BB
330
74
100
AcDbEntity
  8
A1-----1H2_______Schraffur_1_5
  6
Continuous
 62
     7
 48
1000.0
370
    13
100
AcDbLine
 10
70.82733127387053
 20
187.4777622234978
 30
0.0
 11
75.41133127387023
 21
176.4329626286185
 31
0.0
  0
LINE
  5
1BC
330
74
100
AcDbEntity
  8
A1-----1H2_______Schraffur_1_5
  6
Continuous
 62
     7
 48
1000.0
370
    13
100
AcDbLine
 10
82.82733127387031
 20
187.4777622234978
 30
0.0
 11
87.4113312738707
 21
176.4329626286185
 31
0.0
  0
LINE
  5
1BD
330
74
100
AcDbEntity
  8
A1-----1H2_______Schraffur_1_5
  6
Continuous
 62
     7
 48
1000.0
370
    13
100
AcDbLine
 10
94.82733127387033
 20
187.4777622234978
 30
0.0
 11
99.41133127387047
 21
176.4329626286185
 31
0.0
  0
LINE
  5
1BE
330
74
100
AcDbEntity
  8
A1-----1H2_______Schraffur_1_5
  6
Continuous
 62
     7
 48
1000.0
370
    13
100
AcDbLine
 10
16.23933127387
 20
173.9057627213159
 30
0.0
 11
16.11933127387033
 21
172.1273627865483
 31
0.0
  0
LINE
  5
1BF
330
74
100
AcDbEntity
  8
A1-----1H2_______Schraffur_1_5
  6
Continuous
 62
     7
 48
1000.0
370
    13
100
AcDbLine
 10
28.23933127387046
 20
173.9057627213159
 30
0.0
 11
28.11933127387012
 21
172.1273627865469
 31
0.0
  0
LINE
  5
1C0
330
74
100
AcDbEntity
  8
A1-----1H2_______Schraffur_1_5
  6
Continuous
 62
     7
 48
1000.0
370
    13
100
AcDbLine
 10
40.23933127387025
 20
173.9057627213159
 30
0.0
 11
40.1193312738699
 21
172.1273627865469
 31
0.0
  0
LINE
  5
1C1
330
74
100
AcDbEntity
  8
A1-----1H2_______Schraffur_1_5
  6
Continuous
 62
     7
 48
1000.0
370
    13
100
AcDbLine
 10
52.23933127387004
 20
173.9057627213159
 30
0.0
 11
52.11933127387036
 21
172.1273627865469
 31
0.0
  0
LINE
  5
1C2
330
74
100
AcDbEntity
  8
A1-----1H2_______Schraffur_1_5
  6
Continuous
 62
     7
 48
1000.0
370
    13
100
AcDbLine
 10
64.23933127387049
 20
173.9057627213159
 30
0.0
 11
64.11933127387015
 21
172.1273627865469
 31
0.0
  0
LINE
  5
1C3
330
74
100
AcDbEntity
  8
A1-----1H2_______Schraffur_1_5
  6
Continuous
 62
     7
 48
1000.0
370
    13
100
AcDbLine
 10
76.23933127387028
 20
173.9057627213159
 30
0.0
 11
76.11933127386972
 21
172.1273627865469
 31
0.0
  0
LINE
  5
1C4
330
74
100
AcDbEntity
  8
A1-----1H2_______Schraffur_1_5
  6
Continuous
 62
     7
 48
1000.0
370
    13
100
AcDbLine
 10
88.23933127387052
 20
173.9057627213159
 30
0.0
 11
88.11933127387017
 21
172.1273627865469
 31
0.0
  0
LINE
  5
1C5
330
74
100
AcDbEntity
  8
A1-----1H2_______Schraffur_1_5
  6
Continuous
 62
     7
 48
1000.0
370
    13
100
AcDbLine
 10
100.2393312738707
 20
173.9057627213159
 30
0.0
 11
100.1193312738706
 21
172.1273627865469
 31
0.0
  0
LINE
  5
1C6
330
74
100
AcDbEntity
  8
A1E-----M5_______Rohbau
  6
Continuous
 62
     7
 48
1000.0
370
    80
100
AcDbLine
 10
104.1142378370814
 20
160.705836270286
 30
0.0
 11
113.3728900316564
 21
160.4918690772252
 31
0.0
  0
LINE
  5
1C7
330
74
100
AcDbEntity
  8
A1E-----M5_______Rohbau
  6
Continuous
 62
     7
 48
1000.0
370
    25
100
AcDbLine
 10
14.9999999999988
 20
163.6834371847951
 30
0.0
 11
102.3050171133473
 21
163.7578352576039
 31
0.0
  0
LINE
  5
1C8
330
74
100
AcDbEntity
  8
A1E-----M5_______Rohbau
  6
Continuous
 62
     7
 48
1000.0
370
    13
100
AcDbLine
 10
101.9834746120931
 20
165.8909048973218
 30
0.0
 11
101.9834746120931
 21
165.3909048973217
 31
0.0
  0
LINE
  5
1C9
330
74
100
AcDbEntity
  8
A1E-----M5_______Rohbau
  6
Continuous
 62
     7
 48
1000.0
370
    13
100
AcDbLine
 10
102.1834746120931
 20
165.6909048973216
 30
0.0
 11
102.1834746120931
 21
164.8909048973217
 31
0.0
  0
LINE
  5
1CA
330
74
100
AcDbEntity
  8
A1E-----M5_______Rohbau
  6
Continuous
 62
     7
 48
1000.0
370
    13
100
AcDbLine
 10
102.8834746120932
 20
165.8909048973218
 30
0.0
 11
102.8834746120932
 21
165.4909048973217
 31
0.0
  0
LINE
  5
1CB
330
74
100
AcDbEntity
  8
A1E-----M5_______Rohbau
  6
Continuous
 62
     7
 48
1000.0
370
    13
100
AcDbLine
 10
102.6834746120933
 20
165.4909048973217
 30
0.0
 11
102.8834746120932
 21
165.4909048973217
 31
0.0
  0
LINE
  5
1CC
330
74
100
AcDbEntity
  8
A1E-----M5_______Rohbau
  6
Continuous
 62
     7
 48
1000.0
370
    13
100
AcDbLine
 10
102.1834746120931
 20
165.6909048973216
 30
0.0
 11
102.6834746120933
 21
165.6909048973216
 31
0.0
  0
LINE
  5
1CD
330
74
100
AcDbEntity
  8
A1E-----M5_______Rohbau
  6
Continuous
 62
     7
 48
1000.0
370
    13
100
AcDbLine
 10
102.6834746120933
 20
165.6909048973216
 30
0.0
 11
102.6834746120933
 21
165.4909048973217
 31
0.0
  0
LINE
  5
1CE
330
74
100
AcDbEntity
  8
A1E-----M5_______Rohbau
  6
Continuous
 62
     7
 48
1000.0
370
    13
100
AcDbLine
 10
102.6834746120933
 20
165.0909048973217
 30
0.0
 11
102.8834746120932
 21
165.0909048973217
 31
0.0
  0
LINE
  5
1CF
330
74
100
AcDbEntity
  8
A1E-----M5_______Rohbau
  6
Continuous
 62
     7
 48
1000.0
370
    13
100
AcDbLine
 10
102.1834746120931
 20
164.8909048973217
 30
0.0
 11
102.6834746120933
 21
164.8909048973217
 31
0.0
  0
LINE
  5
1D0
330
74
100
AcDbEntity
  8
A1E-----M5_______Rohbau
  6
Continuous
 62
     7
 48
1000.0
370
    13
100
AcDbLine
 10
102.6834746120933
 20
165.0909048973217
 30
0.0
 11
102.6834746120933
 21
164.8909048973217
 31
0.0
  0
LINE
  5
1D1
330
74
100
AcDbEntity
  8
A1E-----M5_______Rohbau
  6
Continuous
 62
     7
 48
1000.0
370
    13
100
AcDbLine
 10
101.9834746120931
 20
165.8909048973218
 30
0.0
 11
102.8834746120932
 21
165.8909048973218
 31
0.0
  0
LINE
  5
1D2
330
74
100
AcDbEntity
  8
A1E-----M5_______Rohbau
  6
Continuous
 62
     7
 48
1000.0
370
    13
100
AcDbLine
 10
102.5834746120933
 20
165.5909048973219
 30
0.0
 11
102.2834746120933
 21
165.5909048973219
 31
0.0
  0
LINE
  5
1D3
330
74
100
AcDbEntity
  8
A1E-----M5_______Rohbau
  6
Continuous
 62
     7
 48
1000.0
370
    13
100
AcDbLine
 10
102.2834746120933
 20
165.5909048973219
 30
0.0
 11
102.2834746120933
 21
164.9909048973219
 31
0.0
  0
LINE
  5
1D4
330
74
100
AcDbEntity
  8
A1E-----M5_______Rohbau
  6
Continuous
 62
     7
 48
1000.0
370
    13
100
AcDbLine
 10
102.2834746120933
 20
164.9909048973219
 30
0.0
 11
102.5834746120933
 21
164.9909048973219
 31
0.0
  0
LINE
  5
1D5
330
74
100
AcDbEntity
  8
A1E-----M5_______Rohbau
  6
Continuous
 62
     7
 48
1000.0
370
    13
100
AcDbLine
 10
102.5834746120933
 20
165.3909048973217
 30
0.0
 11
102.5834746120933
 21
165.5909048973219
 31
0.0
  0
LINE
  5
1D6
330
74
100
AcDbEntity
  8
A1E-----M5_______Rohbau
  6
Continuous
 62
     7
 48
1000.0
370
    13
100
AcDbLine
 10
102.5834746120933
 20
164.9909048973219
 30
0.0
 11
102.5834746120933
 21
165.1909048973217
 31
0.0
  0
LINE
  5
1D7
330
74
100
AcDbEntity
  8
A1E-----M5_______Rohbau
  6
Continuous
 62
     7
 48
1000.0
370
    13
100
AcDbLine
 10
102.5834746120933
 20
165.3909048973217
 30
0.0
 11
102.9834746120934
 21
165.3909048973217
 31
0.0
  0
LINE
  5
1D8
330
74
100
AcDbEntity
  8
A1E-----M5_______Rohbau
  6
Continuous
 62
     7
 48
1000.0
370
    13
100
AcDbLine
 10
102.5834746120933
 20
165.1909048973217
 30
0.0
 11
102.9834746120934
 21
165.1909048973217
 31
0.0
  0
LINE
  5
1D9
330
74
100
AcDbEntity
  8
A1E-----M5_______Rohbau
  6
Continuous
 62
     7
 48
1000.0
370
    13
100
AcDbLine
 10
102.9834746120934
 20
165.8909048973218
 30
0.0
 11
102.9834746120934
 21
165.3909048973217
 31
0.0
  0
LINE
  5
1DA
330
74
100
AcDbEntity
  8
A1E-----M5_______Rohbau
  6
Continuous
 62
     7
 48
1000.0
370
    13
100
AcDbLine
 10
102.9834746120934
 20
165.8909048973218
 30
0.0
 11
103.1834746120932
 21
165.8909048973218
 31
0.0
  0
LINE
  5
1DB
330
74
100
AcDbEntity
  8
A1E-----M5_______Rohbau
  6
Continuous
 62
     7
 48
1000.0
370
    13
100
AcDbLine
 10
102.8834746120932
 20
165.0909048973217
 30
0.0
 11
102.8834746120932
 21
164.5737476097964
 31
0.0
  0
LINE
  5
1DC
330
74
100
AcDbEntity
  8
A1E-----M5_______Rohbau
  6
Continuous
 62
     7
 48
1000.0
370
    13
100
AcDbLine
 10
102.9834746120934
 20
165.1909048973217
 30
0.0
 11
102.9834746120934
 21
164.6151689660333
 31
0.0
  0
LINE
  5
1DD
330
74
100
AcDbEntity
  8
A1E-----M5_______Rohbau
  6
Continuous
 62
     7
 48
1000.0
370
    13
100
AcDbLine
 10
103.1834746120932
 20
165.8909048973218
 30
0.0
 11
103.1834746120932
 21
164.4151689660334
 31
0.0
  0
LINE
  5
1DE
330
74
100
AcDbEntity
  8
A1E-----M5_______Rohbau
  6
Continuous
 62
     7
 48
1000.0
370
    13
100
AcDbLine
 10
102.9834746120934
 20
164.6151689660333
 30
0.0
 11
103.1834746120932
 21
164.4151689660334
 31
0.0
  0
LINE
  5
1DF
330
74
100
AcDbEntity
  8
A1E-----M5_______Rohbau
  6
Continuous
 62
     7
 48
1000.0
370
    13
100
AcDbLine
 10
102.8834746120932
 20
164.5737476097964
 30
0.0
 11
103.142053255856
 21
164.3151689660334
 31
0.0
  0
LINE
  5
1E0
330
74
100
AcDbEntity
  8
A1E-----M5_______Rohbau
  6
Continuous
 62
     7
 48
1000.0
370
    13
100
AcDbLine
 10
100.7834746120932
 20
165.3909048973217
 30
0.0
 11
100.7834746120932
 21
165.1909048973217
 31
0.0
  0
LINE
  5
1E1
330
74
100
AcDbEntity
  8
A1E-----M5_______Rohbau
  6
Continuous
 62
     7
 48
1000.0
370
    13
100
AcDbLine
 10
100.7834746120932
 20
165.3909048973217
 30
0.0
 11
101.9834746120931
 21
165.3909048973217
 31
0.0
  0
LINE
  5
1E2
330
74
100
AcDbEntity
  8
A1E-----M5_______Rohbau
  6
Continuous
 62
     7
 48
1000.0
370
    13
100
AcDbLine
 10
103.142053255856
 20
164.3151689660334
 30
0.0
 11
103.5834746120934
 21
164.3151689660334
 31
0.0
  0
LINE
  5
1E3
330
74
100
AcDbEntity
  8
A1E-----M5_______Rohbau
  6
Continuous
 62
     7
 48
1000.0
370
    13
100
AcDbLine
 10
103.5834746120934
 20
164.3151689660334
 30
0.0
 11
103.5834746120934
 21
164.1151689660334
 31
0.0
  0
LINE
  5
1E4
330
74
100
AcDbEntity
  8
A1E-----M5_______Rohbau
  6
Continuous
 62
     7
 48
1000.0
370
    13
100
AcDbLine
 10
103.9834746120931
 20
165.7909048973218
 30
0.0
 11
103.9834746120931
 21
164.5151689660331
 31
0.0
  0
LINE
  5
1E5
330
74
100
AcDbEntity
  8
A1E-----M5_______Rohbau
  6
Continuous
 62
     7
 48
1000.0
370
    13
100
AcDbLine
 10
103.7834746120934
 20
165.6593707411642
 30
0.0
 11
103.7834746120934
 21
164.6467031221908
 31
0.0
  0
LINE
  5
1E6
330
74
100
AcDbEntity
  8
A1E-----M5_______Rohbau
  6
Continuous
 62
     7
 48
1000.0
370
    13
100
AcDbLine
 10
103.3834746120932
 20
165.6593707411642
 30
0.0
 11
103.3834746120932
 21
164.6467031221908
 31
0.0
  0
LINE
  5
1E7
330
74
100
AcDbEntity
  8
A1E-----M5_______Rohbau
  6
Continuous
 62
     7
 48
1000.0
370
    13
100
AcDbLine
 10
100.7834746120932
 20
165.1909048973217
 30
0.0
 11
101.0911937988561
 21
165.1909048973217
 31
0.0
  0
LINE
  5
1E8
330
74
100
AcDbEntity
  8
A1E-----M5_______Rohbau
  6
Continuous
 62
     7
 48
1000.0
370
    13
100
AcDbLine
 10
101.480823247136
 20
165.1909048973217
 30
0.0
 11
101.9834746120931
 21
165.1909048973217
 31
0.0
  0
LINE
  5
1E9
330
74
100
AcDbEntity
  8
A1E-----M5_______Rohbau
  6
Continuous
 62
     7
 48
1000.0
370
    13
100
AcDbLine
 10
101.9834746120931
 20
165.1909048973217
 30
0.0
 11
101.9834746120931
 21
164.6909048973217
 31
0.0
  0
LINE
  5
1EA
330
74
100
AcDbEntity
  8
A1E-----M5_______Rohbau
  6
Continuous
 62
     7
 48
1000.0
370
    13
100
AcDbLine
 10
103.5834746120934
 20
164.115168966033
 30
0.0
 11
103.5834746120934
 21
163.9151689660332
 31
0.0
  0
LINE
  5
1EB
330
74
100
AcDbEntity
  8
A1E-----M5_______Rohbau
  6
Continuous
 62
     7
 48
1000.0
370
    13
100
AcDbLine
 10
103.5834746120934
 20
163.9151689660332
 30
0.0
 11
103.4834746120932
 21
163.9151689660332
 31
0.0
  0
LINE
  5
1EC
330
74
100
AcDbEntity
  8
A1E-----M5_______Rohbau
  6
Continuous
 62
     7
 48
1000.0
370
    13
100
AcDbLine
 10
103.4834746120932
 20
163.9151689660332
 30
0.0
 11
103.4834746120932
 21
164.115168966033
 31
0.0
  0
LINE
  5
1ED
330
74
100
AcDbEntity
  8
A1E-----M5_______Rohbau
  6
Continuous
 62
     7
 48
1000.0
370
    25
100
AcDbLine
 10
103.4834746120932
 20
163.9151689660332
 30
0.0
 11
103.4834746120932
 21
164.1151689660334
 31
0.0
  0
LINE
  5
1EE
330
74
100
AcDbEntity
  8
A1E-----M5_______Rohbau
  6
Continuous
 62
     7
 48
1000.0
370
    25
100
AcDbLine
 10
14.9999999999988
 20
165.9575179623811
 30
0.0
 11
103.9834746120929
 21
165.9575179623811
 31
0.0
  0
LINE
  5
1EF
330
74
100
AcDbEntity
  8
A1E-----M5_______Rohbau
  6
Continuous
 62
     7
 48
1000.0
370
    25
100
AcDbLine
 10
103.3399110726247
 20
163.8421355952955
 30
0.0
 11
103.4834746120932
 21
163.9151689660332
 31
0.0
  0
LINE
  5
1F0
330
74
100
AcDbEntity
  8
A1E-----M5_______Rohbau
  6
Continuous
 62
     7
 48
1000.0
370
    25
100
AcDbLine
 10
154.109373759445
 20
187.3311912351128
 30
0.0
 11
154.109373759445
 21
199.6771661475603
 31
0.0
  0
LINE
  5
1F1
330
74
100
AcDbEntity
  8
A1E-----M5_______Rohbau
  6
Continuous
 62
     7
 48
1000.0
370
    25
100
AcDbLine
 10
147.7833948477838
 20
179.2918136708648
 30
0.0
 11
150.7865010887932
 21
179.337906969999
 31
0.0
  0
LINE
  5
1F2
330
74
100
AcDbEntity
  8
A1E-----M5_______Rohbau
  6
Continuous
 62
     7
 48
1000.0
370
    13
100
AcDbLine
 10
146.5715255668172
 20
187.3311912351145
 30
0.0
 11
146.5715255668172
 21
185.4467291869568
 31
0.0
  0
LINE
  5
1F3
330
74
100
AcDbEntity
  8
A1E-----M5_______Rohbau
  6
Continuous
 62
     7
 48
1000.0
370
    13
100
AcDbLine
 10
147.3253103860801
 20
186.5774064158516
 30
0.0
 11
147.3253103860801
 21
183.5622671387995
 31
0.0
  0
LINE
  5
1F4
330
74
100
AcDbEntity
  8
A1E-----M5_______Rohbau
  6
Continuous
 62
     7
 48
1000.0
370
    13
100
AcDbLine
 10
149.963557253501
 20
187.3311912351145
 30
0.0
 11
149.963557253501
 21
185.8236215965885
 31
0.0
  0
LINE
  5
1F5
330
74
100
AcDbEntity
  8
A1E-----M5_______Rohbau
  6
Continuous
 62
     7
 48
1000.0
370
    13
100
AcDbLine
 10
149.2097724342381
 20
185.8236215965885
 30
0.0
 11
149.963557253501
 21
185.8236215965885
 31
0.0
  0
LINE
  5
1F6
330
74
100
AcDbEntity
  8
A1E-----M5_______Rohbau
  6
Continuous
 62
     7
 48
1000.0
370
    13
100
AcDbLine
 10
147.3253103860801
 20
186.5774064158516
 30
0.0
 11
149.2097724342381
 21
186.5774064158516
 31
0.0
  0
LINE
  5
1F7
330
74
100
AcDbEntity
  8
A1E-----M5_______Rohbau
  6
Continuous
 62
     7
 48
1000.0
370
    13
100
AcDbLine
 10
149.2097724342381
 20
186.5774064158516
 30
0.0
 11
149.2097724342381
 21
185.8236215965885
 31
0.0
  0
LINE
  5
1F8
330
74
100
AcDbEntity
  8
A1E-----M5_______Rohbau
  6
Continuous
 62
     7
 48
1000.0
370
    13
100
AcDbLine
 10
149.2097724342381
 20
184.3160519580622
 30
0.0
 11
149.963557253501
 21
184.3160519580622
 31
0.0
  0
LINE
  5
1F9
330
74
100
AcDbEntity
  8
A1E-----M5_______Rohbau
  6
Continuous
 62
     7
 48
1000.0
370
    13
100
AcDbLine
 10
147.3253103860801
 20
183.5622671387995
 30
0.0
 11
149.2097724342381
 21
183.5622671387995
 31
0.0
  0
LINE
  5
1FA
330
74
100
AcDbEntity
  8
A1E-----M5_______Rohbau
  6
Continuous
 62
     7
 48
1000.0
370
    13
100
AcDbLine
 10
149.2097724342381
 20
184.3160519580622
 30
0.0
 11
149.2097724342381
 21
183.5622671387995
 31
0.0
  0
LINE
  5
1FB
330
74
100
AcDbEntity
  8
A1E-----M5_______Rohbau
  6
Continuous
 62
     7
 48
1000.0
370
    13
100
AcDbLine
 10
146.5715255668172
 20
187.3311912351145
 30
0.0
 11
149.963557253501
 21
187.3311912351145
 31
0.0
  0
LINE
  5
1FC
330
74
100
AcDbEntity
  8
A1E-----M5_______Rohbau
  6
Continuous
 62
     7
 48
1000.0
370
    13
100
AcDbLine
 10
148.8328800246063
 20
186.2005140062202
 30
0.0
 11
147.7022027957118
 21
186.2005140062202
 31
0.0
  0
LINE
  5
1FD
330
74
100
AcDbEntity
  8
A1E-----M5_______Rohbau
  6
Continuous
 62
     7
 48
1000.0
370
    13
100
AcDbLine
 10
147.7022027957118
 20
186.2005140062202
 30
0.0
 11
147.7022027957118
 21
183.939159548431
 31
0.0
  0
LINE
  5
1FE
330
74
100
AcDbEntity
  8
A1E-----M5_______Rohbau
  6
Continuous
 62
     7
 48
1000.0
370
    13
100
AcDbLine
 10
147.7022027957118
 20
183.939159548431
 30
0.0
 11
148.8328800246063
 21
183.939159548431
 31
0.0
  0
LINE
  5
1FF
330
74
100
AcDbEntity
  8
A1E-----M5_______Rohbau
  6
Continuous
 62
     7
 48
1000.0
370
    13
100
AcDbLine
 10
148.8328800246063
 20
185.4467291869568
 30
0.0
 11
148.8328800246063
 21
186.2005140062202
 31
0.0
  0
LINE
  5
200
330
74
100
AcDbEntity
  8
A1E-----M5_______Rohbau
  6
Continuous
 62
     7
 48
1000.0
370
    13
100
AcDbLine
 10
148.8328800246063
 20
183.939159548431
 30
0.0
 11
148.8328800246063
 21
184.6929443676939
 31
0.0
  0
LINE
  5
201
330
74
100
AcDbEntity
  8
A1E-----M5_______Rohbau
  6
Continuous
 62
     7
 48
1000.0
370
    13
100
AcDbLine
 10
148.8328800246063
 20
185.4467291869568
 30
0.0
 11
150.3404496631324
 21
185.4467291869568
 31
0.0
  0
LINE
  5
202
330
74
100
AcDbEntity
  8
A1E-----M5_______Rohbau
  6
Continuous
 62
     7
 48
1000.0
370
    13
100
AcDbLine
 10
148.8328800246063
 20
184.6929443676939
 30
0.0
 11
150.3404496631324
 21
184.6929443676939
 31
0.0
  0
LINE
  5
203
330
74
100
AcDbEntity
  8
A1E-----M5_______Rohbau
  6
Continuous
 62
     7
 48
1000.0
370
    13
100
AcDbLine
 10
150.3404496631324
 20
187.3311912351145
 30
0.0
 11
150.3404496631324
 21
185.4467291869568
 31
0.0
  0
LINE
  5
204
330
74
100
AcDbEntity
  8
A1E-----M5_______Rohbau
  6
Continuous
 62
     7
 48
1000.0
370
    13
100
AcDbLine
 10
150.3404496631324
 20
187.3311912351145
 30
0.0
 11
151.0942344823956
 21
187.3311912351145
 31
0.0
  0
LINE
  5
205
330
74
100
AcDbEntity
  8
A1E-----M5_______Rohbau
  6
Continuous
 62
     7
 48
1000.0
370
    13
100
AcDbLine
 10
146.5715255668172
 20
182.8084823195362
 30
0.0
 11
149.2097724342381
 21
182.8084823195362
 31
0.0
  0
LINE
  5
206
330
74
100
AcDbEntity
  8
A1E-----M5_______Rohbau
  6
Continuous
 62
     7
 48
1000.0
370
    13
100
AcDbLine
 10
149.963557253501
 20
184.3160519580622
 30
0.0
 11
149.963557253501
 21
182.3669253955231
 31
0.0
  0
LINE
  5
207
330
74
100
AcDbEntity
  8
A1E-----M5_______Rohbau
  6
Continuous
 62
     7
 48
1000.0
370
    13
100
AcDbLine
 10
150.3404496631324
 20
184.6929443676939
 30
0.0
 11
150.3404496631324
 21
182.523039343147
 31
0.0
  0
LINE
  5
208
330
74
100
AcDbEntity
  8
A1E-----M5_______Rohbau
  6
Continuous
 62
     7
 48
1000.0
370
    13
100
AcDbLine
 10
151.0942344823956
 20
187.3311912351145
 30
0.0
 11
151.0942344823956
 21
181.7692545238836
 31
0.0
  0
LINE
  5
209
330
74
100
AcDbEntity
  8
A1E-----M5_______Rohbau
  6
Continuous
 62
     7
 48
1000.0
370
    13
100
AcDbLine
 10
150.3404496631324
 20
182.523039343147
 30
0.0
 11
151.0942344823956
 21
181.7692545238836
 31
0.0
  0
LINE
  5
20A
330
74
100
AcDbEntity
  8
A1E-----M5_______Rohbau
  6
Continuous
 62
     7
 48
1000.0
370
    13
100
AcDbLine
 10
149.963557253501
 20
182.3669253955231
 30
0.0
 11
150.9381205347713
 21
181.3923621142521
 31
0.0
  0
LINE
  5
20B
330
74
100
AcDbEntity
  8
A1E-----M5_______Rohbau
  6
Continuous
 62
     7
 48
1000.0
370
    13
100
AcDbLine
 10
142.0488166512388
 20
185.4467291869568
 30
0.0
 11
142.0488166512388
 21
184.6929443676939
 31
0.0
  0
LINE
  5
20C
330
74
100
AcDbEntity
  8
A1E-----M5_______Rohbau
  6
Continuous
 62
     7
 48
1000.0
370
    13
100
AcDbLine
 10
142.0488166512388
 20
185.4467291869568
 30
0.0
 11
146.5715255668172
 21
185.4467291869568
 31
0.0
  0
LINE
  5
20D
330
74
100
AcDbEntity
  8
A1E-----M5_______Rohbau
  6
Continuous
 62
     7
 48
1000.0
370
    13
100
AcDbLine
 10
150.9381205347713
 20
181.3923621142521
 30
0.0
 11
152.6018041209216
 21
181.3923621142521
 31
0.0
  0
LINE
  5
20E
330
74
100
AcDbEntity
  8
A1E-----M5_______Rohbau
  6
Continuous
 62
     7
 48
1000.0
370
    13
100
AcDbLine
 10
152.6018041209216
 20
181.3923621142521
 30
0.0
 11
152.6018041209216
 21
180.6385772949888
 31
0.0
  0
LINE
  5
20F
330
74
100
AcDbEntity
  8
A1E-----M5_______Rohbau
  6
Continuous
 62
     7
 48
1000.0
370
    13
100
AcDbLine
 10
154.1093737594479
 20
186.9542988254833
 30
0.0
 11
154.1093737594479
 21
182.1461469335153
 31
0.0
  0
LINE
  5
210
330
74
100
AcDbEntity
  8
A1E-----M5_______Rohbau
  6
Continuous
 62
     7
 48
1000.0
370
    13
100
AcDbLine
 10
153.3555889401848
 20
186.4585565748529
 30
0.0
 11
153.3555889401848
 21
182.6418891841453
 31
0.0
  0
LINE
  5
211
330
74
100
AcDbEntity
  8
A1E-----M5_______Rohbau
  6
Continuous
 62
     7
 48
1000.0
370
    13
100
AcDbLine
 10
151.8480193016587
 20
186.4585565748529
 30
0.0
 11
151.8480193016587
 21
182.6418891841453
 31
0.0
  0
LINE
  5
212
330
74
100
AcDbEntity
  8
A1E-----M5_______Rohbau
  6
Continuous
 62
     7
 48
1000.0
370
    13
100
AcDbLine
 10
142.0488166512388
 20
184.6929443676939
 30
0.0
 11
143.2085869091273
 21
184.6929443676939
 31
0.0
  0
LINE
  5
213
330
74
100
AcDbEntity
  8
A1E-----M5_______Rohbau
  6
Continuous
 62
     7
 48
1000.0
370
    13
100
AcDbLine
 10
144.6770707253846
 20
184.6929443676939
 30
0.0
 11
146.5715255668172
 21
184.6929443676939
 31
0.0
  0
LINE
  5
214
330
74
100
AcDbEntity
  8
A1E-----M5_______Rohbau
  6
Continuous
 62
     7
 48
1000.0
370
    13
100
AcDbLine
 10
146.5715255668172
 20
184.6929443676939
 30
0.0
 11
146.5715255668172
 21
182.8084823195362
 31
0.0
  0
LINE
  5
215
330
74
100
AcDbEntity
  8
A1E-----M5_______Rohbau
  6
Continuous
 62
     7
 48
1000.0
370
    13
100
AcDbLine
 10
152.6018041209216
 20
180.6385772949882
 30
0.0
 11
152.6018041209216
 21
179.8847924757252
 31
0.0
  0
LINE
  5
216
330
74
100
AcDbEntity
  8
A1E-----M5_______Rohbau
  6
Continuous
 62
     7
 48
1000.0
370
    13
100
AcDbLine
 10
152.6018041209216
 20
179.8847924757252
 30
0.0
 11
152.2249117112902
 21
179.8847924757252
 31
0.0
  0
LINE
  5
217
330
74
100
AcDbEntity
  8
A1E-----M5_______Rohbau
  6
Continuous
 62
     7
 48
1000.0
370
    13
100
AcDbLine
 10
152.2249117112902
 20
179.8847924757252
 30
0.0
 11
152.2249117112902
 21
180.6385772949882
 31
0.0
  0
LINE
  5
218
330
74
100
AcDbEntity
  8
A1E-----M5_______Rohbau
  6
Continuous
 62
     7
 48
1000.0
370
    13
100
AcDbLine
 10
150.6258926395214
 20
180.6385772949888
 30
0.0
 11
152.2249117112902
 21
180.6385772949888
 31
0.0
  0
LINE
  5
219
330
74
100
AcDbEntity
  8
A1E-----M5_______Rohbau
  6
Continuous
 62
     7
 48
1000.0
370
    25
100
AcDbLine
 10
152.2249117112902
 20
180.6385772949888
 30
0.0
 11
150.6258926395192
 21
180.6385772949868
 31
0.0
  0
LINE
  5
21A
330
74
100
AcDbEntity
  8
A1E-----M5_______Rohbau
  6
Continuous
 62
     7
 48
1000.0
370
    25
100
AcDbLine
 10
152.2249117112902
 20
179.8847924757252
 30
0.0
 11
152.2249117112902
 21
180.6385772949888
 31
0.0
  0
LINE
  5
21B
330
74
100
AcDbEntity
  8
A1E-----M5_______Rohbau
  6
Continuous
 62
     7
 48
1000.0
370
    25
100
AcDbLine
 10
150.7865010887932
 20
179.337906969999
 30
0.0
 11
151.6838316280347
 21
179.609535244917
 31
0.0
  0
LINE
  5
21C
330
74
100
AcDbEntity
  8
A1E-----M5_______Rohbau
  6
Continuous
 62
     7
 48
1000.0
370
    25
100
AcDbLine
 10
151.6838316280347
 20
179.609535244917
 30
0.0
 11
152.2249117112902
 21
179.8847924757252
 31
0.0
  0
LINE
  5
21D
330
74
100
AcDbEntity
  8
A1E-----M5_______Rohbau
  6
Continuous
 62
     7
 48
1000.0
370
    60
100
AcDbLine
 10
154.109373759445
 20
208.2524523728069
 30
0.0
 11
154.109373759445
 21
167.7890611456316
 31
0.0
  0
LINE
  5
21E
330
74
100
AcDbEntity
  8
A1E-----M5_______Rohbau
  6
Continuous
 62
     7
 48
1000.0
370
    60
100
AcDbLine
 10
154.109373759445
 20
167.7890611456316
 30
0.0
 11
165.6019954623052
 21
167.7890611456316
 31
0.0
  0
LINE
  5
21F
330
74
100
AcDbEntity
  8
A1E-----M5_______Rohbau
  6
Continuous
 62
     7
 48
1000.0
370
    25
100
AcDbLine
 10
124.6523551347332
 20
179.2721022632773
 30
0.0
 11
147.7833948477838
 21
179.2918136708648
 31
0.0
  0
LINE
  5
220
330
74
100
AcDbEntity
  8
A1E-----M5_______Rohbau
  6
Continuous
 62
     7
 48
1000.0
370
    60
100
AcDbLine
 10
124.1700244079278
 20
187.3311912351128
 30
0.0
 11
154.1093737594466
 21
187.3311912351128
 31
0.0
  0
LINE
  5
221
330
74
100
AcDbEntity
  8
A1E-----M5_______Rohbau
  6
Continuous
 62
     7
 48
1000.0
370
    25
100
AcDbLine
 10
124.1062205504571
 20
182.8084823195342
 30
0.0
 11
149.2097724342381
 21
182.8084823195342
 31
0.0
  0
LINE
  5
222
330
74
100
AcDbEntity
  8
A1-----1H2_______Schraffur_1_5
  6
Continuous
 62
     7
 48
1000.0
370
    13
100
AcDbLine
 10
129.5258041209191
 20
190.717960798108
 30
0.0
 11
129.0338041209187
 21
191.6575607603423
 31
0.0
  0
LINE
  5
223
330
74
100
AcDbEntity
  8
A1-----1H2_______Schraffur_1_5
  6
Continuous
 62
     7
 48
1000.0
370
    13
100
AcDbLine
 10
129.0338041209187
 20
191.6575607603423
 30
0.0
 11
128.7338041209187
 21
192.8164007137649
 31
0.0
  0
LINE
  5
224
330
74
100
AcDbEntity
  8
A1-----1H2_______Schraffur_1_5
  6
Continuous
 62
     7
 48
1000.0
370
    13
100
AcDbLine
 10
128.7338041209187
 20
192.8164007137649
 30
0.0
 11
128.6018041209187
 21
194.7895606344574
 31
0.0
  0
LINE
  5
225
330
74
100
AcDbEntity
  8
A1-----1H2_______Schraffur_1_5
  6
Continuous
 62
     7
 48
1000.0
370
    13
100
AcDbLine
 10
141.5258041209187
 20
190.717960798108
 30
0.0
 11
141.0338041209189
 21
191.6575607603423
 31
0.0
  0
LINE
  5
226
330
74
100
AcDbEntity
  8
A1-----1H2_______Schraffur_1_5
  6
Continuous
 62
     7
 48
1000.0
370
    13
100
AcDbLine
 10
141.0338041209189
 20
191.6575607603423
 30
0.0
 11
140.733804120919
 21
192.8164007137649
 31
0.0
  0
LINE
  5
227
330
74
100
AcDbEntity
  8
A1-----1H2_______Schraffur_1_5
  6
Continuous
 62
     7
 48
1000.0
370
    13
100
AcDbLine
 10
140.733804120919
 20
192.8164007137649
 30
0.0
 11
140.6018041209189
 21
194.7895606344574
 31
0.0
  0
LINE
  5
228
330
74
100
AcDbEntity
  8
A1-----1H2_______Schraffur_1_5
  6
Continuous
 62
     7
 48
1000.0
370
    13
100
AcDbLine
 10
152.6018041209192
 20
194.7895606344578
 30
0.0
 11
152.6118041209192
 21
194.7895606344578
 31
0.0
  0
LINE
  5
229
330
74
100
AcDbEntity
  8
A1-----1H2_______Schraffur_1_5
  6
Continuous
 62
     7
 48
1000.0
370
    13
100
AcDbLine
 10
128.7218041209188
 20
196.5748005627033
 30
0.0
 11
128.913804120919
 21
197.6710005186431
 31
0.0
  0
LINE
  5
22A
330
74
100
AcDbEntity
  8
A1-----1H2_______Schraffur_1_5
  6
Continuous
 62
     7
 48
1000.0
370
    13
100
AcDbLine
 10
128.913804120919
 20
197.6710005186431
 30
0.0
 11
129.3098041209186
 21
198.7985204733247
 31
0.0
  0
LINE
  5
22B
330
74
100
AcDbEntity
  8
A1-----1H2_______Schraffur_1_5
  6
Continuous
 62
     7
 48
1000.0
370
    13
100
AcDbLine
 10
140.721804120919
 20
196.5748005627033
 30
0.0
 11
140.9138041209188
 21
197.6710005186431
 31
0.0
  0
LINE
  5
22C
330
74
100
AcDbEntity
  8
A1-----1H2_______Schraffur_1_5
  6
Continuous
 62
     7
 48
1000.0
370
    13
100
AcDbLine
 10
140.9138041209188
 20
197.6710005186431
 30
0.0
 11
141.3098041209191
 21
198.7985204733247
 31
0.0
  0
LINE
  5
22D
330
74
100
AcDbEntity
  8
A1-----1H2_______Schraffur_1_5
  6
Continuous
 62
     7
 48
1000.0
370
    13
100
AcDbLine
 10
134.6018041209172
 20
188.8387608736388
 30
0.0
 11
133.2338041209189
 21
189.0266808660859
 31
0.0
  0
LINE
  5
22E
330
74
100
AcDbEntity
  8
A1-----1H2_______Schraffur_1_5
  6
Continuous
 62
     7
 48
1000.0
370
    13
100
AcDbLine
 10
146.6018041209187
 20
188.8387608736388
 30
0.0
 11
145.2338041209191
 21
189.0266808660859
 31
0.0
  0
LINE
  5
22F
330
74
100
AcDbEntity
  8
A1-----1H2_______Schraffur_1_5
  6
Continuous
 62
     7
 48
1000.0
370
    13
100
AcDbLine
 10
133.2458041209188
 20
189.0266808660859
 30
0.0
 11
131.4338041209189
 21
189.3085608547562
 31
0.0
  0
LINE
  5
230
330
74
100
AcDbEntity
  8
A1-----1H2_______Schraffur_1_5
  6
Continuous
 62
     7
 48
1000.0
370
    13
100
AcDbLine
 10
131.4338041209189
 20
189.3085608547562
 30
0.0
 11
130.4258041209187
 21
189.715720838391
 31
0.0
  0
LINE
  5
231
330
74
100
AcDbEntity
  8
A1-----1H2_______Schraffur_1_5
  6
Continuous
 62
     7
 48
1000.0
370
    13
100
AcDbLine
 10
130.4258041209187
 20
189.715720838391
 30
0.0
 11
129.5258041209191
 21
190.717960798108
 31
0.0
  0
LINE
  5
232
330
74
100
AcDbEntity
  8
A1-----1H2_______Schraffur_1_5
  6
Continuous
 62
     7
 48
1000.0
370
    13
100
AcDbLine
 10
145.245804120919
 20
189.0266808660859
 30
0.0
 11
143.4338041209189
 21
189.3085608547562
 31
0.0
  0
LINE
  5
233
330
74
100
AcDbEntity
  8
A1-----1H2_______Schraffur_1_5
  6
Continuous
 62
     7
 48
1000.0
370
    13
100
AcDbLine
 10
143.4338041209189
 20
189.3085608547562
 30
0.0
 11
142.4258041209192
 21
189.715720838391
 31
0.0
  0
LINE
  5
234
330
74
100
AcDbEntity
  8
A1-----1H2_______Schraffur_1_5
  6
Continuous
 62
     7
 48
1000.0
370
    13
100
AcDbLine
 10
142.4258041209192
 20
189.715720838391
 30
0.0
 11
141.5258041209187
 21
190.717960798108
 31
0.0
  0
LINE
  5
235
330
74
100
AcDbEntity
  8
A1-----1H2_______Schraffur_1_5
  6
Continuous
 62
     7
 48
1000.0
370
    13
100
AcDbLine
 10
124.4311496439276
 20
189.1003158719702
 30
0.0
 11
125.7698041209188
 21
189.3085608547562
 31
0.0
  0
LINE
  5
236
330
74
100
AcDbEntity
  8
A1-----1H2_______Schraffur_1_5
  6
Continuous
 62
     7
 48
1000.0
370
    13
100
AcDbLine
 10
125.7698041209188
 20
189.3085608547562
 30
0.0
 11
126.7778041209189
 21
189.715720838391
 31
0.0
  0
LINE
  5
237
330
74
100
AcDbEntity
  8
A1-----1H2_______Schraffur_1_5
  6
Continuous
 62
     7
 48
1000.0
370
    13
100
AcDbLine
 10
126.7778041209189
 20
189.715720838391
 30
0.0
 11
127.677804120919
 21
190.717960798108
 31
0.0
  0
LINE
  5
238
330
74
100
AcDbEntity
  8
A1-----1H2_______Schraffur_1_5
  6
Continuous
 62
     7
 48
1000.0
370
    13
100
AcDbLine
 10
127.677804120919
 20
190.717960798108
 30
0.0
 11
128.1698041209187
 21
191.6575607603423
 31
0.0
  0
LINE
  5
239
330
74
100
AcDbEntity
  8
A1-----1H2_______Schraffur_1_5
  6
Continuous
 62
     7
 48
1000.0
370
    13
100
AcDbLine
 10
128.1698041209187
 20
191.6575607603423
 30
0.0
 11
128.4698041209189
 21
192.8164007137649
 31
0.0
  0
LINE
  5
23A
330
74
100
AcDbEntity
  8
A1-----1H2_______Schraffur_1_5
  6
Continuous
 62
     7
 48
1000.0
370
    13
100
AcDbLine
 10
128.4698041209189
 20
192.8164007137649
 30
0.0
 11
128.6018041209187
 21
194.7895606344574
 31
0.0
  0
LINE
  5
23B
330
74
100
AcDbEntity
  8
A1-----1H2_______Schraffur_1_5
  6
Continuous
 62
     7
 48
1000.0
370
    13
100
AcDbLine
 10
134.6018041209187
 20
188.8387608736388
 30
0.0
 11
135.9578041209188
 21
189.0266808660859
 31
0.0
  0
LINE
  5
23C
330
74
100
AcDbEntity
  8
A1-----1H2_______Schraffur_1_5
  6
Continuous
 62
     7
 48
1000.0
370
    13
100
AcDbLine
 10
135.9578041209188
 20
189.0266808660859
 30
0.0
 11
137.7698041209188
 21
189.3085608547562
 31
0.0
  0
LINE
  5
23D
330
74
100
AcDbEntity
  8
A1-----1H2_______Schraffur_1_5
  6
Continuous
 62
     7
 48
1000.0
370
    13
100
AcDbLine
 10
137.7698041209188
 20
189.3085608547562
 30
0.0
 11
138.7778041209191
 21
189.715720838391
 31
0.0
  0
LINE
  5
23E
330
74
100
AcDbEntity
  8
A1-----1H2_______Schraffur_1_5
  6
Continuous
 62
     7
 48
1000.0
370
    13
100
AcDbLine
 10
138.7778041209191
 20
189.715720838391
 30
0.0
 11
139.6778041209188
 21
190.717960798108
 31
0.0
  0
LINE
  5
23F
330
74
100
AcDbEntity
  8
A1-----1H2_______Schraffur_1_5
  6
Continuous
 62
     7
 48
1000.0
370
    13
100
AcDbLine
 10
139.6778041209188
 20
190.717960798108
 30
0.0
 11
140.1698041209189
 21
191.6575607603423
 31
0.0
  0
LINE
  5
240
330
74
100
AcDbEntity
  8
A1-----1H2_______Schraffur_1_5
  6
Continuous
 62
     7
 48
1000.0
370
    13
100
AcDbLine
 10
140.1698041209189
 20
191.6575607603423
 30
0.0
 11
140.4698041209189
 21
192.8164007137649
 31
0.0
  0
LINE
  5
241
330
74
100
AcDbEntity
  8
A1-----1H2_______Schraffur_1_5
  6
Continuous
 62
     7
 48
1000.0
370
    13
100
AcDbLine
 10
140.4698041209189
 20
192.8164007137649
 30
0.0
 11
140.6018041209189
 21
194.7895606344574
 31
0.0
  0
LINE
  5
242
330
74
100
AcDbEntity
  8
A1-----1H2_______Schraffur_1_5
  6
Continuous
 62
     7
 48
1000.0
370
    13
100
AcDbLine
 10
146.6018041209187
 20
188.8387608736388
 30
0.0
 11
147.9578041209189
 21
189.0266808660859
 31
0.0
  0
LINE
  5
243
330
74
100
AcDbEntity
  8
A1-----1H2_______Schraffur_1_5
  6
Continuous
 62
     7
 48
1000.0
370
    13
100
AcDbLine
 10
147.9578041209189
 20
189.0266808660859
 30
0.0
 11
149.769804120919
 21
189.3085608547562
 31
0.0
  0
LINE
  5
244
330
74
100
AcDbEntity
  8
A1-----1H2_______Schraffur_1_5
  6
Continuous
 62
     7
 48
1000.0
370
    13
100
AcDbLine
 10
149.769804120919
 20
189.3085608547562
 30
0.0
 11
150.7778041209189
 21
189.715720838391
 31
0.0
  0
LINE
  5
245
330
74
100
AcDbEntity
  8
A1-----1H2_______Schraffur_1_5
  6
Continuous
 62
     7
 48
1000.0
370
    13
100
AcDbLine
 10
150.7778041209189
 20
189.715720838391
 30
0.0
 11
151.6778041209192
 21
190.717960798108
 31
0.0
  0
LINE
  5
246
330
74
100
AcDbEntity
  8
A1-----1H2_______Schraffur_1_5
  6
Continuous
 62
     7
 48
1000.0
370
    13
100
AcDbLine
 10
151.6778041209192
 20
190.717960798108
 30
0.0
 11
152.169804120919
 21
191.6575607603423
 31
0.0
  0
LINE
  5
247
330
74
100
AcDbEntity
  8
A1-----1H2_______Schraffur_1_5
  6
Continuous
 62
     7
 48
1000.0
370
    13
100
AcDbLine
 10
152.169804120919
 20
191.6575607603423
 30
0.0
 11
152.4698041209189
 21
192.8164007137649
 31
0.0
  0
LINE
  5
248
330
74
100
AcDbEntity
  8
A1-----1H2_______Schraffur_1_5
  6
Continuous
 62
     7
 48
1000.0
370
    13
100
AcDbLine
 10
152.4698041209189
 20
192.8164007137649
 30
0.0
 11
152.6018041209192
 21
194.7895606344578
 31
0.0
  0
LINE
  5
249
330
74
100
AcDbEntity
  8
A1-----1H2_______Schraffur_1_5
  6
Continuous
 62
     7
 48
1000.0
370
    13
100
AcDbLine
 10
128.4818041209188
 20
196.8880005501146
 30
0.0
 11
128.2898041209188
 21
197.9842005060548
 31
0.0
  0
LINE
  5
24A
330
74
100
AcDbEntity
  8
A1-----1H2_______Schraffur_1_5
  6
Continuous
 62
     7
 48
1000.0
370
    13
100
AcDbLine
 10
128.2898041209188
 20
197.9842005060548
 30
0.0
 11
128.1841353210911
 21
198.2850683858357
 31
0.0
  0
LINE
  5
24B
330
74
100
AcDbEntity
  8
A1-----1H2_______Schraffur_1_5
  6
Continuous
 62
     7
 48
1000.0
370
    13
100
AcDbLine
 10
140.4818041209188
 20
196.8880005501146
 30
0.0
 11
140.2898041209186
 21
197.9842005060548
 31
0.0
  0
LINE
  5
24C
330
74
100
AcDbEntity
  8
A1-----1H2_______Schraffur_1_5
  6
Continuous
 62
     7
 48
1000.0
370
    13
100
AcDbLine
 10
140.2898041209186
 20
197.9842005060548
 30
0.0
 11
139.893804120919
 21
199.111720460736
 31
0.0
  0
LINE
  5
24D
330
74
100
AcDbEntity
  8
A1-----1H2_______Schraffur_1_5
  6
Continuous
 62
     7
 48
1000.0
370
    13
100
AcDbLine
 10
152.4818041209189
 20
196.8880005501146
 30
0.0
 11
152.2898041209191
 21
197.9842005060548
 31
0.0
  0
LINE
  5
24E
330
74
100
AcDbEntity
  8
A1-----1H2_______Schraffur_1_5
  6
Continuous
 62
     7
 48
1000.0
370
    13
100
AcDbLine
 10
152.2898041209191
 20
197.9842005060548
 30
0.0
 11
151.893804120919
 21
199.111720460736
 31
0.0
  0
LINE
  5
24F
330
74
100
AcDbEntity
  8
A1-----1H2_______Schraffur_1_5
  6
Continuous
 62
     7
 48
1000.0
370
    13
100
AcDbLine
 10
128.6018041209187
 20
195.1027606218689
 30
0.0
 11
128.4818041209188
 21
196.8880005501146
 31
0.0
  0
LINE
  5
250
330
74
100
AcDbEntity
  8
A1-----1H2_______Schraffur_1_5
  6
Continuous
 62
     7
 48
1000.0
370
    13
100
AcDbLine
 10
140.6018041209189
 20
195.1027606218689
 30
0.0
 11
140.4818041209188
 21
196.8880005501146
 31
0.0
  0
LINE
  5
251
330
74
100
AcDbEntity
  8
A1-----1H2_______Schraffur_1_5
  6
Continuous
 62
     7
 48
1000.0
370
    13
100
AcDbLine
 10
152.6018041209187
 20
195.1027606218716
 30
0.0
 11
152.4818041209189
 21
196.8880005501146
 31
0.0
  0
LINE
  5
252
330
74
100
AcDbEntity
  8
A1-----1H2_______Schraffur_1_5
  6
Continuous
 62
     7
 48
1000.0
370
    13
100
AcDbLine
 10
129.3098041209186
 20
198.7985204733247
 30
0.0
 11
130.1012805244322
 21
200.7669346413121
 31
0.0
  0
LINE
  5
253
330
74
100
AcDbEntity
  8
A1-----1H2_______Schraffur_1_5
  6
Continuous
 62
     7
 48
1000.0
370
    13
100
AcDbLine
 10
141.3098041209191
 20
198.7985204733247
 30
0.0
 11
145.3232996965836
 21
208.7801466080077
 31
0.0
  0
LINE
  5
254
330
74
100
AcDbEntity
  8
A1-----1H2_______Schraffur_1_5
  6
Continuous
 62
     7
 48
1000.0
370
    13
100
AcDbLine
 10
136.9760183364546
 20
206.1689426841469
 30
0.0
 11
139.893804120919
 21
199.111720460736
 31
0.0
  0
LINE
  5
255
330
74
100
AcDbEntity
  8
A1-----1H2_______Schraffur_1_5
  6
Continuous
 62
     7
 48
1000.0
370
    13
100
AcDbLine
 10
147.8239746115573
 20
208.9553804757676
 30
0.0
 11
151.893804120919
 21
199.111720460736
 31
0.0
  0
LINE
  5
256
330
74
100
AcDbEntity
  8
A1-----1H2_______Schraffur_1_5
  6
Continuous
 62
     7
 48
1000.0
370
    13
100
AcDbLine
 10
128.7218041209188
 20
196.5748005627033
 30
0.0
 11
128.6018041209187
 21
194.7895606344574
 31
0.0
  0
LINE
  5
257
330
74
100
AcDbEntity
  8
A1-----1H2_______Schraffur_1_5
  6
Continuous
 62
     7
 48
1000.0
370
    13
100
AcDbLine
 10
140.721804120919
 20
196.5748005627033
 30
0.0
 11
140.6018041209189
 21
194.7895606344574
 31
0.0
  0
LINE
  5
258
330
74
100
AcDbEntity
  8
A1-----1H2_______Schraffur_1_5
  6
Continuous
 62
     7
 48
1000.0
370
    13
100
AcDbLine
 10
152.6018041209187
 20
194.789560634455
 30
0.0
 11
152.6118041209186
 21
194.789560634455
 31
0.0
  0
LINE
  5
259
330
74
100
AcDbEntity
  8
A1-----1H2_______Schraffur_1_5
  6
Continuous
 62
     7
 48
1000.0
370
    13
100
AcDbLine
 10
83.66462723161727
 20
163.7496598914881
 30
0.0
 11
83.67462723161778
 21
163.7496598914881
 31
0.0
  0
LINE
  5
25A
330
74
100
AcDbEntity
  8
A1-----1H2_______Schraffur_1_5
  6
Continuous
 62
     7
 48
1000.0
370
    13
100
AcDbLine
 10
73.66462708260579
 20
163.7496594543742
 30
0.0
 11
73.67462708260541
 21
163.7496594543742
 31
0.0
  0
LINE
  5
25B
330
74
100
AcDbEntity
  8
A1-----1H2_______Schraffur_1_5
  6
Continuous
 62
     7
 48
1000.0
370
    13
100
AcDbLine
 10
63.66462693359409
 20
163.74965901726
 30
0.0
 11
63.67462693359371
 21
163.74965901726
 31
0.0
  0
LINE
  5
25C
330
74
100
AcDbEntity
  8
A1-----1H2_______Schraffur_1_5
  6
Continuous
 62
     7
 48
1000.0
370
    13
100
AcDbLine
 10
53.66462678458262
 20
163.7496585801461
 30
0.0
 11
53.67462678458224
 21
163.7496585801461
 31
0.0
  0
LINE
  5
25D
330
74
100
AcDbEntity
  8
A1-----1H2_______Schraffur_1_5
  6
Continuous
 62
     7
 48
1000.0
370
    13
100
AcDbLine
 10
43.66462663557091
 20
163.7496581430324
 30
0.0
 11
43.67462663557053
 21
163.7496581430324
 31
0.0
  0
LINE
  5
25E
330
74
100
AcDbEntity
  8
A1-----1H2_______Schraffur_1_5
  6
Continuous
 62
     7
 48
1000.0
370
    13
100
AcDbLine
 10
33.66462648655921
 20
163.7496577059185
 30
0.0
 11
33.67462648655884
 21
163.7496577059185
 31
0.0
  0
LINE
  5
25F
330
74
100
AcDbEntity
  8
A1-----1H2_______Schraffur_1_5
  6
Continuous
 62
     7
 48
1000.0
370
    13
100
AcDbLine
 10
23.66462633754773
 20
163.7496572688044
 30
0.0
 11
23.67462633754736
 21
163.7496572688044
 31
0.0
  0
LINE
  5
260
330
74
100
AcDbEntity
  8
A1-----1H2_______Schraffur_1_5
  6
Continuous
 62
     7
 48
1000.0
370
    13
100
AcDbLine
 10
96.64462741017243
 20
164.0896604639281
 30
0.0
 11
96.6546274101725
 21
164.0896604639281
 31
0.0
  0
LINE
  5
261
330
74
100
AcDbEntity
  8
A1-----1H2_______Schraffur_1_5
  6
Continuous
 62
     7
 48
1000.0
370
    13
100
AcDbLine
 10
86.64462726116118
 20
164.0896600268142
 30
0.0
 11
86.65462726116147
 21
164.0896600268142
 31
0.0
  0
LINE
  5
262
330
74
100
AcDbEntity
  8
A1-----1H2_______Schraffur_1_5
  6
Continuous
 62
     7
 48
1000.0
370
    13
100
AcDbLine
 10
76.64462711214881
 20
164.0896595897001
 30
0.0
 11
76.6546271121491
 21
164.0896595897001
 31
0.0
  0
LINE
  5
263
330
74
100
AcDbEntity
  8
A1-----1H2_______Schraffur_1_5
  6
Continuous
 62
     7
 48
1000.0
370
    13
100
AcDbLine
 10
66.64462696313733
 20
164.0896591525864
 30
0.0
 11
66.65462696313762
 21
164.0896591525864
 31
0.0
  0
LINE
  5
264
330
74
100
AcDbEntity
  8
A1-----1H2_______Schraffur_1_5
  6
Continuous
 62
     7
 48
1000.0
370
    13
100
AcDbLine
 10
56.6446268141263
 20
164.0896587154726
 30
0.0
 11
56.65462681412592
 21
164.0896587154726
 31
0.0
  0
LINE
  5
265
330
74
100
AcDbEntity
  8
A1-----1H2_______Schraffur_1_5
  6
Continuous
 62
     7
 48
1000.0
370
    13
100
AcDbLine
 10
46.64462666511393
 20
164.0896582783584
 30
0.0
 11
46.65462666511444
 21
164.0896582783584
 31
0.0
  0
LINE
  5
266
330
74
100
AcDbEntity
  8
A1-----1H2_______Schraffur_1_5
  6
Continuous
 62
     7
 48
1000.0
370
    13
100
AcDbLine
 10
36.64462651610245
 20
164.0896578412445
 30
0.0
 11
36.65462651610274
 21
164.0896578412445
 31
0.0
  0
LINE
  5
267
330
74
100
AcDbEntity
  8
A1-----1H2_______Schraffur_1_5
  6
Continuous
 62
     7
 48
1000.0
370
    13
100
AcDbLine
 10
26.64462636709075
 20
164.0896574041308
 30
0.0
 11
26.65462636709104
 21
164.0896574041308
 31
0.0
  0
LINE
  5
268
330
74
100
AcDbEntity
  8
A1-----1H2_______Schraffur_1_5
  6
Continuous
 62
     7
 48
1000.0
370
    13
100
AcDbLine
 10
16.64462621807927
 20
164.0896569670169
 30
0.0
 11
16.65462621807956
 21
164.0896569670169
 31
0.0
  0
LINE
  5
269
330
74
100
AcDbEntity
  8
A1-----1H2_______Schraffur_1_5
  6
Continuous
 62
     7
 48
1000.0
370
    13
100
AcDbLine
 10
98.99462743863351
 20
164.2396605688852
 30
0.0
 11
99.00462743863336
 21
164.2396605688852
 31
0.0
  0
LINE
  5
26A
330
74
100
AcDbEntity
  8
A1-----1H2_______Schraffur_1_5
  6
Continuous
 62
     7
 48
1000.0
370
    13
100
AcDbLine
 10
88.9946272896216
 20
164.239660131771
 30
0.0
 11
89.00462728962188
 21
164.239660131771
 31
0.0
  0
LINE
  5
26B
330
74
100
AcDbEntity
  8
A1-----1H2_______Schraffur_1_5
  6
Continuous
 62
     7
 48
1000.0
370
    13
100
AcDbLine
 10
78.99462714061012
 20
164.2396596946574
 30
0.0
 11
79.00462714060974
 21
164.2396596946574
 31
0.0
  0
LINE
  5
26C
330
74
100
AcDbEntity
  8
A1-----1H2_______Schraffur_1_5
  6
Continuous
 62
     7
 48
1000.0
370
    13
100
AcDbLine
 10
68.99462699159864
 20
164.239659257543
 30
0.0
 11
69.00462699159826
 21
164.239659257543
 31
0.0
  0
LINE
  5
26D
330
74
100
AcDbEntity
  8
A1-----1H2_______Schraffur_1_5
  6
Continuous
 62
     7
 48
1000.0
370
    13
100
AcDbLine
 10
58.99462684258694
 20
164.2396588204294
 30
0.0
 11
59.00462684258656
 21
164.2396588204294
 31
0.0
  0
LINE
  5
26E
330
74
100
AcDbEntity
  8
A1-----1H2_______Schraffur_1_5
  6
Continuous
 62
     7
 48
1000.0
370
    13
100
AcDbLine
 10
48.99462669357546
 20
164.2396583833159
 30
0.0
 11
49.00462669357574
 21
164.2396583833159
 31
0.0
  0
LINE
  5
26F
330
74
100
AcDbEntity
  8
A1-----1H2_______Schraffur_1_5
  6
Continuous
 62
     7
 48
1000.0
370
    13
100
AcDbLine
 10
38.99462654456376
 20
164.2396579462018
 30
0.0
 11
39.00462654456338
 21
164.2396579462018
 31
0.0
  0
LINE
  5
270
330
74
100
AcDbEntity
  8
A1-----1H2_______Schraffur_1_5
  6
Continuous
 62
     7
 48
1000.0
370
    13
100
AcDbLine
 10
28.99462639555206
 20
164.2396575090879
 30
0.0
 11
29.00462639555168
 21
164.2396575090879
 31
0.0
  0
LINE
  5
271
330
74
100
AcDbEntity
  8
A1-----1H2_______Schraffur_1_5
  6
Continuous
 62
     7
 48
1000.0
370
    13
100
AcDbLine
 10
18.99462624654058
 20
164.2396570719737
 30
0.0
 11
19.0046262465402
 21
164.2396570719737
 31
0.0
  0
LINE
  5
272
330
74
100
AcDbEntity
  8
A1-----1H2_______Schraffur_1_5
  6
Continuous
 62
     7
 48
1000.0
370
    13
100
AcDbLine
 10
102.1146274790057
 20
164.3796607073509
 30
0.0
 11
102.1246274790055
 21
164.3796607073509
 31
0.0
  0
LINE
  5
273
330
74
100
AcDbEntity
  8
A1-----1H2_______Schraffur_1_5
  6
Continuous
 62
     7
 48
1000.0
370
    13
100
AcDbLine
 10
92.11462732999398
 20
164.379660270237
 30
0.0
 11
92.12462732999404
 21
164.379660270237
 31
0.0
  0
LINE
  5
274
330
74
100
AcDbEntity
  8
A1-----1H2_______Schraffur_1_5
  6
Continuous
 62
     7
 48
1000.0
370
    13
100
AcDbLine
 10
82.11462718098228
 20
164.3796598331229
 30
0.0
 11
82.12462718098277
 21
164.3796598331229
 31
0.0
  0
LINE
  5
275
330
74
100
AcDbEntity
  8
A1-----1H2_______Schraffur_1_5
  6
Continuous
 62
     7
 48
1000.0
370
    13
100
AcDbLine
 10
72.1146270319708
 20
164.3796593960092
 30
0.0
 11
72.12462703197042
 21
164.3796593960092
 31
0.0
  0
LINE
  5
276
330
74
100
AcDbEntity
  8
A1-----1H2_______Schraffur_1_5
  6
Continuous
 62
     7
 48
1000.0
370
    13
100
AcDbLine
 10
62.1146268829591
 20
164.3796589588953
 30
0.0
 11
62.12462688295872
 21
164.3796589588953
 31
0.0
  0
LINE
  5
277
330
74
100
AcDbEntity
  8
A1-----1H2_______Schraffur_1_5
  6
Continuous
 62
     7
 48
1000.0
370
    13
100
AcDbLine
 10
52.11462673394762
 20
164.3796585217814
 30
0.0
 11
52.12462673394725
 21
164.3796585217814
 31
0.0
  0
LINE
  5
278
330
74
100
AcDbEntity
  8
A1-----1H2_______Schraffur_1_5
  6
Continuous
 62
     7
 48
1000.0
370
    13
100
AcDbLine
 10
42.11462658493592
 20
164.3796580846673
 30
0.0
 11
42.12462658493554
 21
164.3796580846673
 31
0.0
  0
LINE
  5
279
330
74
100
AcDbEntity
  8
A1-----1H2_______Schraffur_1_5
  6
Continuous
 62
     7
 48
1000.0
370
    13
100
AcDbLine
 10
32.11462643592422
 20
164.3796576475536
 30
0.0
 11
32.12462643592384
 21
164.3796576475536
 31
0.0
  0
LINE
  5
27A
330
74
100
AcDbEntity
  8
A1-----1H2_______Schraffur_1_5
  6
Continuous
 62
     7
 48
1000.0
370
    13
100
AcDbLine
 10
22.11462628691274
 20
164.3796572104392
 30
0.0
 11
22.12462628691236
 21
164.3796572104392
 31
0.0
  0
LINE
  5
27B
330
74
100
AcDbEntity
  8
A1-----1H2_______Schraffur_1_5
  6
Continuous
 62
     7
 48
1000.0
370
    13
100
AcDbLine
 10
97.5546274031882
 20
164.5596605107089
 30
0.0
 11
97.56462740318806
 21
164.5596605107089
 31
0.0
  0
LINE
  5
27C
330
74
100
AcDbEntity
  8
A1-----1H2_______Schraffur_1_5
  6
Continuous
 62
     7
 48
1000.0
370
    13
100
AcDbLine
 10
87.55462725417695
 20
164.5596600735955
 30
0.0
 11
87.56462725417724
 21
164.5596600735955
 31
0.0
  0
LINE
  5
27D
330
74
100
AcDbEntity
  8
A1-----1H2_______Schraffur_1_5
  6
Continuous
 62
     7
 48
1000.0
370
    13
100
AcDbLine
 10
77.55462710516458
 20
164.5596596364811
 30
0.0
 11
77.56462710516489
 21
164.5596596364811
 31
0.0
  0
LINE
  5
27E
330
74
100
AcDbEntity
  8
A1-----1H2_______Schraffur_1_5
  6
Continuous
 62
     7
 48
1000.0
370
    13
100
AcDbLine
 10
67.55462695615289
 20
164.5596591993674
 30
0.0
 11
67.56462695615339
 21
164.5596591993674
 31
0.0
  0
LINE
  5
27F
330
74
100
AcDbEntity
  8
A1-----1H2_______Schraffur_1_5
  6
Continuous
 62
     7
 48
1000.0
370
    13
100
AcDbLine
 10
57.5546268071414
 20
164.5596587622535
 30
0.0
 11
57.56462680714169
 21
164.5596587622535
 31
0.0
  0
LINE
  5
280
330
74
100
AcDbEntity
  8
A1-----1H2_______Schraffur_1_5
  6
Continuous
 62
     7
 48
1000.0
370
    13
100
AcDbLine
 10
47.55462665812971
 20
164.5596583251398
 30
0.0
 11
47.56462665813
 21
164.5596583251398
 31
0.0
  0
LINE
  5
281
330
74
100
AcDbEntity
  8
A1-----1H2_______Schraffur_1_5
  6
Continuous
 62
     7
 48
1000.0
370
    13
100
AcDbLine
 10
37.55462650911823
 20
164.5596578880255
 30
0.0
 11
37.56462650911851
 21
164.5596578880255
 31
0.0
  0
LINE
  5
282
330
74
100
AcDbEntity
  8
A1-----1H2_______Schraffur_1_5
  6
Continuous
 62
     7
 48
1000.0
370
    13
100
AcDbLine
 10
27.55462636010653
 20
164.5596574509118
 30
0.0
 11
27.56462636010682
 21
164.5596574509118
 31
0.0
  0
LINE
  5
283
330
74
100
AcDbEntity
  8
A1-----1H2_______Schraffur_1_5
  6
Continuous
 62
     7
 48
1000.0
370
    13
100
AcDbLine
 10
17.55462621109483
 20
164.5596570137977
 30
0.0
 11
17.56462621109534
 21
164.5596570137977
 31
0.0
  0
LINE
  5
284
330
74
100
AcDbEntity
  8
A1-----1H2_______Schraffur_1_5
  6
Continuous
 62
     7
 48
1000.0
370
    13
100
AcDbLine
 10
99.38462745449851
 20
164.0096605825052
 30
0.0
 11
99.39462745449856
 21
164.0096605825052
 31
0.0
  0
LINE
  5
285
330
74
100
AcDbEntity
  8
A1-----1H2_______Schraffur_1_5
  6
Continuous
 62
     7
 48
1000.0
370
    13
100
AcDbLine
 10
89.38462730548702
 20
164.0096601453918
 30
0.0
 11
89.39462730548686
 21
164.0096601453918
 31
0.0
  0
LINE
  5
286
330
74
100
AcDbEntity
  8
A1-----1H2_______Schraffur_1_5
  6
Continuous
 62
     7
 48
1000.0
370
    13
100
AcDbLine
 10
79.38462715647532
 20
164.0096597082774
 30
0.0
 11
79.39462715647494
 21
164.0096597082774
 31
0.0
  0
LINE
  5
287
330
74
100
AcDbEntity
  8
A1-----1H2_______Schraffur_1_5
  6
Continuous
 62
     7
 48
1000.0
370
    13
100
AcDbLine
 10
69.38462700746383
 20
164.0096592711637
 30
0.0
 11
69.39462700746346
 21
164.0096592711637
 31
0.0
  0
LINE
  5
288
330
74
100
AcDbEntity
  8
A1-----1H2_______Schraffur_1_5
  6
Continuous
 62
     7
 48
1000.0
370
    13
100
AcDbLine
 10
59.38462685845214
 20
164.0096588340496
 30
0.0
 11
59.39462685845176
 21
164.0096588340496
 31
0.0
  0
LINE
  5
289
330
74
100
AcDbEntity
  8
A1-----1H2_______Schraffur_1_5
  6
Continuous
 62
     7
 48
1000.0
370
    13
100
AcDbLine
 10
49.38462670944044
 20
164.0096583969357
 30
0.0
 11
49.39462670944006
 21
164.0096583969357
 31
0.0
  0
LINE
  5
28A
330
74
100
AcDbEntity
  8
A1-----1H2_______Schraffur_1_5
  6
Continuous
 62
     7
 48
1000.0
370
    13
100
AcDbLine
 10
39.38462656042896
 20
164.0096579598218
 30
0.0
 11
39.39462656042858
 21
164.0096579598218
 31
0.0
  0
LINE
  5
28B
330
74
100
AcDbEntity
  8
A1-----1H2_______Schraffur_1_5
  6
Continuous
 62
     7
 48
1000.0
370
    13
100
AcDbLine
 10
29.38462641141726
 20
164.0096575227077
 30
0.0
 11
29.39462641141688
 21
164.0096575227077
 31
0.0
  0
LINE
  5
28C
330
74
100
AcDbEntity
  8
A1-----1H2_______Schraffur_1_5
  6
Continuous
 62
     7
 48
1000.0
370
    13
100
AcDbLine
 10
19.38462626240578
 20
164.0096570855942
 30
0.0
 11
19.3946262624054
 21
164.0096570855942
 31
0.0
  0
LINE
  5
28D
330
74
100
AcDbEntity
  8
A1-----1H2_______Schraffur_1_5
  6
Continuous
 62
     7
 48
1000.0
370
    13
100
AcDbLine
 10
98.87462744689901
 20
164.0096605602126
 30
0.0
 11
98.88462744689909
 21
164.0096605602126
 31
0.0
  0
LINE
  5
28E
330
74
100
AcDbEntity
  8
A1-----1H2_______Schraffur_1_5
  6
Continuous
 62
     7
 48
1000.0
370
    13
100
AcDbLine
 10
88.87462729788776
 20
164.0096601230985
 30
0.0
 11
88.88462729788738
 21
164.0096601230985
 31
0.0
  0
LINE
  5
28F
330
74
100
AcDbEntity
  8
A1-----1H2_______Schraffur_1_5
  6
Continuous
 62
     7
 48
1000.0
370
    13
100
AcDbLine
 10
78.8746271488756
 20
164.0096596859846
 30
0.0
 11
78.88462714887523
 21
164.0096596859846
 31
0.0
  0
LINE
  5
290
330
74
100
AcDbEntity
  8
A1-----1H2_______Schraffur_1_5
  6
Continuous
 62
     7
 48
1000.0
370
    13
100
AcDbLine
 10
68.8746269998639
 20
164.0096592488711
 30
0.0
 11
68.8846269998642
 21
164.0096592488711
 31
0.0
  0
LINE
  5
291
330
74
100
AcDbEntity
  8
A1-----1H2_______Schraffur_1_5
  6
Continuous
 62
     7
 48
1000.0
370
    13
100
AcDbLine
 10
58.87462685085221
 20
164.0096588117566
 30
0.0
 11
58.88462685085183
 21
164.0096588117566
 31
0.0
  0
LINE
  5
292
330
74
100
AcDbEntity
  8
A1-----1H2_______Schraffur_1_5
  6
Continuous
 62
     7
 48
1000.0
370
    13
100
AcDbLine
 10
48.87462670184073
 20
164.0096583746429
 30
0.0
 11
48.88462670184035
 21
164.0096583746429
 31
0.0
  0
LINE
  5
293
330
74
100
AcDbEntity
  8
A1-----1H2_______Schraffur_1_5
  6
Continuous
 62
     7
 48
1000.0
370
    13
100
AcDbLine
 10
38.87462655282903
 20
164.009657937529
 30
0.0
 11
38.88462655282865
 21
164.009657937529
 31
0.0
  0
LINE
  5
294
330
74
100
AcDbEntity
  8
A1-----1H2_______Schraffur_1_5
  6
Continuous
 62
     7
 48
1000.0
370
    13
100
AcDbLine
 10
28.87462640381755
 20
164.0096575004151
 30
0.0
 11
28.88462640381717
 21
164.0096575004151
 31
0.0
  0
LINE
  5
295
330
74
100
AcDbEntity
  8
A1-----1H2_______Schraffur_1_5
  6
Continuous
 62
     7
 48
1000.0
370
    13
100
AcDbLine
 10
18.87462625480585
 20
164.0096570633009
 30
0.0
 11
18.88462625480547
 21
164.0096570633009
 31
0.0
  0
LINE
  5
296
330
74
100
AcDbEntity
  8
A1-----1H2_______Schraffur_1_5
  6
Continuous
 62
     7
 48
1000.0
370
    13
100
AcDbLine
 10
100.9646274557496
 20
164.5196606591686
 30
0.0
 11
100.9746274557497
 21
164.5196606591686
 31
0.0
  0
LINE
  5
297
330
74
100
AcDbEntity
  8
A1-----1H2_______Schraffur_1_5
  6
Continuous
 62
     7
 48
1000.0
370
    13
100
AcDbLine
 10
90.96462730673815
 20
164.5196602220551
 30
0.0
 11
90.974627306738
 21
164.5196602220551
 31
0.0
  0
LINE
  5
298
330
74
100
AcDbEntity
  8
A1-----1H2_______Schraffur_1_5
  6
Continuous
 62
     7
 48
1000.0
370
    13
100
AcDbLine
 10
80.96462715772644
 20
164.519659784941
 30
0.0
 11
80.97462715772674
 21
164.519659784941
 31
0.0
  0
LINE
  5
299
330
74
100
AcDbEntity
  8
A1-----1H2_______Schraffur_1_5
  6
Continuous
 62
     7
 48
1000.0
370
    13
100
AcDbLine
 10
70.96462700871409
 20
164.5196593478273
 30
0.0
 11
70.97462700871459
 21
164.5196593478273
 31
0.0
  0
LINE
  5
29A
330
74
100
AcDbEntity
  8
A1-----1H2_______Schraffur_1_5
  6
Continuous
 62
     7
 48
1000.0
370
    13
100
AcDbLine
 10
60.96462685970261
 20
164.519658910713
 30
0.0
 11
60.97462685970289
 21
164.519658910713
 31
0.0
  0
LINE
  5
29B
330
74
100
AcDbEntity
  8
A1-----1H2_______Schraffur_1_5
  6
Continuous
 62
     7
 48
1000.0
370
    13
100
AcDbLine
 10
50.96462671069158
 20
164.5196584735995
 30
0.0
 11
50.9746267106912
 21
164.5196584735995
 31
0.0
  0
LINE
  5
29C
330
74
100
AcDbEntity
  8
A1-----1H2_______Schraffur_1_5
  6
Continuous
 62
     7
 48
1000.0
370
    13
100
AcDbLine
 10
40.96462656167942
 20
164.5196580364854
 30
0.0
 11
40.97462656167971
 21
164.5196580364854
 31
0.0
  0
LINE
  5
29D
330
74
100
AcDbEntity
  8
A1-----1H2_______Schraffur_1_5
  6
Continuous
 62
     7
 48
1000.0
370
    13
100
AcDbLine
 10
30.96462641266773
 20
164.5196575993713
 30
0.0
 11
30.97462641266802
 21
164.5196575993713
 31
0.0
  0
LINE
  5
29E
330
74
100
AcDbEntity
  8
A1-----1H2_______Schraffur_1_5
  6
Continuous
 62
     7
 48
1000.0
370
    13
100
AcDbLine
 10
20.96462626365603
 20
164.5196571622574
 30
0.0
 11
20.97462626365654
 21
164.5196571622574
 31
0.0
  0
LINE
  5
29F
330
74
100
AcDbEntity
  8
A1-----1H2_______Schraffur_1_5
  6
Continuous
 62
     7
 48
1000.0
370
    13
100
AcDbLine
 10
150.4952962709856
 20
180.5264534946258
 30
0.0
 11
150.5052962709854
 21
180.5264534946258
 31
0.0
  0
LINE
  5
2A0
330
74
100
AcDbEntity
  8
A1-----1H2_______Schraffur_1_5
  6
Continuous
 62
     7
 48
1000.0
370
    13
100
AcDbLine
 10
140.4952961219736
 20
180.5264530575117
 30
0.0
 11
140.5052961219737
 21
180.5264530575117
 31
0.0
  0
LINE
  5
2A1
330
74
100
AcDbEntity
  8
A1-----1H2_______Schraffur_1_5
  6
Continuous
 62
     7
 48
1000.0
370
    13
100
AcDbLine
 10
130.4952959729622
 20
180.5264526203978
 30
0.0
 11
130.505295972962
 21
180.5264526203978
 31
0.0
  0
LINE
  5
2A2
330
74
100
AcDbEntity
  8
A1-----1H2_______Schraffur_1_5
  6
Continuous
 62
     7
 48
1000.0
370
    13
100
AcDbLine
 10
150.6552963249488
 20
179.3464534840361
 30
0.0
 11
150.6652963249489
 21
179.3464534840361
 31
0.0
  0
LINE
  5
2A3
330
74
100
AcDbEntity
  8
A1-----1H2_______Schraffur_1_5
  6
Continuous
 62
     7
 48
1000.0
370
    13
100
AcDbLine
 10
140.6552961759373
 20
179.3464530469224
 30
0.0
 11
140.6652961759372
 21
179.3464530469224
 31
0.0
  0
LINE
  5
2A4
330
74
100
AcDbEntity
  8
A1-----1H2_______Schraffur_1_5
  6
Continuous
 62
     7
 48
1000.0
370
    13
100
AcDbLine
 10
130.6552960269256
 20
179.3464526098085
 30
0.0
 11
130.6652960269257
 21
179.3464526098085
 31
0.0
  0
LINE
  5
2A5
330
74
100
AcDbEntity
  8
A1-----1H2_______Schraffur_1_5
  6
Continuous
 62
     7
 48
1000.0
370
    13
100
AcDbLine
 10
147.3452962384714
 20
180.1964533520171
 30
0.0
 11
147.3552962384714
 21
180.1964533520171
 31
0.0
  0
LINE
  5
2A6
330
74
100
AcDbEntity
  8
A1-----1H2_______Schraffur_1_5
  6
Continuous
 62
     7
 48
1000.0
370
    13
100
AcDbLine
 10
137.3452960894599
 20
180.1964529149036
 30
0.0
 11
137.3552960894597
 21
180.1964529149036
 31
0.0
  0
LINE
  5
2A7
330
74
100
AcDbEntity
  8
A1-----1H2_______Schraffur_1_5
  6
Continuous
 62
     7
 48
1000.0
370
    13
100
AcDbLine
 10
127.3452959404482
 20
180.1964524777895
 30
0.0
 11
127.3552959404483
 21
180.1964524777895
 31
0.0
  0
LINE
  5
2A8
330
74
100
AcDbEntity
  8
A1-----1H2_______Schraffur_1_5
  6
Continuous
 62
     7
 48
1000.0
370
    13
100
AcDbLine
 10
147.7152961421373
 20
182.5264534029107
 30
0.0
 11
147.7252961421374
 21
182.5264534029107
 31
0.0
  0
LINE
  5
2A9
330
74
100
AcDbEntity
  8
A1-----1H2_______Schraffur_1_5
  6
Continuous
 62
     7
 48
1000.0
370
    13
100
AcDbLine
 10
137.7152959931258
 20
182.5264529657966
 30
0.0
 11
137.7252959931257
 21
182.5264529657966
 31
0.0
  0
LINE
  5
2AA
330
74
100
AcDbEntity
  8
A1-----1H2_______Schraffur_1_5
  6
Continuous
 62
     7
 48
1000.0
370
    13
100
AcDbLine
 10
127.7152958441141
 20
182.5264525286823
 30
0.0
 11
127.7252958441142
 21
182.5264525286823
 31
0.0
  0
LINE
  5
2AB
330
74
100
AcDbEntity
  8
A1-----1H2_______Schraffur_1_5
  6
Continuous
 62
     7
 48
1000.0
370
    13
100
AcDbLine
 10
147.8752961956638
 20
181.3564533924699
 30
0.0
 11
147.8852961956638
 21
181.3564533924699
 31
0.0
  0
LINE
  5
2AC
330
74
100
AcDbEntity
  8
A1-----1H2_______Schraffur_1_5
  6
Continuous
 62
     7
 48
1000.0
370
    13
100
AcDbLine
 10
137.875296046652
 20
181.3564529553557
 30
0.0
 11
137.8852960466519
 21
181.3564529553557
 31
0.0
  0
LINE
  5
2AD
330
74
100
AcDbEntity
  8
A1-----1H2_______Schraffur_1_5
  6
Continuous
 62
     7
 48
1000.0
370
    13
100
AcDbLine
 10
127.8752958976408
 20
181.3564525182418
 30
0.0
 11
127.8852958976406
 21
181.3564525182418
 31
0.0
  0
LINE
  5
2AE
330
74
100
AcDbEntity
  8
A1-----1H2_______Schraffur_1_5
  6
Continuous
 62
     7
 48
1000.0
370
    13
100
AcDbLine
 10
144.5452961512883
 20
181.2364532451227
 30
0.0
 11
144.5552961512884
 21
181.2364532451227
 31
0.0
  0
LINE
  5
2AF
330
74
100
AcDbEntity
  8
A1-----1H2_______Schraffur_1_5
  6
Continuous
 62
     7
 48
1000.0
370
    13
100
AcDbLine
 10
134.5452960022768
 20
181.236452808009
 30
0.0
 11
134.5552960022767
 21
181.236452808009
 31
0.0
  0
LINE
  5
2B0
330
74
100
AcDbEntity
  8
A1-----1H2_______Schraffur_1_5
  6
Continuous
 62
     7
 48
1000.0
370
    13
100
AcDbLine
 10
124.5452958532651
 20
181.2364523708951
 30
0.0
 11
124.5552958532652
 21
181.2364523708951
 31
0.0
  0
LINE
  5
2B1
330
74
100
AcDbEntity
  8
A1-----1H2_______Schraffur_1_5
  6
Continuous
 62
     7
 48
1000.0
370
    13
100
AcDbLine
 10
144.705296205252
 20
180.056453234533
 30
0.0
 11
144.7152962052518
 21
180.056453234533
 31
0.0
  0
LINE
  5
2B2
330
74
100
AcDbEntity
  8
A1-----1H2_______Schraffur_1_5
  6
Continuous
 62
     7
 48
1000.0
370
    13
100
AcDbLine
 10
134.7052960562403
 20
180.0564527974193
 30
0.0
 11
134.7152960562403
 21
180.0564527974193
 31
0.0
  0
LINE
  5
2B3
330
74
100
AcDbEntity
  8
A1-----1H2_______Schraffur_1_5
  6
Continuous
 62
     7
 48
1000.0
370
    13
100
AcDbLine
 10
124.7052959072288
 20
180.0564523603054
 30
0.0
 11
124.7152959072286
 21
180.0564523603054
 31
0.0
  0
LINE
  5
2B4
330
74
100
AcDbEntity
  8
A1-----1H2_______Schraffur_1_5
  6
Continuous
 62
     7
 48
1000.0
370
    13
100
AcDbLine
 10
145.465296244115
 20
179.4264532583663
 30
0.0
 11
145.475296244115
 21
179.4264532583663
 31
0.0
  0
LINE
  5
2B5
330
74
100
AcDbEntity
  8
A1-----1H2_______Schraffur_1_5
  6
Continuous
 62
     7
 48
1000.0
370
    13
100
AcDbLine
 10
135.4652960951035
 20
179.4264528212519
 30
0.0
 11
135.4752960951033
 21
179.4264528212519
 31
0.0
  0
LINE
  5
2B6
330
74
100
AcDbEntity
  8
A1-----1H2_______Schraffur_1_5
  6
Continuous
 62
     7
 48
1000.0
370
    13
100
AcDbLine
 10
125.4652959460918
 20
179.4264523841382
 30
0.0
 11
125.4752959460919
 21
179.4264523841382
 31
0.0
  0
LINE
  5
2B7
330
74
100
AcDbEntity
  8
A1-----1H2_______Schraffur_1_5
  6
Continuous
 62
     7
 48
1000.0
370
    13
100
AcDbLine
 10
145.8252961476318
 20
181.7564533088221
 30
0.0
 11
145.8352961476317
 21
181.7564533088221
 31
0.0
  0
LINE
  5
2B8
330
74
100
AcDbEntity
  8
A1-----1H2_______Schraffur_1_5
  6
Continuous
 62
     7
 48
1000.0
370
    13
100
AcDbLine
 10
135.8252959986201
 20
181.7564528717079
 30
0.0
 11
135.8352959986202
 21
181.7564528717079
 31
0.0
  0
LINE
  5
2B9
330
74
100
AcDbEntity
  8
A1-----1H2_______Schraffur_1_5
  6
Continuous
 62
     7
 48
1000.0
370
    13
100
AcDbLine
 10
125.8252958496089
 20
181.7564524345941
 30
0.0
 11
125.835295849609
 21
181.7564524345941
 31
0.0
  0
LINE
  5
2BA
330
74
100
AcDbEntity
  8
A1-----1H2_______Schraffur_1_5
  6
Continuous
 62
     7
 48
1000.0
370
    13
100
AcDbLine
 10
145.9852962011583
 20
180.5864532983812
 30
0.0
 11
145.9952962011584
 21
180.5864532983812
 31
0.0
  0
LINE
  5
2BB
330
74
100
AcDbEntity
  8
A1-----1H2_______Schraffur_1_5
  6
Continuous
 62
     7
 48
1000.0
370
    13
100
AcDbLine
 10
135.985296052147
 20
180.5864528612675
 30
0.0
 11
135.9952960521471
 21
180.5864528612675
 31
0.0
  0
LINE
  5
2BC
330
74
100
AcDbEntity
  8
A1-----1H2_______Schraffur_1_5
  6
Continuous
 62
     7
 48
1000.0
370
    13
100
AcDbLine
 10
125.9852959031351
 20
180.5864524241536
 30
0.0
 11
125.9952959031352
 21
180.5864524241536
 31
0.0
  0
LINE
  5
2BD
330
74
100
AcDbEntity
  8
A1-----1H2_______Schraffur_1_5
  6
Continuous
 62
     7
 48
1000.0
370
    13
100
AcDbLine
 10
151.6452963182828
 20
179.8364535346118
 30
0.0
 11
151.6552963182827
 21
179.8364535346118
 31
0.0
  0
LINE
  5
2BE
330
74
100
AcDbEntity
  8
A1-----1H2_______Schraffur_1_5
  6
Continuous
 62
     7
 48
1000.0
370
    13
100
AcDbLine
 10
141.6452961692707
 20
179.8364530974981
 30
0.0
 11
141.6552961692707
 21
179.8364530974981
 31
0.0
  0
LINE
  5
2BF
330
74
100
AcDbEntity
  8
A1-----1H2_______Schraffur_1_5
  6
Continuous
 62
     7
 48
1000.0
370
    13
100
AcDbLine
 10
131.6452960202592
 20
179.8364526603846
 30
0.0
 11
131.655296020259
 21
179.8364526603846
 31
0.0
  0
LINE
  5
2C0
330
74
100
AcDbEntity
  8
A1-----1H2_______Schraffur_1_5
  6
Continuous
 62
     7
 48
1000.0
370
    13
100
AcDbLine
 10
142.0152960729366
 20
182.1664531483913
 30
0.0
 11
142.0252960729367
 21
182.1664531483913
 31
0.0
  0
LINE
  5
2C1
330
74
100
AcDbEntity
  8
A1-----1H2_______Schraffur_1_5
  6
Continuous
 62
     7
 48
1000.0
370
    13
100
AcDbLine
 10
132.0152959239251
 20
182.1664527112774
 30
0.0
 11
132.025295923925
 21
182.1664527112774
 31
0.0
  0
LINE
  5
2C2
330
74
100
AcDbEntity
  8
A1-----1H2_______Schraffur_1_5
  6
Continuous
 62
     7
 48
1000.0
370
    13
100
AcDbLine
 10
142.1752961269005
 20
180.9864531378016
 30
0.0
 11
142.1852961269006
 21
180.9864531378016
 31
0.0
  0
LINE
  5
2C3
330
74
100
AcDbEntity
  8
A1-----1H2_______Schraffur_1_5
  6
Continuous
 62
     7
 48
1000.0
370
    13
100
AcDbLine
 10
132.175295977889
 20
180.9864527006875
 30
0.0
 11
132.1852959778889
 21
180.9864527006875
 31
0.0
  0
LINE
  5
2C4
330
74
100
AcDbEntity
  8
A1-----1H2_______Schraffur_1_5
  6
Continuous
 62
     7
 48
1000.0
370
    13
100
AcDbLine
 10
142.9852961415932
 20
180.9264531723134
 30
0.0
 11
142.995296141593
 21
180.9264531723134
 31
0.0
  0
LINE
  5
2C5
330
74
100
AcDbEntity
  8
A1-----1H2_______Schraffur_1_5
  6
Continuous
 62
     7
 48
1000.0
370
    13
100
AcDbLine
 10
132.9852959925815
 20
180.9264527351999
 30
0.0
 11
132.9952959925815
 21
180.9264527351999
 31
0.0
  0
LINE
  5
2C6
330
74
100
AcDbEntity
  8
A1-----1H2_______Schraffur_1_5
  6
Continuous
 62
     7
 48
1000.0
370
    13
100
AcDbLine
 10
143.1552961957054
 20
179.7464531621611
 30
0.0
 11
143.1652961957055
 21
179.7464531621611
 31
0.0
  0
LINE
  5
2C7
330
74
100
AcDbEntity
  8
A1-----1H2_______Schraffur_1_5
  6
Continuous
 62
     7
 48
1000.0
370
    13
100
AcDbLine
 10
133.1552960466942
 20
179.7464527250474
 30
0.0
 11
133.1652960466942
 21
179.7464527250474
 31
0.0
  0
LINE
  5
2C8
330
74
100
AcDbEntity
  8
A1-----1H2_______Schraffur_1_5
  6
Continuous
 62
     7
 48
1000.0
370
    13
100
AcDbLine
 10
148.1152962656815
 20
179.8364533803107
 30
0.0
 11
148.1252962656814
 21
179.8364533803107
 31
0.0
  0
LINE
  5
2C9
330
74
100
AcDbEntity
  8
A1-----1H2_______Schraffur_1_5
  6
Continuous
 62
     7
 48
1000.0
370
    13
100
AcDbLine
 10
138.1152961166696
 20
179.8364529431968
 30
0.0
 11
138.1252961166697
 21
179.8364529431968
 31
0.0
  0
LINE
  5
2CA
330
74
100
AcDbEntity
  8
A1-----1H2_______Schraffur_1_5
  6
Continuous
 62
     7
 48
1000.0
370
    13
100
AcDbLine
 10
128.1152959676581
 20
179.8364525060832
 30
0.0
 11
128.125295967658
 21
179.8364525060832
 31
0.0
  0
LINE
  5
2CB
330
74
100
AcDbEntity
  8
A1-----1H2_______Schraffur_1_5
  6
Continuous
 62
     7
 48
1000.0
370
    13
100
AcDbLine
 10
149.4352962145387
 20
181.4564534621497
 30
0.0
 11
149.4452962145388
 21
181.4564534621497
 31
0.0
  0
LINE
  5
2CC
330
74
100
AcDbEntity
  8
A1-----1H2_______Schraffur_1_5
  6
Continuous
 62
     7
 48
1000.0
370
    13
100
AcDbLine
 10
139.4352960655267
 20
181.456453025036
 30
0.0
 11
139.4452960655268
 21
181.456453025036
 31
0.0
  0
LINE
  5
2CD
330
74
100
AcDbEntity
  8
A1-----1H2_______Schraffur_1_5
  6
Continuous
 62
     7
 48
1000.0
370
    13
100
AcDbLine
 10
129.435295916515
 20
181.4564525879221
 30
0.0
 11
129.4452959165151
 21
181.4564525879221
 31
0.0
  0
LINE
  5
2CE
330
74
100
AcDbEntity
  8
A1-----1H2_______Schraffur_1_5
  6
Continuous
 62
     7
 48
1000.0
370
    13
100
AcDbLine
 10
149.6052962686514
 20
180.2764534519974
 30
0.0
 11
149.6152962686512
 21
180.2764534519974
 31
0.0
  0
LINE
  5
2CF
330
74
100
AcDbEntity
  8
A1-----1H2_______Schraffur_1_5
  6
Continuous
 62
     7
 48
1000.0
370
    13
100
AcDbLine
 10
139.6052961196395
 20
180.2764530148833
 30
0.0
 11
139.6152961196395
 21
180.2764530148833
 31
0.0
  0
LINE
  5
2D0
330
74
100
AcDbEntity
  8
A1-----1H2_______Schraffur_1_5
  6
Continuous
 62
     7
 48
1000.0
370
    13
100
AcDbLine
 10
129.6052959706282
 20
180.2764525777693
 30
0.0
 11
129.6152959706283
 21
180.2764525777693
 31
0.0
  0
LINE
  5
2D1
330
74
100
AcDbEntity
  8
A1-----1H2_______Schraffur_1_5
  6
Continuous
 62
     7
 48
1000.0
370
    13
100
AcDbLine
 10
140.6952960877994
 20
181.3764530789202
 30
0.0
 11
140.7052960877992
 21
181.3764530789202
 31
0.0
  0
LINE
  5
2D2
330
74
100
AcDbEntity
  8
A1-----1H2_______Schraffur_1_5
  6
Continuous
 62
     7
 48
1000.0
370
    13
100
AcDbLine
 10
130.6952959387877
 20
181.3764526418063
 30
0.0
 11
130.7052959387878
 21
181.3764526418063
 31
0.0
  0
LINE
  5
2D3
330
74
100
AcDbEntity
  8
A1-----1H2_______Schraffur_1_5
  6
Continuous
 62
     7
 48
1000.0
370
    13
100
AcDbLine
 10
150.8552962907748
 20
180.1964535054446
 30
0.0
 11
150.8652962907746
 21
180.1964535054446
 31
0.0
  0
LINE
  5
2D4
330
74
100
AcDbEntity
  8
A1-----1H2_______Schraffur_1_5
  6
Continuous
 62
     7
 48
1000.0
370
    13
100
AcDbLine
 10
140.8552961417628
 20
180.1964530683304
 30
0.0
 11
140.8652961417629
 21
180.1964530683304
 31
0.0
  0
LINE
  5
2D5
330
74
100
AcDbEntity
  8
A1-----1H2_______Schraffur_1_5
  6
Continuous
 62
     7
 48
1000.0
370
    13
100
AcDbLine
 10
130.8552959927514
 20
180.1964526312165
 30
0.0
 11
130.8652959927512
 21
180.1964526312165
 31
0.0
  0
LINE
  5
2D6
330
74
100
AcDbEntity
  8
A1-----1H2_______Schraffur_1_5
  6
Continuous
 62
     7
 48
1000.0
370
    13
100
AcDbLine
 10
149.6252962519016
 20
180.666453458683
 30
0.0
 11
149.6352962519017
 21
180.666453458683
 31
0.0
  0
LINE
  5
2D7
330
74
100
AcDbEntity
  8
A1-----1H2_______Schraffur_1_5
  6
Continuous
 62
     7
 48
1000.0
370
    13
100
AcDbLine
 10
139.6252961028901
 20
180.6664530215691
 30
0.0
 11
139.6352961028902
 21
180.6664530215691
 31
0.0
  0
LINE
  5
2D8
330
74
100
AcDbEntity
  8
A1-----1H2_______Schraffur_1_5
  6
Continuous
 62
     7
 48
1000.0
370
    13
100
AcDbLine
 10
129.6252959538786
 20
180.666452584455
 30
0.0
 11
129.6352959538785
 21
180.666452584455
 31
0.0
  0
LINE
  5
2D9
330
74
100
AcDbEntity
  8
A1-----1H2_______Schraffur_1_5
  6
Continuous
 62
     7
 48
1000.0
370
    13
100
AcDbLine
 10
140.1452960603708
 20
181.816453061435
 30
0.0
 11
140.1552960603707
 21
181.816453061435
 31
0.0
  0
LINE
  5
2DA
330
74
100
AcDbEntity
  8
A1-----1H2_______Schraffur_1_5
  6
Continuous
 62
     7
 48
1000.0
370
    13
100
AcDbLine
 10
130.1452959113591
 20
181.8164526243213
 30
0.0
 11
130.1552959113592
 21
181.8164526243213
 31
0.0
  0
LINE
  5
2DC
330
74
100
AcDbEntity
  8
A1E-----M5_______Rohbau
  6
STRICHLINIE_S4
 62
     7
 48
1000.0
370
    13
100
AcDbLine
 10
14.9999999999988
 20
165.190904897321
 30
0.0
 11
101.9827819258037
 21
165.190904897321
 31
0.0
  0
LINE
  5
2DD
330
74
100
AcDbEntity
  8
A1E-----M5_______Rohbau
  6
STRICHLINIE_S4
 62
     7
 48
1000.0
370
    25
100
AcDbLine
 10
124.0300055733175
 20
184.692944367691
 30
0.0
 11
146.5689148847689
 21
184.692944367691
 31
0.0
  0
LINE
  5
2DE
330
74
100
AcDbEntity
  8
A1E-----M5_______Rohbau
  6
Continuous
 62
     7
 48
1000.0
370
    25
100
AcDbLine
 10
149.2097724342381
 20
182.0546975002732
 30
0.0
 11
149.2097724342381
 21
182.8084823195362
 31
0.0
  0
LINE
  5
2DF
330
74
100
AcDbEntity
  8
A1E-----M5_______Rohbau
  6
Continuous
 62
     7
 48
1000.0
370
    25
100
AcDbLine
 10
149.2097724342381
 20
182.0546975002732
 30
0.0
 11
150.6258926395214
 21
180.6385772949888
 31
0.0
  0
LINE
  5
2E0
330
74
100
AcDbEntity
  8
A1E-----M5_______Rohbau
  6
Continuous
 62
     7
 48
1000.0
370
    25
100
AcDbLine
 10
101.9834746120931
 20
164.6909048973217
 30
0.0
 11
102.6834746120933
 21
164.6909048973217
 31
0.0
  0
LINE
  5
2E1
330
74
100
AcDbEntity
  8
A1E-----M5_______Rohbau
  6
Continuous
 62
     7
 48
1000.0
370
    25
100
AcDbLine
 10
14.9999999999988
 20
164.6909048973211
 30
0.0
 11
102.6834746120933
 21
164.6909048973211
 31
0.0
  0
LINE
  5
2E2
330
74
100
AcDbEntity
  8
A1E-----M5_______Rohbau
  6
Continuous
 62
     7
 48
1000.0
370
    25
100
AcDbLine
 10
102.6834746120933
 20
164.4909048973215
 30
0.0
 11
102.6834746120933
 21
164.6909048973217
 31
0.0
  0
LINE
  5
2E3
330
74
100
AcDbEntity
  8
A1E-----M5_______Rohbau
  6
Continuous
 62
     7
 48
1000.0
370
    25
100
AcDbLine
 10
102.3050171133473
 20
163.7578352576039
 30
0.0
 11
103.1018244154489
 21
163.7700650871143
 31
0.0
  0
LINE
  5
2E4
330
74
100
AcDbEntity
  8
A1E-----M5_______Rohbau
  6
Continuous
 62
     7
 48
1000.0
370
    25
100
AcDbLine
 10
103.0592105433816
 20
164.1151689660334
 30
0.0
 11
103.4834746120932
 21
164.1151689660334
 31
0.0
  0
LINE
  5
2E5
330
74
100
AcDbEntity
  8
A1E-----M5_______Rohbau
  6
Continuous
 62
     7
 48
1000.0
370
    25
100
AcDbLine
 10
103.4834746120932
 20
164.1151689660334
 30
0.0
 11
103.0592105433807
 21
164.1151689660327
 31
0.0
  0
LINE
  5
2E6
330
74
100
AcDbEntity
  8
A1E-----M5_______Rohbau
  6
Continuous
 62
     7
 48
1000.0
370
    25
100
AcDbLine
 10
103.1018244154489
 20
163.7700650871143
 30
0.0
 11
103.3399110726247
 21
163.8421355952955
 31
0.0
  0
LINE
  5
2E7
330
74
100
AcDbEntity
  8
A1E-----M5_______Rohbau
  6
Continuous
 62
     7
 48
1000.0
370
    25
100
AcDbLine
 10
102.6834746120933
 20
164.4909048973215
 30
0.0
 11
103.0592105433816
 21
164.1151689660334
 31
0.0
  0
LINE
  5
2E8
330
74
100
AcDbEntity
  8
A1------T2_______Text_1_5
  6
Continuous
 62
   252
 48
1000.0
370
    80
100
AcDbLine
 10
189.9999999999991
 20
231.5633238266024
 30
0.0
 11
14.9999999999988
 21
231.5633238266024
 31
0.0
  0
ARC
  5
2EA
330
74
100
AcDbEntity
  8
A1E-----M5_______Rohbau
  6
Continuous
 62
     7
 48
1000.0
370
    13
100
AcDbCircle
 10
103.5834746120927
 20
165.0409048973209
 30
0.0
 40
0.8500000000000879
100
AcDbArc
 50
61.92751306413999
 51
118.07248693586
  0
ARC
  5
2EB
330
74
100
AcDbEntity
  8
A1E-----M5_______Rohbau
  6
Continuous
 62
     7
 48
1000.0
370
    13
100
AcDbCircle
 10
103.5834746120929
 20
165.2651689660329
 30
0.0
 40
0.8500000000000043
100
AcDbArc
 50
241.9275130641506
 51
298.0724869358494
  0
ARC
  5
2EC
330
74
100
AcDbEntity
  8
A1E-----M5_______Rohbau
  6
Continuous
 62
     7
 48
1000.0
370
    13
100
AcDbCircle
 10
103.5834746120927
 20
165.0409048973209
 30
0.0
 40
0.6500000000001489
100
AcDbArc
 50
72.07978686062224
 51
107.9202131393778
  0
ARC
  5
2ED
330
74
100
AcDbEntity
  8
A1E-----M5_______Rohbau
  6
Continuous
 62
     7
 48
1000.0
370
    13
100
AcDbCircle
 10
103.5834746120934
 20
165.2651689660329
 30
0.0
 40
0.6500000000000347
100
AcDbArc
 50
252.079786860553
 51
287.920213139348
  0
ARC
  5
2EE
330
74
100
AcDbEntity
  8
A1E-----M5_______Rohbau
  6
Continuous
 62
     7
 48
1000.0
370
    13
100
AcDbCircle
 10
101.2860085229956
 20
165.236151148638
 30
0.0
 40
0.1999999999999681
100
AcDbArc
 50
193.0752910390345
 51
346.9247089609655
  0
CIRCLE
  5
2EF
330
74
100
AcDbEntity
  8
A1E-----M5_______Rohbau
  6
Continuous
 62
   252
 48
1000.0
370
    80
100
AcDbCircle
 10
102.8732607972953
 20
164.8621140784252
 30
0.0
 40
6.430897169212458
  0
ARC
  5
2F0
330
74
100
AcDbEntity
  8
A1E-----M5_______Rohbau
  6
Continuous
 62
     7
 48
1000.0
370
    13
100
AcDbCircle
 10
152.6018041209196
 20
184.1276057532437
 30
0.0
 40
3.203585481868074
100
AcDbArc
 50
61.92751306413938
 51
118.0724869358322
  0
ARC
  5
2F1
330
74
100
AcDbEntity
  8
A1E-----M5_______Rohbau
  6
Continuous
 62
     7
 48
1000.0
370
    13
100
AcDbCircle
 10
152.6018041209203
 20
184.9728400057495
 30
0.0
 40
3.203585481868011
100
AcDbArc
 50
241.9275130641421
 51
298.0724869358578
  0
ARC
  5
2F2
330
74
100
AcDbEntity
  8
A1E-----M5_______Rohbau
  6
Continuous
 62
     7
 48
1000.0
370
    13
100
AcDbCircle
 10
152.6018041209196
 20
184.1276057532437
 30
0.0
 40
2.449800662605151
100
AcDbArc
 50
72.07978686059751
 51
107.9202131393762
  0
ARC
  5
2F3
330
74
100
AcDbEntity
  8
A1E-----M5_______Rohbau
  6
Continuous
 62
     7
 48
1000.0
370
    13
100
AcDbCircle
 10
152.6018041209207
 20
184.9728400057495
 30
0.0
 40
2.449800662604949
100
AcDbArc
 50
252.0797868605831
 51
287.9202131393866
  0
ARC
  5
2F4
330
74
100
AcDbEntity
  8
A1E-----M5_______Rohbau
  6
Continuous
 62
     7
 48
1000.0
370
    13
100
AcDbCircle
 10
143.9428288172537
 20
184.8634740545476
 30
0.0
 40
0.7537848192631954
100
AcDbArc
 50
193.0752910389905
 51
346.9247089610094
  0
CIRCLE
  5
2F5
330
74
100
AcDbEntity
  8
A1E-----M5_______Rohbau
  6
Continuous
 62
   252
 48
1000.0
370
    80
100
AcDbCircle
 10
148.2675414101562
 20
184.7294323791957
 30
0.0
 40
24.23756330197051
  0
MTEXT
  5
2F7
102
{ACAD_XDICTIONARY
360
31C
102
}
330
74
100
AcDbEntity
  8
A1------T2_______Text_1_5
  6
Continuous
 62
     7
370
    25
100
AcDbMText
 10
121.7799923217237
 20
212.3162533461854
 30
0.0
 40
2.2
 41
0.0
 71
     7
 72
     1
  1
{\A1;37}
  7
ERSTELLTER_STIL_1
 73
     1
 44
1.0
  0
MTEXT
  5
2F8
102
{ACAD_XDICTIONARY
360
31E
102
}
330
74
100
AcDbEntity
  8
A1------T2_______Text_1_5
  6
Continuous
 62
     7
370
    25
100
AcDbMText
 10
131.5632955433588
 20
211.7549587033282
 30
0.0
 40
2.2
 41
0.0
 71
     7
 72
     1
  1
{\A1;RÖFIX Anputzdichtleiste 3D}
  7
ERSTELLTER_STIL_1
 73
     1
 44
1.0
  0
LINE
  5
2F9
330
74
100
AcDbEntity
  8
A1------T2_______Text_1_5
  6
Continuous
 62
   255
 48
1000.0
370
     5
100
AcDbLine
 10
14.9999999999988
 20
246.0542640084742
 30
0.0
 11
121.7916666666656
 21
246.0542640084742
 31
0.0
  0
LINE
  5
2FA
330
74
100
AcDbEntity
  8
A1------T2_______Text_1_5
  6
Continuous
 62
   255
 48
1000.0
370
     5
100
AcDbLine
 10
121.7916666666656
 20
246.0542640084742
 30
0.0
 11
121.7916666666656
 21
251.5835677223854
 31
0.0
  0
LINE
  5
2FB
330
74
100
AcDbEntity
  8
A1------T2_______Text_1_5
  6
Continuous
 62
   255
 48
1000.0
370
     5
100
AcDbLine
 10
121.7916666666656
 20
251.5835677223854
 30
0.0
 11
14.9999999999988
 21
251.5835677223854
 31
0.0
  0
LINE
  5
2FC
330
74
100
AcDbEntity
  8
A1------T2_______Text_1_5
  6
Continuous
 62
   255
 48
1000.0
370
     5
100
AcDbLine
 10
14.9999999999988
 20
251.5835677223854
 30
0.0
 11
14.9999999999988
 21
246.0542640084742
 31
0.0
  0
MTEXT
  5
2FD
102
{ACAD_XDICTIONARY
360
320
102
}
330
74
100
AcDbEntity
  8
A1------T2_______Text_1_5
  6
Continuous
 62
     7
370
    25
100
AcDbMText
 10
14.99999999999879
 20
248.7925636006149
 30
0.0
 40
3.999897337962965
 41
0.0
 71
     4
 72
     1
  1
{\A1;\W0.93383x;J. Anschl}{\A1;\fArial|b0|i0|c0|p0;\W0.93383x;ü}{\A1;\W0.93383x;sse}
 73
     1
 44
1.0
  0
LINE
  5
2FE
330
74
100
AcDbEntity
  8
A1------T2_______Text_1_5
  6
Continuous
 62
   255
 48
1000.0
370
     5
100
AcDbLine
 10
14.9999999999988
 20
235.2013901397232
 30
0.0
 11
192.7597883780614
 21
235.2013901397232
 31
0.0
  0
LINE
  5
2FF
330
74
100
AcDbEntity
  8
A1------T2_______Text_1_5
  6
Continuous
 62
   255
 48
1000.0
370
     5
100
AcDbLine
 10
192.7597883780614
 20
235.2013901397232
 30
0.0
 11
192.7597883780614
 21
239.2603858431341
 31
0.0
  0
LINE
  5
300
330
74
100
AcDbEntity
  8
A1------T2_______Text_1_5
  6
Continuous
 62
   255
 48
1000.0
370
     5
100
AcDbLine
 10
192.7597883780614
 20
239.2603858431341
 30
0.0
 11
14.9999999999988
 21
239.2603858431341
 31
0.0
  0
LINE
  5
301
330
74
100
AcDbEntity
  8
A1------T2_______Text_1_5
  6
Continuous
 62
   255
 48
1000.0
370
     5
100
AcDbLine
 10
14.9999999999988
 20
239.2603858431341
 30
0.0
 11
14.9999999999988
 21
235.2013901397232
 31
0.0
  0
MTEXT
  5
302
102
{ACAD_XDICTIONARY
360
322
102
}
330
74
100
AcDbEntity
  8
A1------T2_______Text_1_5
  6
Continuous
 62
     7
370
    25
100
AcDbMText
 10
14.99999999999879
 20
236.8384029580953
 30
0.0
 40
2.999999999999997
 41
0.0
 71
     4
 72
     1
  1
{\A1;\W0.93383x;J.3^I }{\A1;\H1.00004x;\W0.93383x;Anschluss mit Anputzdichtleiste 3D}
 73
     1
 44
1.0
  0
LINE
  5
303
330
74
100
AcDbEntity
  8
A1------T2_______Text_1_5
  6
Continuous
 62
   255
 48
1000.0
370
     5
100
AcDbLine
 10
14.9999999999988
 20
224.5680761900277
 30
0.0
 11
105.887033423292
 21
224.5680761900277
 31
0.0
  0
LINE
  5
304
330
74
100
AcDbEntity
  8
A1------T2_______Text_1_5
  6
Continuous
 62
   255
 48
1000.0
370
     5
100
AcDbLine
 10
105.887033423292
 20
224.5680761900277
 30
0.0
 11
105.887033423292
 21
228.0240998082963
 31
0.0
  0
LINE
  5
305
330
74
100
AcDbEntity
  8
A1------T2_______Text_1_5
  6
Continuous
 62
   255
 48
1000.0
370
     5
100
AcDbLine
 10
105.887033423292
 20
228.0240998082963
 30
0.0
 11
14.9999999999988
 21
228.0240998082963
 31
0.0
  0
LINE
  5
306
330
74
100
AcDbEntity
  8
A1------T2_______Text_1_5
  6
Continuous
 62
   255
 48
1000.0
370
     5
100
AcDbLine
 10
14.9999999999988
 20
228.0240998082963
 30
0.0
 11
14.9999999999988
 21
224.5680761900277
 31
0.0
  0
MTEXT
  5
307
102
{ACAD_XDICTIONARY
360
324
102
}
330
74
100
AcDbEntity
  8
A1------T2_______Text_1_5
  6
Continuous
 62
     7
370
    25
100
AcDbMText
 10
14.99999999999879
 20
226.2796168047176
 30
0.0
 40
2.50009201388889
 41
0.0
 71
     4
 72
     1
  1
{\A1;\W0.93383x;Datum 08.07.2019}
 73
     1
 44
1.0
  0
ENDBLK
  5
76
330
74
100
AcDbEntity
  8
0
100
AcDbBlockEnd
  0
BLOCK
  5
30D
330
30C
100
AcDbEntity
  8
0
100
AcDbBlockBegin
  2
02.8 40. Detail J.3_STORY_MARKER
 70
     0
 10
0.0
 20
0.0
 30
0.0
  3
02.8 40. Detail J.3_STORY_MARKER
  1

  0
ENDBLK
  5
30E
330
30C
100
AcDbEntity
  8
0
100
AcDbBlockEnd
  0
ENDSEC
  0
SECTION
  2
ENTITIES
  0
VIEWPORT
  5
6E
102
{ACAD_XDICTIONARY
360
31A
102
}
330
1B
100
AcDbEntity
 67
     1
  8
0
  6
Continuous
370
     0
100
AcDbViewport
 10
105.0
 20
148.5
 30
0.0
 40
0.252
 41
0.3564
 68
     1
 69
     1
 12
105.0
 22
148.5
 13
0.0
 23
0.0
 14
0.5
 24
0.5
 15
0.0
 25
0.0
 16
0.0
 26
0.0
 36
1.0
 17
0.0
 27
0.0
 37
0.0
 42
50.0
 43
0.0
 44
0.0
 45
0.3564
 50
0.0
 51
0.0
 72
   100
 90
   557152
  1

281
     0
 71
     1
 74
     0
110
0.0
120
0.0
130
0.0
111
1.0
121
0.0
131
0.0
112
0.0
122
1.0
132
0.0
 79
     0
146
0.0
  0
LINE
  5
6F
330
1B
100
AcDbEntity
 67
     1
  8
FORMAT
  6
Continuous
 62
     7
 48
1000.0
370
    13
100
AcDbLine
 10
15.0
 20
215.0
 30
0.0
 11
190.0
 21
215.0
 31
0.0
  0
LINE
  5
71
330
1B
100
AcDbEntity
 67
     1
  8
FORMAT
  6
Continuous
 62
     7
 48
1000.0
370
    13
100
AcDbLine
 10
190.0
 20
215.0
 30
0.0
 11
190.0
 21
25.0
 31
0.0
  0
LINE
  5
72
330
1B
100
AcDbEntity
 67
     1
  8
FORMAT
  6
Continuous
 62
     7
 48
1000.0
370
    13
100
AcDbLine
 10
190.0
 20
25.0
 30
0.0
 11
15.0
 21
25.0
 31
0.0
  0
LINE
  5
73
330
1B
100
AcDbEntity
 67
     1
  8
FORMAT
  6
Continuous
 62
     7
 48
1000.0
370
    13
100
AcDbLine
 10
15.0
 20
25.0
 30
0.0
 11
15.0
 21
215.0
 31
0.0
  0
INSERT
  5
308
102
{ACAD_XDICTIONARY
360
309
102
}
330
1B
100
AcDbEntity
 67
     1
  8
0
  6
Continuous
 62
     1
 48
1000.0
370
    35
100
AcDbBlockReference
  2
Zeichnung_1_1
 10
1688.024586529066
 20
1652.125871091721
 30
0.0
  0
ENDSEC
  0
SECTION
  2
OBJECTS
  0
DICTIONARY
  5
C
330
0
100
AcDbDictionary
281
     1
  3
ACAD_GROUP
350
D
  3
ACAD_LAYOUT
350
1A
  3
ACAD_MATERIAL
350
43
  3
ACAD_MLEADERSTYLE
350
6B
  3
ACAD_MLINESTYLE
350
17
  3
ACAD_PLOTSETTINGS
350
19
  3
ACAD_PLOTSTYLENAME
350
E
  3
ACAD_SCALELIST
350
47
  3
ACAD_TABLESTYLE
350
69
  3
ACAD_VISUALSTYLE
350
2A
  3
AcDbVariableDictionary
350
312
  3
ACDB_RECOMPOSE_DATA
350
363
  3
WATERMARKS
350
310
  0
DICTIONARY
  5
326
330
8
100
AcDbDictionary
280
     1
281
     1
  3
ACAD_XREC_ROUNDTRIP
360
327
  0
DICTIONARY
  5
31C
330
2F7
100
AcDbDictionary
280
     1
281
     1
  3
ACAD_MTEXT_RT
360
31D
  0
DICTIONARY
  5
31E
330
2F8
100
AcDbDictionary
280
     1
281
     1
  3
ACAD_MTEXT_RT
360
31F
  0
DICTIONARY
  5
320
330
2FD
100
AcDbDictionary
280
     1
281
     1
  3
ACAD_MTEXT_RT
360
321
  0
DICTIONARY
  5
322
330
302
100
AcDbDictionary
280
     1
281
     1
  3
ACAD_MTEXT_RT
360
323
  0
DICTIONARY
  5
324
330
307
100
AcDbDictionary
280
     1
281
     1
  3
ACAD_MTEXT_RT
360
325
  0
DICTIONARY
  5
31A
330
6E
100
AcDbDictionary
280
     1
281
     1
  3
ACAD_XREC_ROUNDTRIP
360
31B
  0
DICTIONARY
  5
309
330
308
100
AcDbDictionary
280
     1
281
     1
  3
ACAD_FILTER
360
30A
  0
DICTIONARY
  5
D
102
{ACAD_REACTORS
330
C
102
}
330
C
100
AcDbDictionary
281
     1
  0
DICTIONARY
  5
1A
102
{ACAD_REACTORS
330
C
102
}
330
C
100
AcDbDictionary
281
     1
  3
02.8 40. Detail J.3
350
1E
  3
Model
350
22
  0
DICTIONARY
  5
43
102
{ACAD_REACTORS
330
C
102
}
330
C
100
AcDbDictionary
281
     1
  3
ByBlock
350
45
  3
ByLayer
350
44
  3
Global
350
46
  0
DICTIONARY
  5
6B
102
{ACAD_REACTORS
330
C
102
}
330
C
100
AcDbDictionary
281
     1
  3
Standard
350
6C
  0
DICTIONARY
  5
17
102
{ACAD_REACTORS
330
C
102
}
330
C
100
AcDbDictionary
281
     1
  3
Standard
350
18
  0
DICTIONARY
  5
19
102
{ACAD_REACTORS
330
C
102
}
330
C
100
AcDbDictionary
281
     1
  0
ACDBDICTIONARYWDFLT
  5
E
102
{ACAD_REACTORS
330
C
102
}
330
C
100
AcDbDictionary
281
     1
  3
Normal
350
F
100
AcDbDictionaryWithDefault
340
F
  0
DICTIONARY
  5
47
102
{ACAD_REACTORS
330
C
102
}
330
C
100
AcDbDictionary
281
     1
  3
A0
350
48
  3
A1
350
49
  3
A2
350
4A
  3
A3
350
4B
  3
A4
350
4C
  3
A5
350
4D
  3
A6
350
4E
  3
A7
350
4F
  3
A8
350
50
  3
A9
350
51
  3
B0
350
52
  3
B1
350
53
  3
B2
350
54
  3
B3
350
55
  3
B4
350
56
  3
B5
350
57
  3
B6
350
58
  3
B7
350
59
  3
B8
350
5A
  3
B9
350
5B
  3
C0
350
5C
  3
C1
350
5D
  3
C2
350
5E
  3
C3
350
5F
  3
C4
350
60
  3
C5
350
61
  3
C6
350
62
  3
C7
350
63
  3
C8
350
64
  3
C9
350
65
  3
D0
350
66
  3
D1
350
67
  3
D2
350
68
  0
DICTIONARY
  5
69
102
{ACAD_REACTORS
330
C
102
}
330
C
100
AcDbDictionary
281
     1
  3
Standard
350
6A
  0
DICTIONARY
  5
2A
102
{ACAD_REACTORS
330
C
102
}
330
C
100
AcDbDictionary
281
     1
  3
2dWireframe
350
2F
  3
Basic
350
32
  3
Brighten
350
36
  3
ColorChange
350
3A
  3
Conceptual
350
34
  3
Dim
350
35
  3
EdgeColorOff
350
3D
  3
Facepattern
350
39
  3
Flat
350
2B
  3
FlatWithEdges
350
2C
  3
Gouraud
350
2D
  3
GouraudWithEdges
350
2E
  3
Hidden
350
31
  3
JitterOff
350
3B
  3
Linepattern
350
38
  3
OverhangOff
350
3C
  3
Realistic
350
33
  3
Shaded
350
42
  3
Shaded with edges
350
41
  3
Shades of Gray
350
3E
  3
Sketchy
350
3F
  3
Thicken
350
37
  3
Wireframe
350
30
  3
X-Ray
350
40
  0
DICTIONARY
  5
312
102
{ACAD_REACTORS
330
C
102
}
330
C
100
AcDbDictionary
281
     1
  3
CANNOSCALE
350
328
  3
CMLEADERSTYLE
350
314
  3
CTABLESTYLE
350
313
  3
DIMASSOC
350
318
  3
HIDETEXT
350
319
  3
MSLTSCALE
350
329
  3
XCLIPFRAME
350
315
  0
XRECORD
  5
363
102
{ACAD_REACTORS
330
C
102
}
330
C
100
AcDbXrecord
280
     1
 90
        1
330
307
330
2FD
330
302
330
2F7
330
2F8
  0
DICTIONARY
  5
310
102
{ACAD_REACTORS
330
C
102
}
330
C
100
AcDbDictionary
281
     1
  3
AC_WATERMARK
350
311
  0
XRECORD
  5
327
102
{ACAD_REACTORS
330
326
102
}
330
326
100
AcDbXrecord
280
     1
102
VTR_0.000_0.000_1.000_1.000_VISUALSTYLE
340
2F
102
VTR_0.000_0.000_1.000_1.000_GRIDDISPLAY
 70
     3
102
VTR_0.000_0.000_1.000_1.000_GRIDMAJOR
 70
     5
102
VTR_0.000_0.000_1.000_1.000_DEFAULTLIGHTING
280
     1
102
VTR_0.000_0.000_1.000_1.000_DEFAULTLIGHTINGTYPE
 70
     1
102
VTR_0.000_0.000_1.000_1.000_BRIGHTNESS
141
0.0
102
VTR_0.000_0.000_1.000_1.000_CONTRAST
142
0.0
  0
XRECORD
  5
31D
102
{ACAD_REACTORS
330
31C
102
}
330
31C
100
AcDbXrecord
280
     1
 40
2684.0
  1
\A1;{\pql;\fArial|b0|i0|c0|p34;37}
  0
XRECORD
  5
31F
102
{ACAD_REACTORS
330
31E
102
}
330
31E
100
AcDbXrecord
280
     1
 40
48663.0
  1
\A1;{\pql;\fArial|b0|i0|c0|p34;RÖFIX Anputzdichtleiste 3D}
  0
XRECORD
  5
321
102
{ACAD_REACTORS
330
320
102
}
330
320
100
AcDbXrecord
280
     1
 40
281257.0
  1
\A1;{\W0.933831x;\pql;\Ftxt.shx;J. \Ftxt.shx;Anschlüsse}
  0
XRECORD
  5
323
102
{ACAD_REACTORS
330
322
102
}
330
322
100
AcDbXrecord
280
     1
 40
308255.0
  1
\A1;{\W0.933831x;\pql;\Ftxt.shx;J.3^I \Ftxt.shx;\H1.000037x;Anschluss mit Anputzdichtleiste 3D}
  0
XRECORD
  5
325
102
{ACAD_REACTORS
330
324
102
}
330
324
100
AcDbXrecord
280
     1
 40
37297.0
  1
\A1;{\W0.933831x;\pql;\Ftxt.shx;Datum 08.07.2019}
  0
XRECORD
  5
31B
102
{ACAD_REACTORS
330
31A
102
}
330
31A
100
AcDbXrecord
280
     1
102
VISUALSTYLE
340
2F
102
GRIDDISPLAY
 70
     2
102
GRIDMAJOR
 70
     5
102
DEFAULTLIGHTING
280
     1
102
DEFAULTLIGHTINGTYPE
 70
     1
102
BRIGHTNESS
141
0.0
102
CONTRAST
142
0.0
  0
DICTIONARY
  5
30A
102
{ACAD_REACTORS
330
309
102
}
330
309
100
AcDbDictionary
280
     1
281
     1
  3
SPATIAL
360
30B
  0
LAYOUT
  5
1E
102
{ACAD_REACTORS
330
1A
102
}
330
1A
100
AcDbPlotSettings
  1

  2
none_device
  4

  6

 40
0.0
 41
0.0
 42
0.0
 43
0.0
 44
210.0
 45
297.0
 46
0.0
 47
0.0
 48
0.0
 49
0.0
140
0.0
141
0.0
142
1.0
143
1.0
 70
   688
 72
     1
 73
     0
 74
     5
  7

 75
    16
147
1.0
148
0.0
149
0.0
100
AcDbLayout
  1
02.8 40. Detail J.3
 70
     0
 71
     1
 10
0.0
 20
0.0
 11
12.0
 21
9.0
 12
0.0
 22
0.0
 32
0.0
 14
1.000000000000000E+20
 24
1.000000000000000E+20
 34
1.000000000000000E+20
 15
-1.000000000000000E+20
 25
-1.000000000000000E+20
 35
-1.000000000000000E+20
146
0.0
 13
0.0
 23
0.0
 33
0.0
 16
1.0
 26
0.0
 36
0.0
 17
0.0
 27
1.0
 37
0.0
 76
     0
330
1B
331
6E
  0
LAYOUT
  5
22
102
{ACAD_REACTORS
330
1A
102
}
330
1A
100
AcDbPlotSettings
  1

  2
none_device
  4
Letter_(8.50_x_11.00_Inches)
  6

 40
6.35
 41
6.35
 42
6.35000508
 43
6.35000508
 44
215.9
 45
279.4
 46
0.0
 47
0.0
 48
0.0
 49
0.0
140
0.0
141
0.0
142
1.0
143
1.0
 70
  1712
 72
     0
 73
     0
 74
     0
  7

 75
     0
147
1.0
148
0.0
149
0.0
100
AcDbLayout
  1
Model
 70
     1
 71
     0
 10
0.0
 20
0.0
 11
12.0
 21
9.0
 12
0.0
 22
0.0
 32
0.0
 14
1.000000000000000E+20
 24
1.000000000000000E+20
 34
1.000000000000000E+20
 15
-1.000000000000000E+20
 25
-1.000000000000000E+20
 35
-1.000000000000000E+20
146
0.0
 13
0.0
 23
0.0
 33
0.0
 16
1.0
 26
0.0
 36
0.0
 17
0.0
 27
1.0
 37
0.0
 76
     0
330
1F
331
29
  0
MATERIAL
  5
45
102
{ACAD_REACTORS
330
43
102
}
102
{ACAD_XDICTIONARY
360
35C
102
}
330
43
100
AcDbMaterial
  1
ByBlock
  0
MATERIAL
  5
44
102
{ACAD_REACTORS
330
43
102
}
102
{ACAD_XDICTIONARY
360
35A
102
}
330
43
100
AcDbMaterial
  1
ByLayer
  0
MATERIAL
  5
46
102
{ACAD_REACTORS
330
43
102
}
102
{ACAD_XDICTIONARY
360
35E
102
}
330
43
100
AcDbMaterial
  1
Global
  0
MLEADERSTYLE
  5
6C
102
{ACAD_REACTORS
330
6B
102
}
102
{ACAD_XDICTIONARY
360
361
102
}
330
6B
100
AcDbMLeaderStyle
170
     2
171
     1
172
     0
 90
        2
 40
0.0
 41
0.0
173
     1
 91
-1056964608
340
14
 92
       -2
290
     1
 42
0.09
291
     1
 43
0.36
  3
Standard
341
0
 44
0.18
300

342
11
174
     1
178
     6
175
     1
176
     0
 93
-1056964608
 45
0.18
292
     0
297
     0
 46
0.18
343
0
 94
-1056964608
 47
1.0
 49
1.0
140
1.0
293
     1
141
0.0
294
     1
177
     0
142
1.0
295
     0
296
     0
143
0.125
1001
ACAD_MLEADERVER
1070
     2
  0
MLINESTYLE
  5
18
102
{ACAD_REACTORS
330
17
102
}
330
17
100
AcDbMlineStyle
  2
Standard
 70
     0
  3

 62
   256
 51
90.0
 52
90.0
 71
     2
 49
0.5
 62
   256
  6
BYLAYER
 49
-0.5
 62
   256
  6
BYLAYER
  0
ACDBPLACEHOLDER
  5
F
102
{ACAD_REACTORS
330
E
102
}
330
E
  0
SCALE
  5
48
102
{ACAD_REACTORS
330
47
102
}
330
47
100
AcDbScale
 70
     0
300
1:1
140
1.0
141
1.0
290
     1
  0
SCALE
  5
49
102
{ACAD_REACTORS
330
47
102
}
330
47
100
AcDbScale
 70
     0
300
1:2
140
1.0
141
2.0
290
     0
  0
SCALE
  5
4A
102
{ACAD_REACTORS
330
47
102
}
330
47
100
AcDbScale
 70
     0
300
1:4
140
1.0
141
4.0
290
     0
  0
SCALE
  5
4B
102
{ACAD_REACTORS
330
47
102
}
330
47
100
AcDbScale
 70
     0
300
1:5
140
1.0
141
5.0
290
     0
  0
SCALE
  5
4C
102
{ACAD_REACTORS
330
47
102
}
330
47
100
AcDbScale
 70
     0
300
1:8
140
1.0
141
8.0
290
     0
  0
SCALE
  5
4D
102
{ACAD_REACTORS
330
47
102
}
330
47
100
AcDbScale
 70
     0
300
1:10
140
1.0
141
10.0
290
     0
  0
SCALE
  5
4E
102
{ACAD_REACTORS
330
47
102
}
330
47
100
AcDbScale
 70
     0
300
1:16
140
1.0
141
16.0
290
     0
  0
SCALE
  5
4F
102
{ACAD_REACTORS
330
47
102
}
330
47
100
AcDbScale
 70
     0
300
1:20
140
1.0
141
20.0
290
     0
  0
SCALE
  5
50
102
{ACAD_REACTORS
330
47
102
}
330
47
100
AcDbScale
 70
     0
300
1:30
140
1.0
141
30.0
290
     0
  0
SCALE
  5
51
102
{ACAD_REACTORS
330
47
102
}
330
47
100
AcDbScale
 70
     0
300
1:40
140
1.0
141
40.0
290
     0
  0
SCALE
  5
52
102
{ACAD_REACTORS
330
47
102
}
330
47
100
AcDbScale
 70
     0
300
1:50
140
1.0
141
50.0
290
     0
  0
SCALE
  5
53
102
{ACAD_REACTORS
330
47
102
}
330
47
100
AcDbScale
 70
     0
300
1:100
140
1.0
141
100.0
290
     0
  0
SCALE
  5
54
102
{ACAD_REACTORS
330
47
102
}
330
47
100
AcDbScale
 70
     0
300
2:1
140
2.0
141
1.0
290
     0
  0
SCALE
  5
55
102
{ACAD_REACTORS
330
47
102
}
330
47
100
AcDbScale
 70
     0
300
4:1
140
4.0
141
1.0
290
     0
  0
SCALE
  5
56
102
{ACAD_REACTORS
330
47
102
}
330
47
100
AcDbScale
 70
     0
300
8:1
140
8.0
141
1.0
290
     0
  0
SCALE
  5
57
102
{ACAD_REACTORS
330
47
102
}
330
47
100
AcDbScale
 70
     0
300
10:1
140
10.0
141
1.0
290
     0
  0
SCALE
  5
58
102
{ACAD_REACTORS
330
47
102
}
330
47
100
AcDbScale
 70
     0
300
100:1
140
100.0
141
1.0
290
     0
  0
SCALE
  5
59
102
{ACAD_REACTORS
330
47
102
}
330
47
100
AcDbScale
 70
     0
300
1/128" = 1'-0"
140
0.0078125
141
12.0
290
     0
  0
SCALE
  5
5A
102
{ACAD_REACTORS
330
47
102
}
330
47
100
AcDbScale
 70
     0
300
1/64" = 1'-0"
140
0.015625
141
12.0
290
     0
  0
SCALE
  5
5B
102
{ACAD_REACTORS
330
47
102
}
330
47
100
AcDbScale
 70
     0
300
1/32" = 1'-0"
140
0.03125
141
12.0
290
     0
  0
SCALE
  5
5C
102
{ACAD_REACTORS
330
47
102
}
330
47
100
AcDbScale
 70
     0
300
1/16" = 1'-0"
140
0.0625
141
12.0
290
     0
  0
SCALE
  5
5D
102
{ACAD_REACTORS
330
47
102
}
330
47
100
AcDbScale
 70
     0
300
3/32" = 1'-0"
140
0.09375
141
12.0
290
     0
  0
SCALE
  5
5E
102
{ACAD_REACTORS
330
47
102
}
330
47
100
AcDbScale
 70
     0
300
1/8" = 1'-0"
140
0.125
141
12.0
290
     0
  0
SCALE
  5
5F
102
{ACAD_REACTORS
330
47
102
}
330
47
100
AcDbScale
 70
     0
300
3/16" = 1'-0"
140
0.1875
141
12.0
290
     0
  0
SCALE
  5
60
102
{ACAD_REACTORS
330
47
102
}
330
47
100
AcDbScale
 70
     0
300
1/4" = 1'-0"
140
0.25
141
12.0
290
     0
  0
SCALE
  5
61
102
{ACAD_REACTORS
330
47
102
}
330
47
100
AcDbScale
 70
     0
300
3/8" = 1'-0"
140
0.375
141
12.0
290
     0
  0
SCALE
  5
62
102
{ACAD_REACTORS
330
47
102
}
330
47
100
AcDbScale
 70
     0
300
1/2" = 1'-0"
140
0.5
141
12.0
290
     0
  0
SCALE
  5
63
102
{ACAD_REACTORS
330
47
102
}
330
47
100
AcDbScale
 70
     0
300
3/4" = 1'-0"
140
0.75
141
12.0
290
     0
  0
SCALE
  5
64
102
{ACAD_REACTORS
330
47
102
}
330
47
100
AcDbScale
 70
     0
300
1" = 1'-0"
140
1.0
141
12.0
290
     0
  0
SCALE
  5
65
102
{ACAD_REACTORS
330
47
102
}
330
47
100
AcDbScale
 70
     0
300
1-1/2" = 1'-0"
140
1.5
141
12.0
290
     0
  0
SCALE
  5
66
102
{ACAD_REACTORS
330
47
102
}
330
47
100
AcDbScale
 70
     0
300
3" = 1'-0"
140
3.0
141
12.0
290
     0
  0
SCALE
  5
67
102
{ACAD_REACTORS
330
47
102
}
330
47
100
AcDbScale
 70
     0
300
6" = 1'-0"
140
6.0
141
12.0
290
     0
  0
SCALE
  5
68
102
{ACAD_REACTORS
330
47
102
}
330
47
100
AcDbScale
 70
     0
300
1'-0" = 1'-0"
140
12.0
141
12.0
290
     0
  0
TABLESTYLE
  5
6A
102
{ACAD_REACTORS
330
69
102
}
330
69
100
AcDbTableStyle
  3
Standard
 70
     0
 71
     0
 40
0.06
 41
0.06
280
     0
281
     0
  7
Standard
140
0.18
170
     2
 62
     0
 63
   257
283
     0
274
    -2
284
     1
 64
     0
275
    -2
285
     1
 65
     0
276
    -2
286
     1
 66
     0
277
    -2
287
     1
 67
     0
278
    -2
288
     1
 68
     0
279
    -2
289
     1
 69
     0
  7
Standard
140
0.25
170
     5
 62
     0
 63
   257
283
     0
274
    -2
284
     1
 64
     0
275
    -2
285
     1
 65
     0
276
    -2
286
     1
 66
     0
277
    -2
287
     1
 67
     0
278
    -2
288
     1
 68
     0
279
    -2
289
     1
 69
     0
  7
Standard
140
0.18
170
     5
 62
     0
 63
   257
283
     0
274
    -2
284
     1
 64
     0
275
    -2
285
     1
 65
     0
276
    -2
286
     1
 66
     0
277
    -2
287
     1
 67
     0
278
    -2
288
     1
 68
     0
279
    -2
289
     1
 69
     0
  0
VISUALSTYLE
  5
2F
102
{ACAD_REACTORS
330
2A
102
}
102
{ACAD_XDICTIONARY
360
332
102
}
330
2A
100
AcDbVisualStyle
  2
2dWireframe
 70
     4
 71
     0
 72
     2
 73
     0
 90
        0
 40
0.6
 41
30.0
 62
     5
 63
     7
 74
     1
 91
        4
 64
     7
 65
   257
 75
     1
175
     1
 42
1.0
 92
        0
 66
   257
 43
1.0
 76
     1
 77
     6
 78
     2
 67
     7
 79
     5
170
     0
171
     0
290
     0
174
     0
 93
        1
 44
0.0
173
     0
291
     0
 45
0.0
1001
ACAD
1000
AcDbSavedByObjectVersion
1070
     0
  0
VISUALSTYLE
  5
32
102
{ACAD_REACTORS
330
2A
102
}
102
{ACAD_XDICTIONARY
360
338
102
}
330
2A
100
AcDbVisualStyle
  2
Basic
 70
     7
 71
     1
 72
     0
 73
     1
 90
        0
 40
0.6
 41
30.0
 62
     5
 63
     7
 74
     0
 91
        4
 64
     7
 65
   257
 75
     1
175
     1
 42
1.0
 92
        8
 66
     7
 43
1.0
 76
     1
 77
     6
 78
     2
 67
     7
 79
     5
170
     0
171
     0
290
     0
174
     0
 93
        1
 44
0.0
173
     0
291
     1
 45
0.0
1001
ACAD
1000
AcDbSavedByObjectVersion
1070
     0
  0
VISUALSTYLE
  5
36
102
{ACAD_REACTORS
330
2A
102
}
102
{ACAD_XDICTIONARY
360
340
102
}
330
2A
100
AcDbVisualStyle
  2
Brighten
 70
    12
 71
     2
 72
     2
 73
     0
 90
        0
 40
0.6
 41
30.0
 62
     5
 63
     7
 74
     1
 91
        4
 64
     7
 65
   257
 75
     1
175
     1
 42
1.0
 92
        8
 66
     7
 43
1.0
 76
     1
 77
     6
 78
     2
 67
     7
 79
     5
170
     0
171
     0
290
     0
174
     0
 93
        1
 44
50.0
173
     0
291
     1
 45
0.0
1001
ACAD
1000
AcDbSavedByObjectVersion
1070
     0
  0
VISUALSTYLE
  5
3A
102
{ACAD_REACTORS
330
2A
102
}
102
{ACAD_XDICTIONARY
360
348
102
}
330
2A
100
AcDbVisualStyle
  2
ColorChange
 70
    16
 71
     2
 72
     2
 73
     3
 90
        0
 40
0.6
 41
30.0
 62
     5
 63
     8
 74
     1
 91
        4
 64
     7
 65
   257
 75
     1
175
     1
 42
1.0
 92
        8
 66
     8
 43
1.0
 76
     1
 77
     6
 78
     2
 67
     7
 79
     5
170
     0
171
     0
290
     0
174
     0
 93
        1
 44
0.0
173
     0
291
     1
 45
0.0
1001
ACAD
1000
AcDbSavedByObjectVersion
1070
     0
  0
VISUALSTYLE
  5
34
102
{ACAD_REACTORS
330
2A
102
}
102
{ACAD_XDICTIONARY
360
33C
102
}
330
2A
100
AcDbVisualStyle
  2
Conceptual
 70
     9
 71
     3
 72
     2
 73
     0
 90
        0
 40
0.6
 41
30.0
 62
     5
 63
     7
 74
     2
 91
        2
 64
     7
 65
   257
 75
     1
175
     1
 42
179.0
 92
        8
 66
     7
 43
1.0
 76
     1
 77
     6
 78
     2
 67
     7
 79
     3
170
     0
171
     0
290
     0
174
     0
 93
        1
 44
0.0
173
     0
291
     0
 45
0.0
1001
ACAD
1000
AcDbSavedByObjectVersion
1070
     0
  0
VISUALSTYLE
  5
35
102
{ACAD_REACTORS
330
2A
102
}
102
{ACAD_XDICTIONARY
360
33E
102
}
330
2A
100
AcDbVisualStyle
  2
Dim
 70
    11
 71
     2
 72
     2
 73
     0
 90
        0
 40
0.6
 41
30.0
 62
     5
 63
     7
 74
     1
 91
        4
 64
     7
 65
   257
 75
     1
175
     1
 42
1.0
 92
        8
 66
     7
 43
1.0
 76
     1
 77
     6
 78
     2
 67
     7
 79
     5
170
     0
171
     0
290
     0
174
     0
 93
        1
 44
-50.0
173
     0
291
     1
 45
0.0
1001
ACAD
1000
AcDbSavedByObjectVersion
1070
     0
  0
VISUALSTYLE
  5
3D
102
{ACAD_REACTORS
330
2A
102
}
102
{ACAD_XDICTIONARY
360
34E
102
}
330
2A
100
AcDbVisualStyle
  2
EdgeColorOff
 70
    22
 71
     2
 72
     2
 73
     0
 90
        0
 40
0.6
 41
30.0
 62
     5
 63
     7
 74
     1
 91
        4
 64
     7
 65
   257
 75
     1
175
     1
 42
1.0
 92
        8
 66
     7
 43
1.0
 76
     1
 77
     6
 78
     2
 67
     7
 79
     5
170
     0
171
     0
290
     0
174
     0
 93
        1
 44
0.0
173
     0
291
     1
 45
0.0
1001
ACAD
1000
AcDbSavedByObjectVersion
1070
     0
  0
VISUALSTYLE
  5
39
102
{ACAD_REACTORS
330
2A
102
}
102
{ACAD_XDICTIONARY
360
346
102
}
330
2A
100
AcDbVisualStyle
  2
Facepattern
 70
    15
 71
     2
 72
     2
 73
     0
 90
        0
 40
0.6
 41
30.0
 62
     5
 63
     7
 74
     1
 91
        4
 64
     7
 65
   257
 75
     1
175
     1
 42
1.0
 92
        8
 66
     7
 43
1.0
 76
     1
 77
     6
 78
     2
 67
     7
 79
     5
170
     0
171
     0
290
     0
174
     0
 93
        1
 44
0.0
173
     0
291
     1
 45
0.0
1001
ACAD
1000
AcDbSavedByObjectVersion
1070
     0
  0
VISUALSTYLE
  5
2B
102
{ACAD_REACTORS
330
2A
102
}
102
{ACAD_XDICTIONARY
360
32A
102
}
330
2A
100
AcDbVisualStyle
  2
Flat
 70
     0
 71
     2
 72
     1
 73
     1
 90
        2
 40
0.6
 41
30.0
 62
     5
 63
     7
 74
     0
 91
        0
 64
     7
 65
   257
 75
     1
175
     1
 42
1.0
 92
        8
 66
     7
 43
1.0
 76
     1
 77
     6
 78
     2
 67
     7
 79
     5
170
     0
171
     0
290
     0
174
     0
 93
       13
 44
0.0
173
     0
291
     1
 45
0.0
1001
ACAD
1000
AcDbSavedByObjectVersion
1070
     0
  0
VISUALSTYLE
  5
2C
102
{ACAD_REACTORS
330
2A
102
}
102
{ACAD_XDICTIONARY
360
32C
102
}
330
2A
100
AcDbVisualStyle
  2
FlatWithEdges
 70
     1
 71
     2
 72
     1
 73
     1
 90
        2
 40
0.6
 41
30.0
 62
     5
 63
     7
 74
     1
 91
        0
 64
     7
 65
   257
 75
     1
175
     1
 42
1.0
 92
        0
 66
   257
 43
1.0
 76
     1
 77
     6
 78
     2
 67
     7
 79
     5
170
     0
171
     0
290
     0
174
     0
 93
       13
 44
0.0
173
     0
291
     1
 45
0.0
1001
ACAD
1000
AcDbSavedByObjectVersion
1070
     0
  0
VISUALSTYLE
  5
2D
102
{ACAD_REACTORS
330
2A
102
}
102
{ACAD_XDICTIONARY
360
32E
102
}
330
2A
100
AcDbVisualStyle
  2
Gouraud
 70
     2
 71
     2
 72
     2
 73
     1
 90
        2
 40
0.6
 41
30.0
 62
     5
 63
     7
 74
     0
 91
        0
 64
     7
 65
   257
 75
     1
175
     1
 42
1.0
 92
        0
 66
     7
 43
1.0
 76
     1
 77
     6
 78
     2
 67
     7
 79
     5
170
     0
171
     0
290
     0
174
     0
 93
       13
 44
0.0
173
     0
291
     1
 45
0.0
1001
ACAD
1000
AcDbSavedByObjectVersion
1070
     0
  0
VISUALSTYLE
  5
2E
102
{ACAD_REACTORS
330
2A
102
}
102
{ACAD_XDICTIONARY
360
330
102
}
330
2A
100
AcDbVisualStyle
  2
GouraudWithEdges
 70
     3
 71
     2
 72
     2
 73
     1
 90
        2
 40
0.6
 41
30.0
 62
     5
 63
     7
 74
     1
 91
        0
 64
     7
 65
   257
 75
     1
175
     1
 42
1.0
 92
        0
 66
   257
 43
1.0
 76
     1
 77
     6
 78
     2
 67
     7
 79
     5
170
     0
171
     0
290
     0
174
     0
 93
       13
 44
0.0
173
     0
291
     1
 45
0.0
1001
ACAD
1000
AcDbSavedByObjectVersion
1070
     0
  0
VISUALSTYLE
  5
31
102
{ACAD_REACTORS
330
2A
102
}
102
{ACAD_XDICTIONARY
360
336
102
}
330
2A
100
AcDbVisualStyle
  2
Hidden
 70
     6
 71
     1
 72
     2
 73
     2
 90
        0
 40
0.6
 41
30.0
 62
     5
 63
     7
 74
     2
 91
        2
 64
     7
 65
   257
 75
     2
175
     1
 42
40.0
 92
        0
 66
   257
 43
1.0
 76
     1
 77
     6
 78
     2
 67
     7
 79
     3
170
     0
171
     0
290
     0
174
     0
 93
        1
 44
0.0
173
     0
291
     0
 45
0.0
1001
ACAD
1000
AcDbSavedByObjectVersion
1070
     0
  0
VISUALSTYLE
  5
3B
102
{ACAD_REACTORS
330
2A
102
}
102
{ACAD_XDICTIONARY
360
34A
102
}
330
2A
100
AcDbVisualStyle
  2
JitterOff
 70
    20
 71
     2
 72
     2
 73
     0
 90
        0
 40
0.6
 41
30.0
 62
     5
 63
     7
 74
     1
 91
        4
 64
     7
 65
   257
 75
     1
175
     1
 42
1.0
 92
       10
 66
     7
 43
1.0
 76
     1
 77
     6
 78
     2
 67
     7
 79
     5
170
     0
171
     0
290
     0
174
     0
 93
        1
 44
0.0
173
     0
291
     1
 45
0.0
1001
ACAD
1000
AcDbSavedByObjectVersion
1070
     0
  0
VISUALSTYLE
  5
38
102
{ACAD_REACTORS
330
2A
102
}
102
{ACAD_XDICTIONARY
360
344
102
}
330
2A
100
AcDbVisualStyle
  2
Linepattern
 70
    14
 71
     2
 72
     2
 73
     0
 90
        0
 40
0.6
 41
30.0
 62
     5
 63
     7
 74
     1
 91
        4
 64
     7
 65
   257
 75
     7
175
     7
 42
1.0
 92
        8
 66
     7
 43
1.0
 76
     1
 77
     6
 78
     2
 67
     7
 79
     5
170
     0
171
     0
290
     0
174
     0
 93
        1
 44
0.0
173
     0
291
     1
 45
0.0
1001
ACAD
1000
AcDbSavedByObjectVersion
1070
     0
  0
VISUALSTYLE
  5
3C
102
{ACAD_REACTORS
330
2A
102
}
102
{ACAD_XDICTIONARY
360
34C
102
}
330
2A
100
AcDbVisualStyle
  2
OverhangOff
 70
    21
 71
     2
 72
     2
 73
     0
 90
        0
 40
0.6
 41
30.0
 62
     5
 63
     7
 74
     1
 91
        4
 64
     7
 65
   257
 75
     1
175
     1
 42
1.0
 92
        9
 66
     7
 43
1.0
 76
     1
 77
     6
 78
     2
 67
     7
 79
     5
170
     0
171
     0
290
     0
174
     0
 93
        1
 44
0.0
173
     0
291
     1
 45
0.0
1001
ACAD
1000
AcDbSavedByObjectVersion
1070
     0
  0
VISUALSTYLE
  5
33
102
{ACAD_REACTORS
330
2A
102
}
102
{ACAD_XDICTIONARY
360
33A
102
}
330
2A
100
AcDbVisualStyle
  2
Realistic
 70
     8
 71
     2
 72
     3
 73
     0
 90
        2
 40
0.6
 41
30.0
 62
     5
 63
     7
 74
     0
 91
        0
 64
     7
 65
   257
 75
     1
175
     1
 42
1.0
 92
        8
 66
   257
 43
1.0
 76
     1
 77
     6
 78
     2
 67
     7
 79
     3
170
     0
171
     0
290
     0
174
     0
 93
       13
 44
0.0
173
     0
291
     0
 45
0.0
1001
ACAD
1000
AcDbSavedByObjectVersion
1070
     0
  0
VISUALSTYLE
  5
42
102
{ACAD_REACTORS
330
2A
102
}
102
{ACAD_XDICTIONARY
360
358
102
}
330
2A
100
AcDbVisualStyle
  2
Shaded
 70
    27
 71
     2
 72
     2
 73
     1
 90
        2
 40
0.6
 41
30.0
 62
     5
 63
     7
 74
     0
 91
        4
 64
     7
 65
   257
 75
     1
175
     1
 42
1.0
 92
        8
 66
   257
 43
1.0
 76
     1
 77
     6
 78
     2
 67
     8
 79
     3
170
     0
171
     0
290
     0
174
     0
 93
        5
 44
0.0
173
     0
291
     0
 45
0.0
1001
ACAD
1000
AcDbSavedByObjectVersion
1070
     0
  0
VISUALSTYLE
  5
41
102
{ACAD_REACTORS
330
2A
102
}
102
{ACAD_XDICTIONARY
360
356
102
}
330
2A
100
AcDbVisualStyle
  2
Shaded with edges
 70
    26
 71
     2
 72
     2
 73
     1
 90
        2
 40
0.6
 41
30.0
 62
     5
 63
     7
 74
     1
 91
       10
 64
     7
 65
   257
 75
     2
175
     1
 42
1.0
 92
        8
 66
   257
 43
1.0
 76
     1
 77
     6
 78
     2
 67
     7
 79
     3
170
     0
171
     0
290
     0
174
     0
 93
        5
 44
0.0
173
     0
291
     0
 45
0.0
1001
ACAD
1000
AcDbSavedByObjectVersion
1070
     0
  0
VISUALSTYLE
  5
3E
102
{ACAD_REACTORS
330
2A
102
}
102
{ACAD_XDICTIONARY
360
350
102
}
330
2A
100
AcDbVisualStyle
  2
Shades of Gray
 70
    23
 71
     2
 72
     2
 73
     3
 90
        0
 40
0.6
 41
30.0
 62
     5
 63
     7
 74
     2
 91
        2
 64
     7
 65
     7
 75
     1
175
     1
 42
40.0
 92
        8
 66
     7
 43
1.0
 76
     1
 77
     6
 78
     2
 67
     7
 79
     3
170
     0
171
     0
290
     0
174
     0
 93
        1
 44
0.0
173
     0
291
     0
 45
0.0
1001
ACAD
1000
AcDbSavedByObjectVersion
1070
     0
  0
VISUALSTYLE
  5
3F
102
{ACAD_REACTORS
330
2A
102
}
102
{ACAD_XDICTIONARY
360
352
102
}
330
2A
100
AcDbVisualStyle
  2
Sketchy
 70
    24
 71
     1
 72
     2
 73
     2
 90
        0
 40
0.6
 41
30.0
 62
     5
 63
     7
 74
     2
 91
        2
 64
     7
 65
     7
 75
     1
175
     1
 42
40.0
 92
       11
 66
     7
 43
1.0
 76
     1
 77
     6
 78
     2
 67
     7
 79
     6
170
     0
171
     0
290
     0
174
     0
 93
        1
 44
0.0
173
     0
291
     0
 45
0.0
1001
ACAD
1000
AcDbSavedByObjectVersion
1070
     0
  0
VISUALSTYLE
  5
37
102
{ACAD_REACTORS
330
2A
102
}
102
{ACAD_XDICTIONARY
360
342
102
}
330
2A
100
AcDbVisualStyle
  2
Thicken
 70
    13
 71
     2
 72
     2
 73
     0
 90
        0
 40
0.6
 41
30.0
 62
     5
 63
     7
 74
     1
 91
        4
 64
     7
 65
   257
 75
     1
175
     1
 42
1.0
 92
       12
 66
     7
 43
1.0
 76
     1
 77
     6
 78
     2
 67
     7
 79
     5
170
     0
171
     0
290
     0
174
     0
 93
        1
 44
0.0
173
     0
291
     1
 45
0.0
1001
ACAD
1000
AcDbSavedByObjectVersion
1070
     0
  0
VISUALSTYLE
  5
30
102
{ACAD_REACTORS
330
2A
102
}
102
{ACAD_XDICTIONARY
360
334
102
}
330
2A
100
AcDbVisualStyle
  2
Wireframe
 70
     5
 71
     0
 72
     2
 73
     0
 90
        0
 40
0.6
 41
30.0
 62
     5
 63
     7
 74
     1
 91
        4
 64
     7
 65
   257
 75
     1
175
     1
 42
1.0
 92
        0
 66
   257
 43
1.0
 76
     1
 77
     6
 78
     2
 67
     7
 79
     3
170
     0
171
     0
290
     0
174
     0
 93
        1
 44
0.0
173
     0
291
     0
 45
0.0
1001
ACAD
1000
AcDbSavedByObjectVersion
1070
     0
  0
VISUALSTYLE
  5
40
102
{ACAD_REACTORS
330
2A
102
}
102
{ACAD_XDICTIONARY
360
354
102
}
330
2A
100
AcDbVisualStyle
  2
X-Ray
 70
    25
 71
     2
 72
     2
 73
     1
 90
        1
 40
0.5
 41
30.0
 62
     5
 63
     7
 74
     1
 91
        0
 64
     7
 65
   257
 75
     1
175
     1
 42
1.0
 92
        8
 66
     7
 43
1.0
 76
     1
 77
     6
 78
     2
 67
     7
 79
     3
170
     0
171
     0
290
     0
174
     0
 93
       13
 44
0.0
173
     0
291
     0
 45
0.0
1001
ACAD
1000
AcDbSavedByObjectVersion
1070
     0
  0
DICTIONARYVAR
  5
328
102
{ACAD_REACTORS
330
312
102
}
330
312
100
DictionaryVariables
280
     0
  1
1:1
  0
DICTIONARYVAR
  5
314
102
{ACAD_REACTORS
330
312
102
}
330
312
100
DictionaryVariables
280
     0
  1
Standard
  0
DICTIONARYVAR
  5
313
102
{ACAD_REACTORS
330
312
102
}
330
312
100
DictionaryVariables
280
     0
  1
Standard
  0
DICTIONARYVAR
  5
318
102
{ACAD_REACTORS
330
312
102
}
330
312
100
DictionaryVariables
280
     0
  1
2
  0
DICTIONARYVAR
  5
319
102
{ACAD_REACTORS
330
312
102
}
330
312
100
DictionaryVariables
280
     0
  1
1
  0
DICTIONARYVAR
  5
329
102
{ACAD_REACTORS
330
312
102
}
330
312
100
DictionaryVariables
280
     0
  1
1
  0
DICTIONARYVAR
  5
315
102
{ACAD_REACTORS
330
312
102
}
330
312
100
DictionaryVariables
280
     0
  1
0
  0
XRECORD
  5
311
102
{ACAD_REACTORS
330
310
102
}
330
310
100
AcDbXrecord
280
     1
1000
Diese DWG-Datei wurde mit ARCHICAD(TM)® erstellt
  0
SPATIAL_FILTER
  5
30B
102
{ACAD_REACTORS
330
30A
102
}
330
30A
100
AcDbFilter
100
AcDbSpatialFilter
 70
     4
 10
0.0
 20
0.0000976562495314
 10
210.0
 20
0.0000976562495314
 10
210.0
 20
296.9999999999999
 10
0.0
 20
296.9999999999999
210
0.0
220
0.0
230
1.0
 11
0.0
 21
0.0
 31
0.0
 71
     1
 72
     0
 73
     0
 40
1.0
 40
0.0
 40
0.0
 40
0.0
 40
0.0
 40
1.0
 40
0.0
 40
0.0
 40
0.0
 40
0.0
 40
1.0
 40
0.0
 40
1.0
 40
0.0
 40
0.0
 40
0.0
 40
0.0
 40
1.0
 40
0.0
 40
0.0
 40
0.0
 40
0.0
 40
1.0
 40
0.0
  0
DICTIONARY
  5
35C
330
45
100
AcDbDictionary
280
     1
281
     1
  3
ACAD_XREC_ROUNDTRIP
360
35D
  0
DICTIONARY
  5
35A
330
44
100
AcDbDictionary
280
     1
281
     1
  3
ACAD_XREC_ROUNDTRIP
360
35B
  0
DICTIONARY
  5
35E
330
46
100
AcDbDictionary
280
     1
281
     1
  3
ACAD_XREC_ROUNDTRIP
360
35F
  0
DICTIONARY
  5
361
330
6C
100
AcDbDictionary
280
     1
281
     1
  3
ACAD_XREC_ROUNDTRIP
360
362
  0
DICTIONARY
  5
332
330
2F
100
AcDbDictionary
280
     1
281
     1
  3
ACAD_XREC_ROUNDTRIP
360
333
  0
DICTIONARY
  5
338
330
32
100
AcDbDictionary
280
     1
281
     1
  3
ACAD_XREC_ROUNDTRIP
360
339
  0
DICTIONARY
  5
340
330
36
100
AcDbDictionary
280
     1
281
     1
  3
ACAD_XREC_ROUNDTRIP
360
341
  0
DICTIONARY
  5
348
330
3A
100
AcDbDictionary
280
     1
281
     1
  3
ACAD_XREC_ROUNDTRIP
360
349
  0
DICTIONARY
  5
33C
330
34
100
AcDbDictionary
280
     1
281
     1
  3
ACAD_XREC_ROUNDTRIP
360
33D
  0
DICTIONARY
  5
33E
330
35
100
AcDbDictionary
280
     1
281
     1
  3
ACAD_XREC_ROUNDTRIP
360
33F
  0
DICTIONARY
  5
34E
330
3D
100
AcDbDictionary
280
     1
281
     1
  3
ACAD_XREC_ROUNDTRIP
360
34F
  0
DICTIONARY
  5
346
330
39
100
AcDbDictionary
280
     1
281
     1
  3
ACAD_XREC_ROUNDTRIP
360
347
  0
DICTIONARY
  5
32A
330
2B
100
AcDbDictionary
280
     1
281
     1
  3
ACAD_XREC_ROUNDTRIP
360
32B
  0
DICTIONARY
  5
32C
330
2C
100
AcDbDictionary
280
     1
281
     1
  3
ACAD_XREC_ROUNDTRIP
360
32D
  0
DICTIONARY
  5
32E
330
2D
100
AcDbDictionary
280
     1
281
     1
  3
ACAD_XREC_ROUNDTRIP
360
32F
  0
DICTIONARY
  5
330
330
2E
100
AcDbDictionary
280
     1
281
     1
  3
ACAD_XREC_ROUNDTRIP
360
331
  0
DICTIONARY
  5
336
330
31
100
AcDbDictionary
280
     1
281
     1
  3
ACAD_XREC_ROUNDTRIP
360
337
  0
DICTIONARY
  5
34A
330
3B
100
AcDbDictionary
280
     1
281
     1
  3
ACAD_XREC_ROUNDTRIP
360
34B
  0
DICTIONARY
  5
344
330
38
100
AcDbDictionary
280
     1
281
     1
  3
ACAD_XREC_ROUNDTRIP
360
345
  0
DICTIONARY
  5
34C
330
3C
100
AcDbDictionary
280
     1
281
     1
  3
ACAD_XREC_ROUNDTRIP
360
34D
  0
DICTIONARY
  5
33A
330
33
100
AcDbDictionary
280
     1
281
     1
  3
ACAD_XREC_ROUNDTRIP
360
33B
  0
DICTIONARY
  5
358
330
42
100
AcDbDictionary
280
     1
281
     1
  3
ACAD_XREC_ROUNDTRIP
360
359
  0
DICTIONARY
  5
356
330
41
100
AcDbDictionary
280
     1
281
     1
  3
ACAD_XREC_ROUNDTRIP
360
357
  0
DICTIONARY
  5
350
330
3E
100
AcDbDictionary
280
     1
281
     1
  3
ACAD_XREC_ROUNDTRIP
360
351
  0
DICTIONARY
  5
352
330
3F
100
AcDbDictionary
280
     1
281
     1
  3
ACAD_XREC_ROUNDTRIP
360
353
  0
DICTIONARY
  5
342
330
37
100
AcDbDictionary
280
     1
281
     1
  3
ACAD_XREC_ROUNDTRIP
360
343
  0
DICTIONARY
  5
334
330
30
100
AcDbDictionary
280
     1
281
     1
  3
ACAD_XREC_ROUNDTRIP
360
335
  0
DICTIONARY
  5
354
330
40
100
AcDbDictionary
280
     1
281
     1
  3
ACAD_XREC_ROUNDTRIP
360
355
  0
XRECORD
  5
35D
102
{ACAD_REACTORS
330
35C
102
}
330
35C
100
AcDbXrecord
280
     1
102
MATERIAL
148
0.0
149
0.0
149
0.0
 93
        0
 94
      127
282
     0
 72
     1
 77
     1
171
     1
175
     1
179
     1
273
     0
  0
XRECORD
  5
35B
102
{ACAD_REACTORS
330
35A
102
}
330
35A
100
AcDbXrecord
280
     1
102
MATERIAL
148
0.0
149
0.0
149
0.0
 93
        0
 94
      127
282
     0
 72
     1
 77
     1
171
     1
175
     1
179
     1
273
     0
  0
XRECORD
  5
35F
102
{ACAD_REACTORS
330
35E
102
}
330
35E
100
AcDbXrecord
280
     1
102
MATERIAL
148
0.0
149
0.0
149
0.0
 93
        0
 94
      127
282
     0
 72
     1
 77
     1
171
     1
175
     1
179
     1
273
     0
  0
XRECORD
  5
362
102
{ACAD_REACTORS
330
361
102
}
330
361
100
AcDbXrecord
280
     1
102
ACAD_ROUNDTRIP_2010_MLEADER_STYLE
  0
XRECORD
  5
333
102
{ACAD_REACTORS
330
332
102
}
330
332
100
AcDbXrecord
280
     1
102
RTVSPropertyOp0
 70
     1
102
RTVSPropertyOp1
 70
     1
102
RTVSPropertyOp2
 70
     1
102
RTVSPropertyOp3
 70
     1
102
RTVSPropertyOp4
 70
     1
102
RTVSPropertyOp5
 70
     1
102
RTVSPropertyOp6
 70
     1
102
RTVSPropertyOp7
 70
     1
102
RTVSPropertyOp8
 70
     1
102
RTVSPropertyOp9
 70
     1
102
RTVSPropertyOp10
 70
     1
102
RTVSPropertyOp11
 70
     1
102
RTVSPropertyOp12
 70
     1
102
RTVSPropertyOp13
 70
     1
102
RTVSPropertyOp14
 70
     1
102
RTVSPropertyOp15
 70
     1
102
RTVSPropertyOp16
 70
     1
102
RTVSPropertyOp17
 70
     1
102
RTVSPropertyOp18
 70
     1
102
RTVSPropertyOp19
 70
     1
102
RTVSPropertyOp20
 70
     1
102
RTVSPropertyOp21
 70
     1
102
RTVSPropertyOp22
 70
     1
102
RTVSPropertyOp23
 70
     1
102
RTVSPropertyOp24
 70
     1
102
RTVSPropertyOp25
 70
     1
102
RTVSPropertyOp26
 70
     1
102
RTVSPropertyOp27
 70
     1
102
RTVSPropertyOp28
 70
     1
102
RTVSPropertyOp29
 70
     1
102
RTVSPropertyOp30
 70
     1
102
RTVSPropertyOp31
 70
     1
102
RTVSPropertyOp32
 70
     1
102
RTVSPropertyOp33
 70
     1
102
RTVSPropertyOp34
 70
     1
102
RTVSPropertyOp35
 70
     1
102
RTVSPropertyOp36
 70
     1
102
RTVSPropertyOp37
 70
     1
102
RTVSPropertyOp38
 70
     1
102
RTVSPropertyOp39
 70
     1
102
RTVSPropertyOp40
 70
     1
102
RTVSPropertyOp41
 70
     1
102
RTVSPropertyOp42
 70
     1
102
RTVSPropertyOp43
 70
     1
102
RTVSPropertyOp44
 70
     1
102
RTVSPropertyOp45
 70
     1
102
RTVSPropertyOp46
 70
     1
102
RTVSPropertyOp47
 70
     1
102
RTVSPropertyOp48
 70
     1
102
RTVSPropertyOp49
 70
     1
102
RTVSPropertyOp50
 70
     1
102
RTVSPropertyOp51
 70
     0
102
RTVSPropertyOp52
 70
     0
102
RTVSPropertyOp53
 70
     1
102
RTVSPropertyOp54
 70
     1
102
RTVSPropertyOp55
 70
     1
102
RTVSPropertyOp56
 70
     1
102
RTVSPropertyOp57
 70
     1
102
RTVSPost2010Prop28
280
     1
102
RTVSPost2010PropOp28
 70
     1
102
RTVSPost2010Prop29
280
     1
102
RTVSPost2010PropOp29
 70
     1
102
RTVSPost2010Prop30
280
     0
102
RTVSPost2010PropOp30
 70
     1
102
RTVSPost2010Prop31
280
     0
102
RTVSPost2010PropOp31
 70
     1
102
RTVSPost2010Prop32
280
     0
102
RTVSPost2010PropOp32
 70
     1
102
RTVSPost2010Prop33
280
     0
102
RTVSPost2010PropOp33
 70
     1
102
RTVSPost2010Prop34
280
     0
102
RTVSPost2010PropOp34
 70
     1
102
RTVSPost2010Prop35
280
     0
102
RTVSPost2010PropOp35
 70
     1
102
RTVSPost2010Prop36
280
     0
102
RTVSPost2010PropOp36
 70
     1
102
RTVSPost2010Prop37
 90
       50
102
RTVSPost2010PropOp37
 70
     1
102
RTVSPost2010Prop38
140
0.0
102
RTVSPost2010PropOp38
 70
     1
102
RTVSPost2010Prop39
140
1.0
102
RTVSPost2010PropOp39
 70
     1
102
RTVSPost2010Prop40
 90
        0
102
RTVSPost2010PropOp40
 70
     1
102
RTVSPost2010Prop41ColorIndex
 90
      178
102
RTVSPost2010Prop41ColorRGB
 90
        0
102
RTVSPost2010PropOp41
 70
     1
102
RTVSPost2010Prop42
 90
       50
102
RTVSPost2010PropOp42
 70
     1
102
RTVSPost2010Prop43
 90
        3
102
RTVSPost2010PropOp43
 70
     1
102
RTVSPost2010Prop44ColorIndex
 90
        5
102
RTVSPost2010Prop44ColorRGB
 90
      255
102
RTVSPost2010PropOp44
 70
     1
102
RTVSPost2010Prop45
280
     0
102
RTVSPost2010PropOp45
 70
     1
102
RTVSPost2010Prop46
 90
       50
102
RTVSPost2010PropOp46
 70
     1
102
RTVSPost2010Prop47
 90
       50
102
RTVSPost2010PropOp47
 70
     1
102
RTVSPost2010Prop48
 90
       50
102
RTVSPost2010PropOp48
 70
     1
102
RTVSPost2010Prop49
280
     0
102
RTVSPost2010PropOp49
 70
     1
102
RTVSPost2010Prop50
 90
       50
102
RTVSPost2010PropOp50
 70
     1
102
RTVSPost2010Prop51ColorIndex
 90
      256
102
RTVSPost2010Prop51ColorRGB
 90
-16777216
102
RTVSPost2010PropOp51
 70
     0
102
RTVSPost2010Prop52
140
1.0
102
RTVSPost2010PropOp52
 70
     0
102
RTVSPost2010Prop53
 90
        2
102
RTVSPost2010PropOp53
 70
     1
102
RTVSPost2010Prop54
  1
strokes_ogs.tif
102
RTVSPost2010PropOp54
 70
     1
102
RTVSPost2010Prop55
280
     0
102
RTVSPost2010PropOp55
 70
     1
102
RTVSPost2010Prop56
140
1.0
102
RTVSPost2010PropOp56
 70
     1
102
RTVSPost2010Prop57
140
1.0
102
RTVSPost2010PropOp57
 70
     1
  0
XRECORD
  5
339
102
{ACAD_REACTORS
330
338
102
}
330
338
100
AcDbXrecord
280
     1
102
RTVSPropertyOp0
 70
     1
102
RTVSPropertyOp1
 70
     1
102
RTVSPropertyOp2
 70
     1
102
RTVSPropertyOp3
 70
     1
102
RTVSPropertyOp4
 70
     1
102
RTVSPropertyOp5
 70
     1
102
RTVSPropertyOp6
 70
     1
102
RTVSPropertyOp7
 70
     1
102
RTVSPropertyOp8
 70
     1
102
RTVSPropertyOp9
 70
     1
102
RTVSPropertyOp10
 70
     1
102
RTVSPropertyOp11
 70
     1
102
RTVSPropertyOp12
 70
     1
102
RTVSPropertyOp13
 70
     1
102
RTVSPropertyOp14
 70
     1
102
RTVSPropertyOp15
 70
     1
102
RTVSPropertyOp16
 70
     1
102
RTVSPropertyOp17
 70
     1
102
RTVSPropertyOp18
 70
     1
102
RTVSPropertyOp19
 70
     1
102
RTVSPropertyOp20
 70
     1
102
RTVSPropertyOp21
 70
     1
102
RTVSPropertyOp22
 70
     1
102
RTVSPropertyOp23
 70
     1
102
RTVSPropertyOp24
 70
     1
102
RTVSPropertyOp25
 70
     1
102
RTVSPropertyOp26
 70
     1
102
RTVSPropertyOp27
 70
     1
102
RTVSPropertyOp28
 70
     1
102
RTVSPropertyOp29
 70
     1
102
RTVSPropertyOp30
 70
     1
102
RTVSPropertyOp31
 70
     1
102
RTVSPropertyOp32
 70
     1
102
RTVSPropertyOp33
 70
     1
102
RTVSPropertyOp34
 70
     1
102
RTVSPropertyOp35
 70
     1
102
RTVSPropertyOp36
 70
     1
102
RTVSPropertyOp37
 70
     1
102
RTVSPropertyOp38
 70
     1
102
RTVSPropertyOp39
 70
     1
102
RTVSPropertyOp40
 70
     1
102
RTVSPropertyOp41
 70
     1
102
RTVSPropertyOp42
 70
     1
102
RTVSPropertyOp43
 70
     1
102
RTVSPropertyOp44
 70
     1
102
RTVSPropertyOp45
 70
     1
102
RTVSPropertyOp46
 70
     1
102
RTVSPropertyOp47
 70
     1
102
RTVSPropertyOp48
 70
     1
102
RTVSPropertyOp49
 70
     1
102
RTVSPropertyOp50
 70
     1
102
RTVSPropertyOp51
 70
     0
102
RTVSPropertyOp52
 70
     0
102
RTVSPropertyOp53
 70
     1
102
RTVSPropertyOp54
 70
     1
102
RTVSPropertyOp55
 70
     1
102
RTVSPropertyOp56
 70
     1
102
RTVSPropertyOp57
 70
     1
102
RTVSPost2010Prop28
280
     0
102
RTVSPost2010PropOp28
 70
     1
102
RTVSPost2010Prop29
280
     1
102
RTVSPost2010PropOp29
 70
     1
102
RTVSPost2010Prop30
280
     1
102
RTVSPost2010PropOp30
 70
     1
102
RTVSPost2010Prop31
280
     0
102
RTVSPost2010PropOp31
 70
     1
102
RTVSPost2010Prop32
280
     0
102
RTVSPost2010PropOp32
 70
     1
102
RTVSPost2010Prop33
280
     0
102
RTVSPost2010PropOp33
 70
     1
102
RTVSPost2010Prop34
280
     0
102
RTVSPost2010PropOp34
 70
     1
102
RTVSPost2010Prop35
280
     0
102
RTVSPost2010PropOp35
 70
     1
102
RTVSPost2010Prop36
280
     0
102
RTVSPost2010PropOp36
 70
     1
102
RTVSPost2010Prop37
 90
       50
102
RTVSPost2010PropOp37
 70
     1
102
RTVSPost2010Prop38
140
0.0
102
RTVSPost2010PropOp38
 70
     1
102
RTVSPost2010Prop39
140
1.0
102
RTVSPost2010PropOp39
 70
     1
102
RTVSPost2010Prop40
 90
        0
102
RTVSPost2010PropOp40
 70
     1
102
RTVSPost2010Prop41ColorIndex
 90
      178
102
RTVSPost2010Prop41ColorRGB
 90
        0
102
RTVSPost2010PropOp41
 70
     1
102
RTVSPost2010Prop42
 90
       50
102
RTVSPost2010PropOp42
 70
     1
102
RTVSPost2010Prop43
 90
        3
102
RTVSPost2010PropOp43
 70
     1
102
RTVSPost2010Prop44ColorIndex
 90
        5
102
RTVSPost2010Prop44ColorRGB
 90
      255
102
RTVSPost2010PropOp44
 70
     1
102
RTVSPost2010Prop45
280
     0
102
RTVSPost2010PropOp45
 70
     1
102
RTVSPost2010Prop46
 90
       50
102
RTVSPost2010PropOp46
 70
     1
102
RTVSPost2010Prop47
 90
       50
102
RTVSPost2010PropOp47
 70
     1
102
RTVSPost2010Prop48
 90
       50
102
RTVSPost2010PropOp48
 70
     1
102
RTVSPost2010Prop49
280
     0
102
RTVSPost2010PropOp49
 70
     1
102
RTVSPost2010Prop50
 90
       50
102
RTVSPost2010PropOp50
 70
     1
102
RTVSPost2010Prop51ColorIndex
 90
      256
102
RTVSPost2010Prop51ColorRGB
 90
-16777216
102
RTVSPost2010PropOp51
 70
     0
102
RTVSPost2010Prop52
140
1.0
102
RTVSPost2010PropOp52
 70
     0
102
RTVSPost2010Prop53
 90
        2
102
RTVSPost2010PropOp53
 70
     1
102
RTVSPost2010Prop54
  1
strokes_ogs.tif
102
RTVSPost2010PropOp54
 70
     1
102
RTVSPost2010Prop55
280
     0
102
RTVSPost2010PropOp55
 70
     1
102
RTVSPost2010Prop56
140
1.0
102
RTVSPost2010PropOp56
 70
     1
102
RTVSPost2010Prop57
140
1.0
102
RTVSPost2010PropOp57
 70
     1
  0
XRECORD
  5
341
102
{ACAD_REACTORS
330
340
102
}
330
340
100
AcDbXrecord
280
     1
102
RTVSPropertyOp0
 70
     1
102
RTVSPropertyOp1
 70
     1
102
RTVSPropertyOp2
 70
     1
102
RTVSPropertyOp3
 70
     1
102
RTVSPropertyOp4
 70
     1
102
RTVSPropertyOp5
 70
     1
102
RTVSPropertyOp6
 70
     1
102
RTVSPropertyOp7
 70
     1
102
RTVSPropertyOp8
 70
     1
102
RTVSPropertyOp9
 70
     1
102
RTVSPropertyOp10
 70
     1
102
RTVSPropertyOp11
 70
     1
102
RTVSPropertyOp12
 70
     1
102
RTVSPropertyOp13
 70
     1
102
RTVSPropertyOp14
 70
     1
102
RTVSPropertyOp15
 70
     1
102
RTVSPropertyOp16
 70
     1
102
RTVSPropertyOp17
 70
     1
102
RTVSPropertyOp18
 70
     1
102
RTVSPropertyOp19
 70
     1
102
RTVSPropertyOp20
 70
     1
102
RTVSPropertyOp21
 70
     1
102
RTVSPropertyOp22
 70
     1
102
RTVSPropertyOp23
 70
     1
102
RTVSPropertyOp24
 70
     1
102
RTVSPropertyOp25
 70
     1
102
RTVSPropertyOp26
 70
     1
102
RTVSPropertyOp27
 70
     1
102
RTVSPropertyOp28
 70
     1
102
RTVSPropertyOp29
 70
     1
102
RTVSPropertyOp30
 70
     1
102
RTVSPropertyOp31
 70
     1
102
RTVSPropertyOp32
 70
     1
102
RTVSPropertyOp33
 70
     1
102
RTVSPropertyOp34
 70
     1
102
RTVSPropertyOp35
 70
     1
102
RTVSPropertyOp36
 70
     1
102
RTVSPropertyOp37
 70
     1
102
RTVSPropertyOp38
 70
     1
102
RTVSPropertyOp39
 70
     1
102
RTVSPropertyOp40
 70
     1
102
RTVSPropertyOp41
 70
     1
102
RTVSPropertyOp42
 70
     1
102
RTVSPropertyOp43
 70
     1
102
RTVSPropertyOp44
 70
     1
102
RTVSPropertyOp45
 70
     1
102
RTVSPropertyOp46
 70
     1
102
RTVSPropertyOp47
 70
     1
102
RTVSPropertyOp48
 70
     1
102
RTVSPropertyOp49
 70
     1
102
RTVSPropertyOp50
 70
     1
102
RTVSPropertyOp51
 70
     0
102
RTVSPropertyOp52
 70
     0
102
RTVSPropertyOp53
 70
     1
102
RTVSPropertyOp54
 70
     1
102
RTVSPropertyOp55
 70
     1
102
RTVSPropertyOp56
 70
     1
102
RTVSPropertyOp57
 70
     1
102
RTVSPost2010Prop28
280
     0
102
RTVSPost2010PropOp28
 70
     1
102
RTVSPost2010Prop29
280
     1
102
RTVSPost2010PropOp29
 70
     1
102
RTVSPost2010Prop30
280
     1
102
RTVSPost2010PropOp30
 70
     1
102
RTVSPost2010Prop31
280
     0
102
RTVSPost2010PropOp31
 70
     1
102
RTVSPost2010Prop32
280
     0
102
RTVSPost2010PropOp32
 70
     1
102
RTVSPost2010Prop33
280
     0
102
RTVSPost2010PropOp33
 70
     1
102
RTVSPost2010Prop34
280
     0
102
RTVSPost2010PropOp34
 70
     1
102
RTVSPost2010Prop35
280
     0
102
RTVSPost2010PropOp35
 70
     1
102
RTVSPost2010Prop36
280
     0
102
RTVSPost2010PropOp36
 70
     1
102
RTVSPost2010Prop37
 90
       50
102
RTVSPost2010PropOp37
 70
     1
102
RTVSPost2010Prop38
140
0.0
102
RTVSPost2010PropOp38
 70
     1
102
RTVSPost2010Prop39
140
1.0
102
RTVSPost2010PropOp39
 70
     1
102
RTVSPost2010Prop40
 90
        0
102
RTVSPost2010PropOp40
 70
     1
102
RTVSPost2010Prop41ColorIndex
 90
      178
102
RTVSPost2010Prop41ColorRGB
 90
        0
102
RTVSPost2010PropOp41
 70
     1
102
RTVSPost2010Prop42
 90
       50
102
RTVSPost2010PropOp42
 70
     1
102
RTVSPost2010Prop43
 90
        3
102
RTVSPost2010PropOp43
 70
     1
102
RTVSPost2010Prop44ColorIndex
 90
        5
102
RTVSPost2010Prop44ColorRGB
 90
      255
102
RTVSPost2010PropOp44
 70
     1
102
RTVSPost2010Prop45
280
     0
102
RTVSPost2010PropOp45
 70
     1
102
RTVSPost2010Prop46
 90
       50
102
RTVSPost2010PropOp46
 70
     1
102
RTVSPost2010Prop47
 90
       50
102
RTVSPost2010PropOp47
 70
     1
102
RTVSPost2010Prop48
 90
       50
102
RTVSPost2010PropOp48
 70
     1
102
RTVSPost2010Prop49
280
     0
102
RTVSPost2010PropOp49
 70
     1
102
RTVSPost2010Prop50
 90
       50
102
RTVSPost2010PropOp50
 70
     1
102
RTVSPost2010Prop51ColorIndex
 90
      256
102
RTVSPost2010Prop51ColorRGB
 90
-16777216
102
RTVSPost2010PropOp51
 70
     0
102
RTVSPost2010Prop52
140
1.0
102
RTVSPost2010PropOp52
 70
     0
102
RTVSPost2010Prop53
 90
        2
102
RTVSPost2010PropOp53
 70
     1
102
RTVSPost2010Prop54
  1
strokes_ogs.tif
102
RTVSPost2010PropOp54
 70
     1
102
RTVSPost2010Prop55
280
     0
102
RTVSPost2010PropOp55
 70
     1
102
RTVSPost2010Prop56
140
1.0
102
RTVSPost2010PropOp56
 70
     1
102
RTVSPost2010Prop57
140
1.0
102
RTVSPost2010PropOp57
 70
     1
  0
XRECORD
  5
349
102
{ACAD_REACTORS
330
348
102
}
330
348
100
AcDbXrecord
280
     1
102
RTVSPropertyOp0
 70
     1
102
RTVSPropertyOp1
 70
     1
102
RTVSPropertyOp2
 70
     1
102
RTVSPropertyOp3
 70
     1
102
RTVSPropertyOp4
 70
     1
102
RTVSPropertyOp5
 70
     1
102
RTVSPropertyOp6
 70
     1
102
RTVSPropertyOp7
 70
     1
102
RTVSPropertyOp8
 70
     1
102
RTVSPropertyOp9
 70
     1
102
RTVSPropertyOp10
 70
     1
102
RTVSPropertyOp11
 70
     1
102
RTVSPropertyOp12
 70
     1
102
RTVSPropertyOp13
 70
     1
102
RTVSPropertyOp14
 70
     1
102
RTVSPropertyOp15
 70
     1
102
RTVSPropertyOp16
 70
     1
102
RTVSPropertyOp17
 70
     1
102
RTVSPropertyOp18
 70
     1
102
RTVSPropertyOp19
 70
     1
102
RTVSPropertyOp20
 70
     1
102
RTVSPropertyOp21
 70
     1
102
RTVSPropertyOp22
 70
     1
102
RTVSPropertyOp23
 70
     1
102
RTVSPropertyOp24
 70
     1
102
RTVSPropertyOp25
 70
     1
102
RTVSPropertyOp26
 70
     1
102
RTVSPropertyOp27
 70
     1
102
RTVSPropertyOp28
 70
     1
102
RTVSPropertyOp29
 70
     1
102
RTVSPropertyOp30
 70
     1
102
RTVSPropertyOp31
 70
     1
102
RTVSPropertyOp32
 70
     1
102
RTVSPropertyOp33
 70
     1
102
RTVSPropertyOp34
 70
     1
102
RTVSPropertyOp35
 70
     1
102
RTVSPropertyOp36
 70
     1
102
RTVSPropertyOp37
 70
     1
102
RTVSPropertyOp38
 70
     1
102
RTVSPropertyOp39
 70
     1
102
RTVSPropertyOp40
 70
     1
102
RTVSPropertyOp41
 70
     1
102
RTVSPropertyOp42
 70
     1
102
RTVSPropertyOp43
 70
     1
102
RTVSPropertyOp44
 70
     1
102
RTVSPropertyOp45
 70
     1
102
RTVSPropertyOp46
 70
     1
102
RTVSPropertyOp47
 70
     1
102
RTVSPropertyOp48
 70
     1
102
RTVSPropertyOp49
 70
     1
102
RTVSPropertyOp50
 70
     1
102
RTVSPropertyOp51
 70
     0
102
RTVSPropertyOp52
 70
     0
102
RTVSPropertyOp53
 70
     1
102
RTVSPropertyOp54
 70
     1
102
RTVSPropertyOp55
 70
     1
102
RTVSPropertyOp56
 70
     1
102
RTVSPropertyOp57
 70
     1
102
RTVSPost2010Prop28
280
     0
102
RTVSPost2010PropOp28
 70
     1
102
RTVSPost2010Prop29
280
     1
102
RTVSPost2010PropOp29
 70
     1
102
RTVSPost2010Prop30
280
     1
102
RTVSPost2010PropOp30
 70
     1
102
RTVSPost2010Prop31
280
     0
102
RTVSPost2010PropOp31
 70
     1
102
RTVSPost2010Prop32
280
     0
102
RTVSPost2010PropOp32
 70
     1
102
RTVSPost2010Prop33
280
     0
102
RTVSPost2010PropOp33
 70
     1
102
RTVSPost2010Prop34
280
     0
102
RTVSPost2010PropOp34
 70
     1
102
RTVSPost2010Prop35
280
     0
102
RTVSPost2010PropOp35
 70
     1
102
RTVSPost2010Prop36
280
     0
102
RTVSPost2010PropOp36
 70
     1
102
RTVSPost2010Prop37
 90
       50
102
RTVSPost2010PropOp37
 70
     1
102
RTVSPost2010Prop38
140
0.0
102
RTVSPost2010PropOp38
 70
     1
102
RTVSPost2010Prop39
140
1.0
102
RTVSPost2010PropOp39
 70
     1
102
RTVSPost2010Prop40
 90
        0
102
RTVSPost2010PropOp40
 70
     1
102
RTVSPost2010Prop41ColorIndex
 90
      178
102
RTVSPost2010Prop41ColorRGB
 90
        0
102
RTVSPost2010PropOp41
 70
     1
102
RTVSPost2010Prop42
 90
       50
102
RTVSPost2010PropOp42
 70
     1
102
RTVSPost2010Prop43
 90
        3
102
RTVSPost2010PropOp43
 70
     1
102
RTVSPost2010Prop44ColorIndex
 90
        5
102
RTVSPost2010Prop44ColorRGB
 90
      255
102
RTVSPost2010PropOp44
 70
     1
102
RTVSPost2010Prop45
280
     0
102
RTVSPost2010PropOp45
 70
     1
102
RTVSPost2010Prop46
 90
       50
102
RTVSPost2010PropOp46
 70
     1
102
RTVSPost2010Prop47
 90
       50
102
RTVSPost2010PropOp47
 70
     1
102
RTVSPost2010Prop48
 90
       50
102
RTVSPost2010PropOp48
 70
     1
102
RTVSPost2010Prop49
280
     0
102
RTVSPost2010PropOp49
 70
     1
102
RTVSPost2010Prop50
 90
       50
102
RTVSPost2010PropOp50
 70
     1
102
RTVSPost2010Prop51ColorIndex
 90
      256
102
RTVSPost2010Prop51ColorRGB
 90
-16777216
102
RTVSPost2010PropOp51
 70
     0
102
RTVSPost2010Prop52
140
1.0
102
RTVSPost2010PropOp52
 70
     0
102
RTVSPost2010Prop53
 90
        2
102
RTVSPost2010PropOp53
 70
     1
102
RTVSPost2010Prop54
  1
strokes_ogs.tif
102
RTVSPost2010PropOp54
 70
     1
102
RTVSPost2010Prop55
280
     0
102
RTVSPost2010PropOp55
 70
     1
102
RTVSPost2010Prop56
140
1.0
102
RTVSPost2010PropOp56
 70
     1
102
RTVSPost2010Prop57
140
1.0
102
RTVSPost2010PropOp57
 70
     1
  0
XRECORD
  5
33D
102
{ACAD_REACTORS
330
33C
102
}
330
33C
100
AcDbXrecord
280
     1
102
RTVSPropertyOp0
 70
     1
102
RTVSPropertyOp1
 70
     1
102
RTVSPropertyOp2
 70
     1
102
RTVSPropertyOp3
 70
     1
102
RTVSPropertyOp4
 70
     1
102
RTVSPropertyOp5
 70
     1
102
RTVSPropertyOp6
 70
     1
102
RTVSPropertyOp7
 70
     1
102
RTVSPropertyOp8
 70
     1
102
RTVSPropertyOp9
 70
     1
102
RTVSPropertyOp10
 70
     1
102
RTVSPropertyOp11
 70
     1
102
RTVSPropertyOp12
 70
     1
102
RTVSPropertyOp13
 70
     1
102
RTVSPropertyOp14
 70
     1
102
RTVSPropertyOp15
 70
     1
102
RTVSPropertyOp16
 70
     1
102
RTVSPropertyOp17
 70
     1
102
RTVSPropertyOp18
 70
     1
102
RTVSPropertyOp19
 70
     1
102
RTVSPropertyOp20
 70
     1
102
RTVSPropertyOp21
 70
     1
102
RTVSPropertyOp22
 70
     1
102
RTVSPropertyOp23
 70
     1
102
RTVSPropertyOp24
 70
     1
102
RTVSPropertyOp25
 70
     1
102
RTVSPropertyOp26
 70
     1
102
RTVSPropertyOp27
 70
     1
102
RTVSPropertyOp28
 70
     1
102
RTVSPropertyOp29
 70
     1
102
RTVSPropertyOp30
 70
     1
102
RTVSPropertyOp31
 70
     1
102
RTVSPropertyOp32
 70
     1
102
RTVSPropertyOp33
 70
     1
102
RTVSPropertyOp34
 70
     1
102
RTVSPropertyOp35
 70
     1
102
RTVSPropertyOp36
 70
     1
102
RTVSPropertyOp37
 70
     1
102
RTVSPropertyOp38
 70
     1
102
RTVSPropertyOp39
 70
     1
102
RTVSPropertyOp40
 70
     1
102
RTVSPropertyOp41
 70
     1
102
RTVSPropertyOp42
 70
     1
102
RTVSPropertyOp43
 70
     1
102
RTVSPropertyOp44
 70
     1
102
RTVSPropertyOp45
 70
     1
102
RTVSPropertyOp46
 70
     1
102
RTVSPropertyOp47
 70
     1
102
RTVSPropertyOp48
 70
     1
102
RTVSPropertyOp49
 70
     1
102
RTVSPropertyOp50
 70
     1
102
RTVSPropertyOp51
 70
     0
102
RTVSPropertyOp52
 70
     0
102
RTVSPropertyOp53
 70
     1
102
RTVSPropertyOp54
 70
     1
102
RTVSPropertyOp55
 70
     1
102
RTVSPropertyOp56
 70
     1
102
RTVSPropertyOp57
 70
     1
102
RTVSPost2010Prop28
280
     0
102
RTVSPost2010PropOp28
 70
     1
102
RTVSPost2010Prop29
280
     1
102
RTVSPost2010PropOp29
 70
     1
102
RTVSPost2010Prop30
280
     1
102
RTVSPost2010PropOp30
 70
     1
102
RTVSPost2010Prop31
280
     0
102
RTVSPost2010PropOp31
 70
     1
102
RTVSPost2010Prop32
280
     0
102
RTVSPost2010PropOp32
 70
     1
102
RTVSPost2010Prop33
280
     0
102
RTVSPost2010PropOp33
 70
     1
102
RTVSPost2010Prop34
280
     0
102
RTVSPost2010PropOp34
 70
     1
102
RTVSPost2010Prop35
280
     0
102
RTVSPost2010PropOp35
 70
     1
102
RTVSPost2010Prop36
280
     0
102
RTVSPost2010PropOp36
 70
     1
102
RTVSPost2010Prop37
 90
       50
102
RTVSPost2010PropOp37
 70
     1
102
RTVSPost2010Prop38
140
0.0
102
RTVSPost2010PropOp38
 70
     1
102
RTVSPost2010Prop39
140
1.0
102
RTVSPost2010PropOp39
 70
     1
102
RTVSPost2010Prop40
 90
        0
102
RTVSPost2010PropOp40
 70
     1
102
RTVSPost2010Prop41ColorIndex
 90
      178
102
RTVSPost2010Prop41ColorRGB
 90
        0
102
RTVSPost2010PropOp41
 70
     1
102
RTVSPost2010Prop42
 90
       50
102
RTVSPost2010PropOp42
 70
     1
102
RTVSPost2010Prop43
 90
        3
102
RTVSPost2010PropOp43
 70
     1
102
RTVSPost2010Prop44ColorIndex
 90
        5
102
RTVSPost2010Prop44ColorRGB
 90
      255
102
RTVSPost2010PropOp44
 70
     1
102
RTVSPost2010Prop45
280
     0
102
RTVSPost2010PropOp45
 70
     1
102
RTVSPost2010Prop46
 90
       50
102
RTVSPost2010PropOp46
 70
     1
102
RTVSPost2010Prop47
 90
       50
102
RTVSPost2010PropOp47
 70
     1
102
RTVSPost2010Prop48
 90
       50
102
RTVSPost2010PropOp48
 70
     1
102
RTVSPost2010Prop49
280
     0
102
RTVSPost2010PropOp49
 70
     1
102
RTVSPost2010Prop50
 90
       50
102
RTVSPost2010PropOp50
 70
     1
102
RTVSPost2010Prop51ColorIndex
 90
      256
102
RTVSPost2010Prop51ColorRGB
 90
-16777216
102
RTVSPost2010PropOp51
 70
     0
102
RTVSPost2010Prop52
140
1.0
102
RTVSPost2010PropOp52
 70
     0
102
RTVSPost2010Prop53
 90
        2
102
RTVSPost2010PropOp53
 70
     1
102
RTVSPost2010Prop54
  1
strokes_ogs.tif
102
RTVSPost2010PropOp54
 70
     1
102
RTVSPost2010Prop55
280
     0
102
RTVSPost2010PropOp55
 70
     1
102
RTVSPost2010Prop56
140
1.0
102
RTVSPost2010PropOp56
 70
     1
102
RTVSPost2010Prop57
140
1.0
102
RTVSPost2010PropOp57
 70
     1
  0
XRECORD
  5
33F
102
{ACAD_REACTORS
330
33E
102
}
330
33E
100
AcDbXrecord
280
     1
102
RTVSPropertyOp0
 70
     1
102
RTVSPropertyOp1
 70
     1
102
RTVSPropertyOp2
 70
     1
102
RTVSPropertyOp3
 70
     1
102
RTVSPropertyOp4
 70
     1
102
RTVSPropertyOp5
 70
     1
102
RTVSPropertyOp6
 70
     1
102
RTVSPropertyOp7
 70
     1
102
RTVSPropertyOp8
 70
     1
102
RTVSPropertyOp9
 70
     1
102
RTVSPropertyOp10
 70
     1
102
RTVSPropertyOp11
 70
     1
102
RTVSPropertyOp12
 70
     1
102
RTVSPropertyOp13
 70
     1
102
RTVSPropertyOp14
 70
     1
102
RTVSPropertyOp15
 70
     1
102
RTVSPropertyOp16
 70
     1
102
RTVSPropertyOp17
 70
     1
102
RTVSPropertyOp18
 70
     1
102
RTVSPropertyOp19
 70
     1
102
RTVSPropertyOp20
 70
     1
102
RTVSPropertyOp21
 70
     1
102
RTVSPropertyOp22
 70
     1
102
RTVSPropertyOp23
 70
     1
102
RTVSPropertyOp24
 70
     1
102
RTVSPropertyOp25
 70
     1
102
RTVSPropertyOp26
 70
     1
102
RTVSPropertyOp27
 70
     1
102
RTVSPropertyOp28
 70
     1
102
RTVSPropertyOp29
 70
     1
102
RTVSPropertyOp30
 70
     1
102
RTVSPropertyOp31
 70
     1
102
RTVSPropertyOp32
 70
     1
102
RTVSPropertyOp33
 70
     1
102
RTVSPropertyOp34
 70
     1
102
RTVSPropertyOp35
 70
     1
102
RTVSPropertyOp36
 70
     1
102
RTVSPropertyOp37
 70
     1
102
RTVSPropertyOp38
 70
     1
102
RTVSPropertyOp39
 70
     1
102
RTVSPropertyOp40
 70
     1
102
RTVSPropertyOp41
 70
     1
102
RTVSPropertyOp42
 70
     1
102
RTVSPropertyOp43
 70
     1
102
RTVSPropertyOp44
 70
     1
102
RTVSPropertyOp45
 70
     1
102
RTVSPropertyOp46
 70
     1
102
RTVSPropertyOp47
 70
     1
102
RTVSPropertyOp48
 70
     1
102
RTVSPropertyOp49
 70
     1
102
RTVSPropertyOp50
 70
     1
102
RTVSPropertyOp51
 70
     0
102
RTVSPropertyOp52
 70
     0
102
RTVSPropertyOp53
 70
     1
102
RTVSPropertyOp54
 70
     1
102
RTVSPropertyOp55
 70
     1
102
RTVSPropertyOp56
 70
     1
102
RTVSPropertyOp57
 70
     1
102
RTVSPost2010Prop28
280
     0
102
RTVSPost2010PropOp28
 70
     1
102
RTVSPost2010Prop29
280
     1
102
RTVSPost2010PropOp29
 70
     1
102
RTVSPost2010Prop30
280
     1
102
RTVSPost2010PropOp30
 70
     1
102
RTVSPost2010Prop31
280
     0
102
RTVSPost2010PropOp31
 70
     1
102
RTVSPost2010Prop32
280
     0
102
RTVSPost2010PropOp32
 70
     1
102
RTVSPost2010Prop33
280
     0
102
RTVSPost2010PropOp33
 70
     1
102
RTVSPost2010Prop34
280
     0
102
RTVSPost2010PropOp34
 70
     1
102
RTVSPost2010Prop35
280
     0
102
RTVSPost2010PropOp35
 70
     1
102
RTVSPost2010Prop36
280
     0
102
RTVSPost2010PropOp36
 70
     1
102
RTVSPost2010Prop37
 90
       50
102
RTVSPost2010PropOp37
 70
     1
102
RTVSPost2010Prop38
140
0.0
102
RTVSPost2010PropOp38
 70
     1
102
RTVSPost2010Prop39
140
1.0
102
RTVSPost2010PropOp39
 70
     1
102
RTVSPost2010Prop40
 90
        0
102
RTVSPost2010PropOp40
 70
     1
102
RTVSPost2010Prop41ColorIndex
 90
      178
102
RTVSPost2010Prop41ColorRGB
 90
        0
102
RTVSPost2010PropOp41
 70
     1
102
RTVSPost2010Prop42
 90
       50
102
RTVSPost2010PropOp42
 70
     1
102
RTVSPost2010Prop43
 90
        3
102
RTVSPost2010PropOp43
 70
     1
102
RTVSPost2010Prop44ColorIndex
 90
        5
102
RTVSPost2010Prop44ColorRGB
 90
      255
102
RTVSPost2010PropOp44
 70
     1
102
RTVSPost2010Prop45
280
     0
102
RTVSPost2010PropOp45
 70
     1
102
RTVSPost2010Prop46
 90
       50
102
RTVSPost2010PropOp46
 70
     1
102
RTVSPost2010Prop47
 90
       50
102
RTVSPost2010PropOp47
 70
     1
102
RTVSPost2010Prop48
 90
       50
102
RTVSPost2010PropOp48
 70
     1
102
RTVSPost2010Prop49
280
     0
102
RTVSPost2010PropOp49
 70
     1
102
RTVSPost2010Prop50
 90
       50
102
RTVSPost2010PropOp50
 70
     1
102
RTVSPost2010Prop51ColorIndex
 90
      256
102
RTVSPost2010Prop51ColorRGB
 90
-16777216
102
RTVSPost2010PropOp51
 70
     0
102
RTVSPost2010Prop52
140
1.0
102
RTVSPost2010PropOp52
 70
     0
102
RTVSPost2010Prop53
 90
        2
102
RTVSPost2010PropOp53
 70
     1
102
RTVSPost2010Prop54
  1
strokes_ogs.tif
102
RTVSPost2010PropOp54
 70
     1
102
RTVSPost2010Prop55
280
     0
102
RTVSPost2010PropOp55
 70
     1
102
RTVSPost2010Prop56
140
1.0
102
RTVSPost2010PropOp56
 70
     1
102
RTVSPost2010Prop57
140
1.0
102
RTVSPost2010PropOp57
 70
     1
  0
XRECORD
  5
34F
102
{ACAD_REACTORS
330
34E
102
}
330
34E
100
AcDbXrecord
280
     1
102
RTVSPropertyOp0
 70
     0
102
RTVSPropertyOp1
 70
     0
102
RTVSPropertyOp2
 70
     0
102
RTVSPropertyOp3
 70
     0
102
RTVSPropertyOp4
 70
     0
102
RTVSPropertyOp5
 70
     0
102
RTVSPropertyOp6
 70
     0
102
RTVSPropertyOp7
 70
     0
102
RTVSPropertyOp8
 70
     0
102
RTVSPropertyOp9
 70
     0
102
RTVSPropertyOp10
 70
     0
102
RTVSPropertyOp11
 70
     0
102
RTVSPropertyOp12
 70
     0
102
RTVSPropertyOp13
 70
     0
102
RTVSPropertyOp14
 70
     2
102
RTVSPropertyOp15
 70
     0
102
RTVSPropertyOp16
 70
     0
102
RTVSPropertyOp17
 70
     0
102
RTVSPropertyOp18
 70
     0
102
RTVSPropertyOp19
 70
     0
102
RTVSPropertyOp20
 70
     0
102
RTVSPropertyOp21
 70
     0
102
RTVSPropertyOp22
 70
     0
102
RTVSPropertyOp23
 70
     0
102
RTVSPropertyOp24
 70
     0
102
RTVSPropertyOp25
 70
     0
102
RTVSPropertyOp26
 70
     0
102
RTVSPropertyOp27
 70
     0
102
RTVSPropertyOp28
 70
     0
102
RTVSPropertyOp29
 70
     0
102
RTVSPropertyOp30
 70
     0
102
RTVSPropertyOp31
 70
     0
102
RTVSPropertyOp32
 70
     0
102
RTVSPropertyOp33
 70
     0
102
RTVSPropertyOp34
 70
     0
102
RTVSPropertyOp35
 70
     0
102
RTVSPropertyOp36
 70
     0
102
RTVSPropertyOp37
 70
     0
102
RTVSPropertyOp38
 70
     0
102
RTVSPropertyOp39
 70
     0
102
RTVSPropertyOp40
 70
     0
102
RTVSPropertyOp41
 70
     0
102
RTVSPropertyOp42
 70
     0
102
RTVSPropertyOp43
 70
     0
102
RTVSPropertyOp44
 70
     0
102
RTVSPropertyOp45
 70
     0
102
RTVSPropertyOp46
 70
     0
102
RTVSPropertyOp47
 70
     0
102
RTVSPropertyOp48
 70
     0
102
RTVSPropertyOp49
 70
     0
102
RTVSPropertyOp50
 70
     0
102
RTVSPropertyOp51
 70
     0
102
RTVSPropertyOp52
 70
     0
102
RTVSPropertyOp53
 70
     0
102
RTVSPropertyOp54
 70
     0
102
RTVSPropertyOp55
 70
     0
102
RTVSPropertyOp56
 70
     0
102
RTVSPropertyOp57
 70
     0
102
RTVSPost2010Prop28
280
     0
102
RTVSPost2010PropOp28
 70
     0
102
RTVSPost2010Prop29
280
     1
102
RTVSPost2010PropOp29
 70
     0
102
RTVSPost2010Prop30
280
     1
102
RTVSPost2010PropOp30
 70
     0
102
RTVSPost2010Prop31
280
     0
102
RTVSPost2010PropOp31
 70
     0
102
RTVSPost2010Prop32
280
     0
102
RTVSPost2010PropOp32
 70
     0
102
RTVSPost2010Prop33
280
     0
102
RTVSPost2010PropOp33
 70
     0
102
RTVSPost2010Prop34
280
     0
102
RTVSPost2010PropOp34
 70
     0
102
RTVSPost2010Prop35
280
     0
102
RTVSPost2010PropOp35
 70
     0
102
RTVSPost2010Prop36
280
     0
102
RTVSPost2010PropOp36
 70
     0
102
RTVSPost2010Prop37
 90
       50
102
RTVSPost2010PropOp37
 70
     0
102
RTVSPost2010Prop38
140
0.0
102
RTVSPost2010PropOp38
 70
     0
102
RTVSPost2010Prop39
140
1.0
102
RTVSPost2010PropOp39
 70
     0
102
RTVSPost2010Prop40
 90
        0
102
RTVSPost2010PropOp40
 70
     0
102
RTVSPost2010Prop41ColorIndex
 90
      178
102
RTVSPost2010Prop41ColorRGB
 90
        0
102
RTVSPost2010PropOp41
 70
     0
102
RTVSPost2010Prop42
 90
       50
102
RTVSPost2010PropOp42
 70
     0
102
RTVSPost2010Prop43
 90
        3
102
RTVSPost2010PropOp43
 70
     0
102
RTVSPost2010Prop44ColorIndex
 90
        5
102
RTVSPost2010Prop44ColorRGB
 90
      255
102
RTVSPost2010PropOp44
 70
     0
102
RTVSPost2010Prop45
280
     0
102
RTVSPost2010PropOp45
 70
     0
102
RTVSPost2010Prop46
 90
       50
102
RTVSPost2010PropOp46
 70
     0
102
RTVSPost2010Prop47
 90
       50
102
RTVSPost2010PropOp47
 70
     0
102
RTVSPost2010Prop48
 90
       50
102
RTVSPost2010PropOp48
 70
     0
102
RTVSPost2010Prop49
280
     0
102
RTVSPost2010PropOp49
 70
     0
102
RTVSPost2010Prop50
 90
       50
102
RTVSPost2010PropOp50
 70
     0
102
RTVSPost2010Prop51ColorIndex
 90
      256
102
RTVSPost2010Prop51ColorRGB
 90
-16777216
102
RTVSPost2010PropOp51
 70
     0
102
RTVSPost2010Prop52
140
1.0
102
RTVSPost2010PropOp52
 70
     0
102
RTVSPost2010Prop53
 90
        2
102
RTVSPost2010PropOp53
 70
     0
102
RTVSPost2010Prop54
  1
strokes_ogs.tif
102
RTVSPost2010PropOp54
 70
     0
102
RTVSPost2010Prop55
280
     0
102
RTVSPost2010PropOp55
 70
     0
102
RTVSPost2010Prop56
140
1.0
102
RTVSPost2010PropOp56
 70
     0
102
RTVSPost2010Prop57
140
1.0
102
RTVSPost2010PropOp57
 70
     0
  0
XRECORD
  5
347
102
{ACAD_REACTORS
330
346
102
}
330
346
100
AcDbXrecord
280
     1
102
RTVSPropertyOp0
 70
     1
102
RTVSPropertyOp1
 70
     1
102
RTVSPropertyOp2
 70
     1
102
RTVSPropertyOp3
 70
     1
102
RTVSPropertyOp4
 70
     1
102
RTVSPropertyOp5
 70
     1
102
RTVSPropertyOp6
 70
     1
102
RTVSPropertyOp7
 70
     1
102
RTVSPropertyOp8
 70
     1
102
RTVSPropertyOp9
 70
     1
102
RTVSPropertyOp10
 70
     1
102
RTVSPropertyOp11
 70
     1
102
RTVSPropertyOp12
 70
     1
102
RTVSPropertyOp13
 70
     1
102
RTVSPropertyOp14
 70
     1
102
RTVSPropertyOp15
 70
     1
102
RTVSPropertyOp16
 70
     1
102
RTVSPropertyOp17
 70
     1
102
RTVSPropertyOp18
 70
     1
102
RTVSPropertyOp19
 70
     1
102
RTVSPropertyOp20
 70
     1
102
RTVSPropertyOp21
 70
     1
102
RTVSPropertyOp22
 70
     1
102
RTVSPropertyOp23
 70
     1
102
RTVSPropertyOp24
 70
     1
102
RTVSPropertyOp25
 70
     1
102
RTVSPropertyOp26
 70
     1
102
RTVSPropertyOp27
 70
     1
102
RTVSPropertyOp28
 70
     1
102
RTVSPropertyOp29
 70
     1
102
RTVSPropertyOp30
 70
     1
102
RTVSPropertyOp31
 70
     1
102
RTVSPropertyOp32
 70
     1
102
RTVSPropertyOp33
 70
     1
102
RTVSPropertyOp34
 70
     1
102
RTVSPropertyOp35
 70
     1
102
RTVSPropertyOp36
 70
     1
102
RTVSPropertyOp37
 70
     1
102
RTVSPropertyOp38
 70
     1
102
RTVSPropertyOp39
 70
     1
102
RTVSPropertyOp40
 70
     1
102
RTVSPropertyOp41
 70
     1
102
RTVSPropertyOp42
 70
     1
102
RTVSPropertyOp43
 70
     1
102
RTVSPropertyOp44
 70
     1
102
RTVSPropertyOp45
 70
     1
102
RTVSPropertyOp46
 70
     1
102
RTVSPropertyOp47
 70
     1
102
RTVSPropertyOp48
 70
     1
102
RTVSPropertyOp49
 70
     1
102
RTVSPropertyOp50
 70
     1
102
RTVSPropertyOp51
 70
     0
102
RTVSPropertyOp52
 70
     0
102
RTVSPropertyOp53
 70
     1
102
RTVSPropertyOp54
 70
     1
102
RTVSPropertyOp55
 70
     1
102
RTVSPropertyOp56
 70
     1
102
RTVSPropertyOp57
 70
     1
102
RTVSPost2010Prop28
280
     0
102
RTVSPost2010PropOp28
 70
     1
102
RTVSPost2010Prop29
280
     1
102
RTVSPost2010PropOp29
 70
     1
102
RTVSPost2010Prop30
280
     1
102
RTVSPost2010PropOp30
 70
     1
102
RTVSPost2010Prop31
280
     0
102
RTVSPost2010PropOp31
 70
     1
102
RTVSPost2010Prop32
280
     0
102
RTVSPost2010PropOp32
 70
     1
102
RTVSPost2010Prop33
280
     0
102
RTVSPost2010PropOp33
 70
     1
102
RTVSPost2010Prop34
280
     0
102
RTVSPost2010PropOp34
 70
     1
102
RTVSPost2010Prop35
280
     0
102
RTVSPost2010PropOp35
 70
     1
102
RTVSPost2010Prop36
280
     0
102
RTVSPost2010PropOp36
 70
     1
102
RTVSPost2010Prop37
 90
       50
102
RTVSPost2010PropOp37
 70
     1
102
RTVSPost2010Prop38
140
0.0
102
RTVSPost2010PropOp38
 70
     1
102
RTVSPost2010Prop39
140
1.0
102
RTVSPost2010PropOp39
 70
     1
102
RTVSPost2010Prop40
 90
        0
102
RTVSPost2010PropOp40
 70
     1
102
RTVSPost2010Prop41ColorIndex
 90
      178
102
RTVSPost2010Prop41ColorRGB
 90
        0
102
RTVSPost2010PropOp41
 70
     1
102
RTVSPost2010Prop42
 90
       50
102
RTVSPost2010PropOp42
 70
     1
102
RTVSPost2010Prop43
 90
        3
102
RTVSPost2010PropOp43
 70
     1
102
RTVSPost2010Prop44ColorIndex
 90
        5
102
RTVSPost2010Prop44ColorRGB
 90
      255
102
RTVSPost2010PropOp44
 70
     1
102
RTVSPost2010Prop45
280
     0
102
RTVSPost2010PropOp45
 70
     1
102
RTVSPost2010Prop46
 90
       50
102
RTVSPost2010PropOp46
 70
     1
102
RTVSPost2010Prop47
 90
       50
102
RTVSPost2010PropOp47
 70
     1
102
RTVSPost2010Prop48
 90
       50
102
RTVSPost2010PropOp48
 70
     1
102
RTVSPost2010Prop49
280
     0
102
RTVSPost2010PropOp49
 70
     1
102
RTVSPost2010Prop50
 90
       50
102
RTVSPost2010PropOp50
 70
     1
102
RTVSPost2010Prop51ColorIndex
 90
      256
102
RTVSPost2010Prop51ColorRGB
 90
-16777216
102
RTVSPost2010PropOp51
 70
     0
102
RTVSPost2010Prop52
140
1.0
102
RTVSPost2010PropOp52
 70
     0
102
RTVSPost2010Prop53
 90
        2
102
RTVSPost2010PropOp53
 70
     1
102
RTVSPost2010Prop54
  1
strokes_ogs.tif
102
RTVSPost2010PropOp54
 70
     1
102
RTVSPost2010Prop55
280
     0
102
RTVSPost2010PropOp55
 70
     1
102
RTVSPost2010Prop56
140
1.0
102
RTVSPost2010PropOp56
 70
     1
102
RTVSPost2010Prop57
140
1.0
102
RTVSPost2010PropOp57
 70
     1
  0
XRECORD
  5
32B
102
{ACAD_REACTORS
330
32A
102
}
330
32A
100
AcDbXrecord
280
     1
102
RTVSPropertyOp0
 70
     1
102
RTVSPropertyOp1
 70
     1
102
RTVSPropertyOp2
 70
     1
102
RTVSPropertyOp3
 70
     1
102
RTVSPropertyOp4
 70
     1
102
RTVSPropertyOp5
 70
     1
102
RTVSPropertyOp6
 70
     1
102
RTVSPropertyOp7
 70
     1
102
RTVSPropertyOp8
 70
     1
102
RTVSPropertyOp9
 70
     1
102
RTVSPropertyOp10
 70
     1
102
RTVSPropertyOp11
 70
     1
102
RTVSPropertyOp12
 70
     1
102
RTVSPropertyOp13
 70
     1
102
RTVSPropertyOp14
 70
     1
102
RTVSPropertyOp15
 70
     1
102
RTVSPropertyOp16
 70
     1
102
RTVSPropertyOp17
 70
     1
102
RTVSPropertyOp18
 70
     1
102
RTVSPropertyOp19
 70
     1
102
RTVSPropertyOp20
 70
     1
102
RTVSPropertyOp21
 70
     1
102
RTVSPropertyOp22
 70
     1
102
RTVSPropertyOp23
 70
     1
102
RTVSPropertyOp24
 70
     1
102
RTVSPropertyOp25
 70
     1
102
RTVSPropertyOp26
 70
     1
102
RTVSPropertyOp27
 70
     1
102
RTVSPropertyOp28
 70
     1
102
RTVSPropertyOp29
 70
     1
102
RTVSPropertyOp30
 70
     1
102
RTVSPropertyOp31
 70
     1
102
RTVSPropertyOp32
 70
     1
102
RTVSPropertyOp33
 70
     1
102
RTVSPropertyOp34
 70
     1
102
RTVSPropertyOp35
 70
     1
102
RTVSPropertyOp36
 70
     1
102
RTVSPropertyOp37
 70
     1
102
RTVSPropertyOp38
 70
     1
102
RTVSPropertyOp39
 70
     1
102
RTVSPropertyOp40
 70
     1
102
RTVSPropertyOp41
 70
     1
102
RTVSPropertyOp42
 70
     1
102
RTVSPropertyOp43
 70
     1
102
RTVSPropertyOp44
 70
     1
102
RTVSPropertyOp45
 70
     1
102
RTVSPropertyOp46
 70
     1
102
RTVSPropertyOp47
 70
     1
102
RTVSPropertyOp48
 70
     1
102
RTVSPropertyOp49
 70
     1
102
RTVSPropertyOp50
 70
     1
102
RTVSPropertyOp51
 70
     0
102
RTVSPropertyOp52
 70
     0
102
RTVSPropertyOp53
 70
     1
102
RTVSPropertyOp54
 70
     1
102
RTVSPropertyOp55
 70
     1
102
RTVSPropertyOp56
 70
     1
102
RTVSPropertyOp57
 70
     1
102
RTVSPost2010Prop28
280
     0
102
RTVSPost2010PropOp28
 70
     1
102
RTVSPost2010Prop29
280
     1
102
RTVSPost2010PropOp29
 70
     1
102
RTVSPost2010Prop30
280
     1
102
RTVSPost2010PropOp30
 70
     1
102
RTVSPost2010Prop31
280
     0
102
RTVSPost2010PropOp31
 70
     1
102
RTVSPost2010Prop32
280
     0
102
RTVSPost2010PropOp32
 70
     1
102
RTVSPost2010Prop33
280
     0
102
RTVSPost2010PropOp33
 70
     1
102
RTVSPost2010Prop34
280
     0
102
RTVSPost2010PropOp34
 70
     1
102
RTVSPost2010Prop35
280
     0
102
RTVSPost2010PropOp35
 70
     1
102
RTVSPost2010Prop36
280
     0
102
RTVSPost2010PropOp36
 70
     1
102
RTVSPost2010Prop37
 90
       50
102
RTVSPost2010PropOp37
 70
     1
102
RTVSPost2010Prop38
140
0.0
102
RTVSPost2010PropOp38
 70
     1
102
RTVSPost2010Prop39
140
1.0
102
RTVSPost2010PropOp39
 70
     1
102
RTVSPost2010Prop40
 90
        0
102
RTVSPost2010PropOp40
 70
     1
102
RTVSPost2010Prop41ColorIndex
 90
      178
102
RTVSPost2010Prop41ColorRGB
 90
        0
102
RTVSPost2010PropOp41
 70
     1
102
RTVSPost2010Prop42
 90
       50
102
RTVSPost2010PropOp42
 70
     1
102
RTVSPost2010Prop43
 90
        3
102
RTVSPost2010PropOp43
 70
     1
102
RTVSPost2010Prop44ColorIndex
 90
        5
102
RTVSPost2010Prop44ColorRGB
 90
      255
102
RTVSPost2010PropOp44
 70
     1
102
RTVSPost2010Prop45
280
     0
102
RTVSPost2010PropOp45
 70
     1
102
RTVSPost2010Prop46
 90
       50
102
RTVSPost2010PropOp46
 70
     1
102
RTVSPost2010Prop47
 90
       50
102
RTVSPost2010PropOp47
 70
     1
102
RTVSPost2010Prop48
 90
       50
102
RTVSPost2010PropOp48
 70
     1
102
RTVSPost2010Prop49
280
     0
102
RTVSPost2010PropOp49
 70
     1
102
RTVSPost2010Prop50
 90
       50
102
RTVSPost2010PropOp50
 70
     1
102
RTVSPost2010Prop51ColorIndex
 90
      256
102
RTVSPost2010Prop51ColorRGB
 90
-16777216
102
RTVSPost2010PropOp51
 70
     0
102
RTVSPost2010Prop52
140
1.0
102
RTVSPost2010PropOp52
 70
     0
102
RTVSPost2010Prop53
 90
        2
102
RTVSPost2010PropOp53
 70
     1
102
RTVSPost2010Prop54
  1
strokes_ogs.tif
102
RTVSPost2010PropOp54
 70
     1
102
RTVSPost2010Prop55
280
     0
102
RTVSPost2010PropOp55
 70
     1
102
RTVSPost2010Prop56
140
1.0
102
RTVSPost2010PropOp56
 70
     1
102
RTVSPost2010Prop57
140
1.0
102
RTVSPost2010PropOp57
 70
     1
  0
XRECORD
  5
32D
102
{ACAD_REACTORS
330
32C
102
}
330
32C
100
AcDbXrecord
280
     1
102
RTVSPropertyOp0
 70
     1
102
RTVSPropertyOp1
 70
     1
102
RTVSPropertyOp2
 70
     1
102
RTVSPropertyOp3
 70
     1
102
RTVSPropertyOp4
 70
     1
102
RTVSPropertyOp5
 70
     1
102
RTVSPropertyOp6
 70
     1
102
RTVSPropertyOp7
 70
     1
102
RTVSPropertyOp8
 70
     1
102
RTVSPropertyOp9
 70
     1
102
RTVSPropertyOp10
 70
     1
102
RTVSPropertyOp11
 70
     1
102
RTVSPropertyOp12
 70
     1
102
RTVSPropertyOp13
 70
     1
102
RTVSPropertyOp14
 70
     1
102
RTVSPropertyOp15
 70
     1
102
RTVSPropertyOp16
 70
     1
102
RTVSPropertyOp17
 70
     1
102
RTVSPropertyOp18
 70
     1
102
RTVSPropertyOp19
 70
     1
102
RTVSPropertyOp20
 70
     1
102
RTVSPropertyOp21
 70
     1
102
RTVSPropertyOp22
 70
     1
102
RTVSPropertyOp23
 70
     1
102
RTVSPropertyOp24
 70
     1
102
RTVSPropertyOp25
 70
     1
102
RTVSPropertyOp26
 70
     1
102
RTVSPropertyOp27
 70
     1
102
RTVSPropertyOp28
 70
     1
102
RTVSPropertyOp29
 70
     1
102
RTVSPropertyOp30
 70
     1
102
RTVSPropertyOp31
 70
     1
102
RTVSPropertyOp32
 70
     1
102
RTVSPropertyOp33
 70
     1
102
RTVSPropertyOp34
 70
     1
102
RTVSPropertyOp35
 70
     1
102
RTVSPropertyOp36
 70
     1
102
RTVSPropertyOp37
 70
     1
102
RTVSPropertyOp38
 70
     1
102
RTVSPropertyOp39
 70
     1
102
RTVSPropertyOp40
 70
     1
102
RTVSPropertyOp41
 70
     1
102
RTVSPropertyOp42
 70
     1
102
RTVSPropertyOp43
 70
     1
102
RTVSPropertyOp44
 70
     1
102
RTVSPropertyOp45
 70
     1
102
RTVSPropertyOp46
 70
     1
102
RTVSPropertyOp47
 70
     1
102
RTVSPropertyOp48
 70
     1
102
RTVSPropertyOp49
 70
     1
102
RTVSPropertyOp50
 70
     1
102
RTVSPropertyOp51
 70
     0
102
RTVSPropertyOp52
 70
     0
102
RTVSPropertyOp53
 70
     1
102
RTVSPropertyOp54
 70
     1
102
RTVSPropertyOp55
 70
     1
102
RTVSPropertyOp56
 70
     1
102
RTVSPropertyOp57
 70
     1
102
RTVSPost2010Prop28
280
     0
102
RTVSPost2010PropOp28
 70
     1
102
RTVSPost2010Prop29
280
     1
102
RTVSPost2010PropOp29
 70
     1
102
RTVSPost2010Prop30
280
     1
102
RTVSPost2010PropOp30
 70
     1
102
RTVSPost2010Prop31
280
     0
102
RTVSPost2010PropOp31
 70
     1
102
RTVSPost2010Prop32
280
     0
102
RTVSPost2010PropOp32
 70
     1
102
RTVSPost2010Prop33
280
     0
102
RTVSPost2010PropOp33
 70
     1
102
RTVSPost2010Prop34
280
     0
102
RTVSPost2010PropOp34
 70
     1
102
RTVSPost2010Prop35
280
     0
102
RTVSPost2010PropOp35
 70
     1
102
RTVSPost2010Prop36
280
     0
102
RTVSPost2010PropOp36
 70
     1
102
RTVSPost2010Prop37
 90
       50
102
RTVSPost2010PropOp37
 70
     1
102
RTVSPost2010Prop38
140
0.0
102
RTVSPost2010PropOp38
 70
     1
102
RTVSPost2010Prop39
140
1.0
102
RTVSPost2010PropOp39
 70
     1
102
RTVSPost2010Prop40
 90
        0
102
RTVSPost2010PropOp40
 70
     1
102
RTVSPost2010Prop41ColorIndex
 90
      178
102
RTVSPost2010Prop41ColorRGB
 90
        0
102
RTVSPost2010PropOp41
 70
     1
102
RTVSPost2010Prop42
 90
       50
102
RTVSPost2010PropOp42
 70
     1
102
RTVSPost2010Prop43
 90
        3
102
RTVSPost2010PropOp43
 70
     1
102
RTVSPost2010Prop44ColorIndex
 90
        5
102
RTVSPost2010Prop44ColorRGB
 90
      255
102
RTVSPost2010PropOp44
 70
     1
102
RTVSPost2010Prop45
280
     0
102
RTVSPost2010PropOp45
 70
     1
102
RTVSPost2010Prop46
 90
       50
102
RTVSPost2010PropOp46
 70
     1
102
RTVSPost2010Prop47
 90
       50
102
RTVSPost2010PropOp47
 70
     1
102
RTVSPost2010Prop48
 90
       50
102
RTVSPost2010PropOp48
 70
     1
102
RTVSPost2010Prop49
280
     0
102
RTVSPost2010PropOp49
 70
     1
102
RTVSPost2010Prop50
 90
       50
102
RTVSPost2010PropOp50
 70
     1
102
RTVSPost2010Prop51ColorIndex
 90
      256
102
RTVSPost2010Prop51ColorRGB
 90
-16777216
102
RTVSPost2010PropOp51
 70
     0
102
RTVSPost2010Prop52
140
1.0
102
RTVSPost2010PropOp52
 70
     0
102
RTVSPost2010Prop53
 90
        2
102
RTVSPost2010PropOp53
 70
     1
102
RTVSPost2010Prop54
  1
strokes_ogs.tif
102
RTVSPost2010PropOp54
 70
     1
102
RTVSPost2010Prop55
280
     0
102
RTVSPost2010PropOp55
 70
     1
102
RTVSPost2010Prop56
140
1.0
102
RTVSPost2010PropOp56
 70
     1
102
RTVSPost2010Prop57
140
1.0
102
RTVSPost2010PropOp57
 70
     1
  0
XRECORD
  5
32F
102
{ACAD_REACTORS
330
32E
102
}
330
32E
100
AcDbXrecord
280
     1
102
RTVSPropertyOp0
 70
     1
102
RTVSPropertyOp1
 70
     1
102
RTVSPropertyOp2
 70
     1
102
RTVSPropertyOp3
 70
     1
102
RTVSPropertyOp4
 70
     1
102
RTVSPropertyOp5
 70
     1
102
RTVSPropertyOp6
 70
     1
102
RTVSPropertyOp7
 70
     1
102
RTVSPropertyOp8
 70
     1
102
RTVSPropertyOp9
 70
     1
102
RTVSPropertyOp10
 70
     1
102
RTVSPropertyOp11
 70
     1
102
RTVSPropertyOp12
 70
     1
102
RTVSPropertyOp13
 70
     1
102
RTVSPropertyOp14
 70
     1
102
RTVSPropertyOp15
 70
     1
102
RTVSPropertyOp16
 70
     1
102
RTVSPropertyOp17
 70
     1
102
RTVSPropertyOp18
 70
     1
102
RTVSPropertyOp19
 70
     1
102
RTVSPropertyOp20
 70
     1
102
RTVSPropertyOp21
 70
     1
102
RTVSPropertyOp22
 70
     1
102
RTVSPropertyOp23
 70
     1
102
RTVSPropertyOp24
 70
     1
102
RTVSPropertyOp25
 70
     1
102
RTVSPropertyOp26
 70
     1
102
RTVSPropertyOp27
 70
     1
102
RTVSPropertyOp28
 70
     1
102
RTVSPropertyOp29
 70
     1
102
RTVSPropertyOp30
 70
     1
102
RTVSPropertyOp31
 70
     1
102
RTVSPropertyOp32
 70
     1
102
RTVSPropertyOp33
 70
     1
102
RTVSPropertyOp34
 70
     1
102
RTVSPropertyOp35
 70
     1
102
RTVSPropertyOp36
 70
     1
102
RTVSPropertyOp37
 70
     1
102
RTVSPropertyOp38
 70
     1
102
RTVSPropertyOp39
 70
     1
102
RTVSPropertyOp40
 70
     1
102
RTVSPropertyOp41
 70
     1
102
RTVSPropertyOp42
 70
     1
102
RTVSPropertyOp43
 70
     1
102
RTVSPropertyOp44
 70
     1
102
RTVSPropertyOp45
 70
     1
102
RTVSPropertyOp46
 70
     1
102
RTVSPropertyOp47
 70
     1
102
RTVSPropertyOp48
 70
     1
102
RTVSPropertyOp49
 70
     1
102
RTVSPropertyOp50
 70
     1
102
RTVSPropertyOp51
 70
     0
102
RTVSPropertyOp52
 70
     0
102
RTVSPropertyOp53
 70
     1
102
RTVSPropertyOp54
 70
     1
102
RTVSPropertyOp55
 70
     1
102
RTVSPropertyOp56
 70
     1
102
RTVSPropertyOp57
 70
     1
102
RTVSPost2010Prop28
280
     0
102
RTVSPost2010PropOp28
 70
     1
102
RTVSPost2010Prop29
280
     1
102
RTVSPost2010PropOp29
 70
     1
102
RTVSPost2010Prop30
280
     1
102
RTVSPost2010PropOp30
 70
     1
102
RTVSPost2010Prop31
280
     0
102
RTVSPost2010PropOp31
 70
     1
102
RTVSPost2010Prop32
280
     0
102
RTVSPost2010PropOp32
 70
     1
102
RTVSPost2010Prop33
280
     0
102
RTVSPost2010PropOp33
 70
     1
102
RTVSPost2010Prop34
280
     0
102
RTVSPost2010PropOp34
 70
     1
102
RTVSPost2010Prop35
280
     0
102
RTVSPost2010PropOp35
 70
     1
102
RTVSPost2010Prop36
280
     0
102
RTVSPost2010PropOp36
 70
     1
102
RTVSPost2010Prop37
 90
       50
102
RTVSPost2010PropOp37
 70
     1
102
RTVSPost2010Prop38
140
0.0
102
RTVSPost2010PropOp38
 70
     1
102
RTVSPost2010Prop39
140
1.0
102
RTVSPost2010PropOp39
 70
     1
102
RTVSPost2010Prop40
 90
        0
102
RTVSPost2010PropOp40
 70
     1
102
RTVSPost2010Prop41ColorIndex
 90
      178
102
RTVSPost2010Prop41ColorRGB
 90
        0
102
RTVSPost2010PropOp41
 70
     1
102
RTVSPost2010Prop42
 90
       50
102
RTVSPost2010PropOp42
 70
     1
102
RTVSPost2010Prop43
 90
        3
102
RTVSPost2010PropOp43
 70
     1
102
RTVSPost2010Prop44ColorIndex
 90
        5
102
RTVSPost2010Prop44ColorRGB
 90
      255
102
RTVSPost2010PropOp44
 70
     1
102
RTVSPost2010Prop45
280
     0
102
RTVSPost2010PropOp45
 70
     1
102
RTVSPost2010Prop46
 90
       50
102
RTVSPost2010PropOp46
 70
     1
102
RTVSPost2010Prop47
 90
       50
102
RTVSPost2010PropOp47
 70
     1
102
RTVSPost2010Prop48
 90
       50
102
RTVSPost2010PropOp48
 70
     1
102
RTVSPost2010Prop49
280
     0
102
RTVSPost2010PropOp49
 70
     1
102
RTVSPost2010Prop50
 90
       50
102
RTVSPost2010PropOp50
 70
     1
102
RTVSPost2010Prop51ColorIndex
 90
      256
102
RTVSPost2010Prop51ColorRGB
 90
-16777216
102
RTVSPost2010PropOp51
 70
     0
102
RTVSPost2010Prop52
140
1.0
102
RTVSPost2010PropOp52
 70
     0
102
RTVSPost2010Prop53
 90
        2
102
RTVSPost2010PropOp53
 70
     1
102
RTVSPost2010Prop54
  1
strokes_ogs.tif
102
RTVSPost2010PropOp54
 70
     1
102
RTVSPost2010Prop55
280
     0
102
RTVSPost2010PropOp55
 70
     1
102
RTVSPost2010Prop56
140
1.0
102
RTVSPost2010PropOp56
 70
     1
102
RTVSPost2010Prop57
140
1.0
102
RTVSPost2010PropOp57
 70
     1
  0
XRECORD
  5
331
102
{ACAD_REACTORS
330
330
102
}
330
330
100
AcDbXrecord
280
     1
102
RTVSPropertyOp0
 70
     1
102
RTVSPropertyOp1
 70
     1
102
RTVSPropertyOp2
 70
     1
102
RTVSPropertyOp3
 70
     1
102
RTVSPropertyOp4
 70
     1
102
RTVSPropertyOp5
 70
     1
102
RTVSPropertyOp6
 70
     1
102
RTVSPropertyOp7
 70
     1
102
RTVSPropertyOp8
 70
     1
102
RTVSPropertyOp9
 70
     1
102
RTVSPropertyOp10
 70
     1
102
RTVSPropertyOp11
 70
     1
102
RTVSPropertyOp12
 70
     1
102
RTVSPropertyOp13
 70
     1
102
RTVSPropertyOp14
 70
     1
102
RTVSPropertyOp15
 70
     1
102
RTVSPropertyOp16
 70
     1
102
RTVSPropertyOp17
 70
     1
102
RTVSPropertyOp18
 70
     1
102
RTVSPropertyOp19
 70
     1
102
RTVSPropertyOp20
 70
     1
102
RTVSPropertyOp21
 70
     1
102
RTVSPropertyOp22
 70
     1
102
RTVSPropertyOp23
 70
     1
102
RTVSPropertyOp24
 70
     1
102
RTVSPropertyOp25
 70
     1
102
RTVSPropertyOp26
 70
     1
102
RTVSPropertyOp27
 70
     1
102
RTVSPropertyOp28
 70
     1
102
RTVSPropertyOp29
 70
     1
102
RTVSPropertyOp30
 70
     1
102
RTVSPropertyOp31
 70
     1
102
RTVSPropertyOp32
 70
     1
102
RTVSPropertyOp33
 70
     1
102
RTVSPropertyOp34
 70
     1
102
RTVSPropertyOp35
 70
     1
102
RTVSPropertyOp36
 70
     1
102
RTVSPropertyOp37
 70
     1
102
RTVSPropertyOp38
 70
     1
102
RTVSPropertyOp39
 70
     1
102
RTVSPropertyOp40
 70
     1
102
RTVSPropertyOp41
 70
     1
102
RTVSPropertyOp42
 70
     1
102
RTVSPropertyOp43
 70
     1
102
RTVSPropertyOp44
 70
     1
102
RTVSPropertyOp45
 70
     1
102
RTVSPropertyOp46
 70
     1
102
RTVSPropertyOp47
 70
     1
102
RTVSPropertyOp48
 70
     1
102
RTVSPropertyOp49
 70
     1
102
RTVSPropertyOp50
 70
     1
102
RTVSPropertyOp51
 70
     0
102
RTVSPropertyOp52
 70
     0
102
RTVSPropertyOp53
 70
     1
102
RTVSPropertyOp54
 70
     1
102
RTVSPropertyOp55
 70
     1
102
RTVSPropertyOp56
 70
     1
102
RTVSPropertyOp57
 70
     1
102
RTVSPost2010Prop28
280
     0
102
RTVSPost2010PropOp28
 70
     1
102
RTVSPost2010Prop29
280
     1
102
RTVSPost2010PropOp29
 70
     1
102
RTVSPost2010Prop30
280
     1
102
RTVSPost2010PropOp30
 70
     1
102
RTVSPost2010Prop31
280
     0
102
RTVSPost2010PropOp31
 70
     1
102
RTVSPost2010Prop32
280
     0
102
RTVSPost2010PropOp32
 70
     1
102
RTVSPost2010Prop33
280
     0
102
RTVSPost2010PropOp33
 70
     1
102
RTVSPost2010Prop34
280
     0
102
RTVSPost2010PropOp34
 70
     1
102
RTVSPost2010Prop35
280
     0
102
RTVSPost2010PropOp35
 70
     1
102
RTVSPost2010Prop36
280
     0
102
RTVSPost2010PropOp36
 70
     1
102
RTVSPost2010Prop37
 90
       50
102
RTVSPost2010PropOp37
 70
     1
102
RTVSPost2010Prop38
140
0.0
102
RTVSPost2010PropOp38
 70
     1
102
RTVSPost2010Prop39
140
1.0
102
RTVSPost2010PropOp39
 70
     1
102
RTVSPost2010Prop40
 90
        0
102
RTVSPost2010PropOp40
 70
     1
102
RTVSPost2010Prop41ColorIndex
 90
      178
102
RTVSPost2010Prop41ColorRGB
 90
        0
102
RTVSPost2010PropOp41
 70
     1
102
RTVSPost2010Prop42
 90
       50
102
RTVSPost2010PropOp42
 70
     1
102
RTVSPost2010Prop43
 90
        3
102
RTVSPost2010PropOp43
 70
     1
102
RTVSPost2010Prop44ColorIndex
 90
        5
102
RTVSPost2010Prop44ColorRGB
 90
      255
102
RTVSPost2010PropOp44
 70
     1
102
RTVSPost2010Prop45
280
     0
102
RTVSPost2010PropOp45
 70
     1
102
RTVSPost2010Prop46
 90
       50
102
RTVSPost2010PropOp46
 70
     1
102
RTVSPost2010Prop47
 90
       50
102
RTVSPost2010PropOp47
 70
     1
102
RTVSPost2010Prop48
 90
       50
102
RTVSPost2010PropOp48
 70
     1
102
RTVSPost2010Prop49
280
     0
102
RTVSPost2010PropOp49
 70
     1
102
RTVSPost2010Prop50
 90
       50
102
RTVSPost2010PropOp50
 70
     1
102
RTVSPost2010Prop51ColorIndex
 90
      256
102
RTVSPost2010Prop51ColorRGB
 90
-16777216
102
RTVSPost2010PropOp51
 70
     0
102
RTVSPost2010Prop52
140
1.0
102
RTVSPost2010PropOp52
 70
     0
102
RTVSPost2010Prop53
 90
        2
102
RTVSPost2010PropOp53
 70
     1
102
RTVSPost2010Prop54
  1
strokes_ogs.tif
102
RTVSPost2010PropOp54
 70
     1
102
RTVSPost2010Prop55
280
     0
102
RTVSPost2010PropOp55
 70
     1
102
RTVSPost2010Prop56
140
1.0
102
RTVSPost2010PropOp56
 70
     1
102
RTVSPost2010Prop57
140
1.0
102
RTVSPost2010PropOp57
 70
     1
  0
XRECORD
  5
337
102
{ACAD_REACTORS
330
336
102
}
330
336
100
AcDbXrecord
280
     1
102
RTVSPropertyOp0
 70
     1
102
RTVSPropertyOp1
 70
     1
102
RTVSPropertyOp2
 70
     1
102
RTVSPropertyOp3
 70
     1
102
RTVSPropertyOp4
 70
     1
102
RTVSPropertyOp5
 70
     1
102
RTVSPropertyOp6
 70
     1
102
RTVSPropertyOp7
 70
     1
102
RTVSPropertyOp8
 70
     1
102
RTVSPropertyOp9
 70
     1
102
RTVSPropertyOp10
 70
     1
102
RTVSPropertyOp11
 70
     1
102
RTVSPropertyOp12
 70
     1
102
RTVSPropertyOp13
 70
     1
102
RTVSPropertyOp14
 70
     1
102
RTVSPropertyOp15
 70
     1
102
RTVSPropertyOp16
 70
     1
102
RTVSPropertyOp17
 70
     1
102
RTVSPropertyOp18
 70
     1
102
RTVSPropertyOp19
 70
     1
102
RTVSPropertyOp20
 70
     1
102
RTVSPropertyOp21
 70
     1
102
RTVSPropertyOp22
 70
     1
102
RTVSPropertyOp23
 70
     1
102
RTVSPropertyOp24
 70
     1
102
RTVSPropertyOp25
 70
     1
102
RTVSPropertyOp26
 70
     1
102
RTVSPropertyOp27
 70
     1
102
RTVSPropertyOp28
 70
     1
102
RTVSPropertyOp29
 70
     1
102
RTVSPropertyOp30
 70
     1
102
RTVSPropertyOp31
 70
     1
102
RTVSPropertyOp32
 70
     1
102
RTVSPropertyOp33
 70
     1
102
RTVSPropertyOp34
 70
     1
102
RTVSPropertyOp35
 70
     1
102
RTVSPropertyOp36
 70
     1
102
RTVSPropertyOp37
 70
     1
102
RTVSPropertyOp38
 70
     1
102
RTVSPropertyOp39
 70
     1
102
RTVSPropertyOp40
 70
     1
102
RTVSPropertyOp41
 70
     1
102
RTVSPropertyOp42
 70
     1
102
RTVSPropertyOp43
 70
     1
102
RTVSPropertyOp44
 70
     1
102
RTVSPropertyOp45
 70
     1
102
RTVSPropertyOp46
 70
     1
102
RTVSPropertyOp47
 70
     1
102
RTVSPropertyOp48
 70
     1
102
RTVSPropertyOp49
 70
     1
102
RTVSPropertyOp50
 70
     1
102
RTVSPropertyOp51
 70
     0
102
RTVSPropertyOp52
 70
     0
102
RTVSPropertyOp53
 70
     1
102
RTVSPropertyOp54
 70
     1
102
RTVSPropertyOp55
 70
     1
102
RTVSPropertyOp56
 70
     1
102
RTVSPropertyOp57
 70
     1
102
RTVSPost2010Prop28
280
     0
102
RTVSPost2010PropOp28
 70
     1
102
RTVSPost2010Prop29
280
     1
102
RTVSPost2010PropOp29
 70
     1
102
RTVSPost2010Prop30
280
     1
102
RTVSPost2010PropOp30
 70
     1
102
RTVSPost2010Prop31
280
     0
102
RTVSPost2010PropOp31
 70
     1
102
RTVSPost2010Prop32
280
     0
102
RTVSPost2010PropOp32
 70
     1
102
RTVSPost2010Prop33
280
     0
102
RTVSPost2010PropOp33
 70
     1
102
RTVSPost2010Prop34
280
     0
102
RTVSPost2010PropOp34
 70
     1
102
RTVSPost2010Prop35
280
     0
102
RTVSPost2010PropOp35
 70
     1
102
RTVSPost2010Prop36
280
     0
102
RTVSPost2010PropOp36
 70
     1
102
RTVSPost2010Prop37
 90
       50
102
RTVSPost2010PropOp37
 70
     1
102
RTVSPost2010Prop38
140
0.0
102
RTVSPost2010PropOp38
 70
     1
102
RTVSPost2010Prop39
140
1.0
102
RTVSPost2010PropOp39
 70
     1
102
RTVSPost2010Prop40
 90
        0
102
RTVSPost2010PropOp40
 70
     1
102
RTVSPost2010Prop41ColorIndex
 90
      178
102
RTVSPost2010Prop41ColorRGB
 90
        0
102
RTVSPost2010PropOp41
 70
     1
102
RTVSPost2010Prop42
 90
       50
102
RTVSPost2010PropOp42
 70
     1
102
RTVSPost2010Prop43
 90
        3
102
RTVSPost2010PropOp43
 70
     1
102
RTVSPost2010Prop44ColorIndex
 90
        5
102
RTVSPost2010Prop44ColorRGB
 90
      255
102
RTVSPost2010PropOp44
 70
     1
102
RTVSPost2010Prop45
280
     0
102
RTVSPost2010PropOp45
 70
     1
102
RTVSPost2010Prop46
 90
       50
102
RTVSPost2010PropOp46
 70
     1
102
RTVSPost2010Prop47
 90
       50
102
RTVSPost2010PropOp47
 70
     1
102
RTVSPost2010Prop48
 90
       50
102
RTVSPost2010PropOp48
 70
     1
102
RTVSPost2010Prop49
280
     0
102
RTVSPost2010PropOp49
 70
     1
102
RTVSPost2010Prop50
 90
       50
102
RTVSPost2010PropOp50
 70
     1
102
RTVSPost2010Prop51ColorIndex
 90
      256
102
RTVSPost2010Prop51ColorRGB
 90
-16777216
102
RTVSPost2010PropOp51
 70
     0
102
RTVSPost2010Prop52
140
1.0
102
RTVSPost2010PropOp52
 70
     0
102
RTVSPost2010Prop53
 90
        2
102
RTVSPost2010PropOp53
 70
     1
102
RTVSPost2010Prop54
  1
strokes_ogs.tif
102
RTVSPost2010PropOp54
 70
     1
102
RTVSPost2010Prop55
280
     0
102
RTVSPost2010PropOp55
 70
     1
102
RTVSPost2010Prop56
140
1.0
102
RTVSPost2010PropOp56
 70
     1
102
RTVSPost2010Prop57
140
1.0
102
RTVSPost2010PropOp57
 70
     1
  0
XRECORD
  5
34B
102
{ACAD_REACTORS
330
34A
102
}
330
34A
100
AcDbXrecord
280
     1
102
RTVSPropertyOp0
 70
     0
102
RTVSPropertyOp1
 70
     0
102
RTVSPropertyOp2
 70
     0
102
RTVSPropertyOp3
 70
     0
102
RTVSPropertyOp4
 70
     0
102
RTVSPropertyOp5
 70
     0
102
RTVSPropertyOp6
 70
     0
102
RTVSPropertyOp7
 70
     0
102
RTVSPropertyOp8
 70
     0
102
RTVSPropertyOp9
 70
     0
102
RTVSPropertyOp10
 70
     0
102
RTVSPropertyOp11
 70
     0
102
RTVSPropertyOp12
 70
     0
102
RTVSPropertyOp13
 70
     0
102
RTVSPropertyOp14
 70
     2
102
RTVSPropertyOp15
 70
     0
102
RTVSPropertyOp16
 70
     0
102
RTVSPropertyOp17
 70
     0
102
RTVSPropertyOp18
 70
     0
102
RTVSPropertyOp19
 70
     0
102
RTVSPropertyOp20
 70
     0
102
RTVSPropertyOp21
 70
     0
102
RTVSPropertyOp22
 70
     0
102
RTVSPropertyOp23
 70
     0
102
RTVSPropertyOp24
 70
     0
102
RTVSPropertyOp25
 70
     0
102
RTVSPropertyOp26
 70
     0
102
RTVSPropertyOp27
 70
     0
102
RTVSPropertyOp28
 70
     0
102
RTVSPropertyOp29
 70
     0
102
RTVSPropertyOp30
 70
     0
102
RTVSPropertyOp31
 70
     0
102
RTVSPropertyOp32
 70
     0
102
RTVSPropertyOp33
 70
     0
102
RTVSPropertyOp34
 70
     0
102
RTVSPropertyOp35
 70
     0
102
RTVSPropertyOp36
 70
     0
102
RTVSPropertyOp37
 70
     0
102
RTVSPropertyOp38
 70
     0
102
RTVSPropertyOp39
 70
     0
102
RTVSPropertyOp40
 70
     0
102
RTVSPropertyOp41
 70
     0
102
RTVSPropertyOp42
 70
     0
102
RTVSPropertyOp43
 70
     0
102
RTVSPropertyOp44
 70
     0
102
RTVSPropertyOp45
 70
     0
102
RTVSPropertyOp46
 70
     0
102
RTVSPropertyOp47
 70
     0
102
RTVSPropertyOp48
 70
     0
102
RTVSPropertyOp49
 70
     0
102
RTVSPropertyOp50
 70
     0
102
RTVSPropertyOp51
 70
     0
102
RTVSPropertyOp52
 70
     0
102
RTVSPropertyOp53
 70
     0
102
RTVSPropertyOp54
 70
     0
102
RTVSPropertyOp55
 70
     0
102
RTVSPropertyOp56
 70
     0
102
RTVSPropertyOp57
 70
     0
102
RTVSPost2010Prop28
280
     0
102
RTVSPost2010PropOp28
 70
     0
102
RTVSPost2010Prop29
280
     1
102
RTVSPost2010PropOp29
 70
     0
102
RTVSPost2010Prop30
280
     1
102
RTVSPost2010PropOp30
 70
     0
102
RTVSPost2010Prop31
280
     0
102
RTVSPost2010PropOp31
 70
     0
102
RTVSPost2010Prop32
280
     0
102
RTVSPost2010PropOp32
 70
     0
102
RTVSPost2010Prop33
280
     0
102
RTVSPost2010PropOp33
 70
     0
102
RTVSPost2010Prop34
280
     0
102
RTVSPost2010PropOp34
 70
     0
102
RTVSPost2010Prop35
280
     0
102
RTVSPost2010PropOp35
 70
     0
102
RTVSPost2010Prop36
280
     0
102
RTVSPost2010PropOp36
 70
     0
102
RTVSPost2010Prop37
 90
       50
102
RTVSPost2010PropOp37
 70
     0
102
RTVSPost2010Prop38
140
0.0
102
RTVSPost2010PropOp38
 70
     0
102
RTVSPost2010Prop39
140
1.0
102
RTVSPost2010PropOp39
 70
     0
102
RTVSPost2010Prop40
 90
        0
102
RTVSPost2010PropOp40
 70
     0
102
RTVSPost2010Prop41ColorIndex
 90
      178
102
RTVSPost2010Prop41ColorRGB
 90
        0
102
RTVSPost2010PropOp41
 70
     0
102
RTVSPost2010Prop42
 90
       50
102
RTVSPost2010PropOp42
 70
     0
102
RTVSPost2010Prop43
 90
        3
102
RTVSPost2010PropOp43
 70
     0
102
RTVSPost2010Prop44ColorIndex
 90
        5
102
RTVSPost2010Prop44ColorRGB
 90
      255
102
RTVSPost2010PropOp44
 70
     0
102
RTVSPost2010Prop45
280
     0
102
RTVSPost2010PropOp45
 70
     0
102
RTVSPost2010Prop46
 90
       50
102
RTVSPost2010PropOp46
 70
     0
102
RTVSPost2010Prop47
 90
       50
102
RTVSPost2010PropOp47
 70
     0
102
RTVSPost2010Prop48
 90
       50
102
RTVSPost2010PropOp48
 70
     0
102
RTVSPost2010Prop49
280
     0
102
RTVSPost2010PropOp49
 70
     0
102
RTVSPost2010Prop50
 90
       50
102
RTVSPost2010PropOp50
 70
     0
102
RTVSPost2010Prop51ColorIndex
 90
      256
102
RTVSPost2010Prop51ColorRGB
 90
-16777216
102
RTVSPost2010PropOp51
 70
     0
102
RTVSPost2010Prop52
140
1.0
102
RTVSPost2010PropOp52
 70
     0
102
RTVSPost2010Prop53
 90
        2
102
RTVSPost2010PropOp53
 70
     0
102
RTVSPost2010Prop54
  1
strokes_ogs.tif
102
RTVSPost2010PropOp54
 70
     0
102
RTVSPost2010Prop55
280
     0
102
RTVSPost2010PropOp55
 70
     0
102
RTVSPost2010Prop56
140
1.0
102
RTVSPost2010PropOp56
 70
     0
102
RTVSPost2010Prop57
140
1.0
102
RTVSPost2010PropOp57
 70
     0
  0
XRECORD
  5
345
102
{ACAD_REACTORS
330
344
102
}
330
344
100
AcDbXrecord
280
     1
102
RTVSPropertyOp0
 70
     1
102
RTVSPropertyOp1
 70
     1
102
RTVSPropertyOp2
 70
     1
102
RTVSPropertyOp3
 70
     1
102
RTVSPropertyOp4
 70
     1
102
RTVSPropertyOp5
 70
     1
102
RTVSPropertyOp6
 70
     1
102
RTVSPropertyOp7
 70
     1
102
RTVSPropertyOp8
 70
     1
102
RTVSPropertyOp9
 70
     1
102
RTVSPropertyOp10
 70
     1
102
RTVSPropertyOp11
 70
     1
102
RTVSPropertyOp12
 70
     1
102
RTVSPropertyOp13
 70
     1
102
RTVSPropertyOp14
 70
     1
102
RTVSPropertyOp15
 70
     1
102
RTVSPropertyOp16
 70
     1
102
RTVSPropertyOp17
 70
     1
102
RTVSPropertyOp18
 70
     1
102
RTVSPropertyOp19
 70
     1
102
RTVSPropertyOp20
 70
     1
102
RTVSPropertyOp21
 70
     1
102
RTVSPropertyOp22
 70
     1
102
RTVSPropertyOp23
 70
     1
102
RTVSPropertyOp24
 70
     1
102
RTVSPropertyOp25
 70
     1
102
RTVSPropertyOp26
 70
     1
102
RTVSPropertyOp27
 70
     1
102
RTVSPropertyOp28
 70
     1
102
RTVSPropertyOp29
 70
     1
102
RTVSPropertyOp30
 70
     1
102
RTVSPropertyOp31
 70
     1
102
RTVSPropertyOp32
 70
     1
102
RTVSPropertyOp33
 70
     1
102
RTVSPropertyOp34
 70
     1
102
RTVSPropertyOp35
 70
     1
102
RTVSPropertyOp36
 70
     1
102
RTVSPropertyOp37
 70
     1
102
RTVSPropertyOp38
 70
     1
102
RTVSPropertyOp39
 70
     1
102
RTVSPropertyOp40
 70
     1
102
RTVSPropertyOp41
 70
     1
102
RTVSPropertyOp42
 70
     1
102
RTVSPropertyOp43
 70
     1
102
RTVSPropertyOp44
 70
     1
102
RTVSPropertyOp45
 70
     1
102
RTVSPropertyOp46
 70
     1
102
RTVSPropertyOp47
 70
     1
102
RTVSPropertyOp48
 70
     1
102
RTVSPropertyOp49
 70
     1
102
RTVSPropertyOp50
 70
     1
102
RTVSPropertyOp51
 70
     0
102
RTVSPropertyOp52
 70
     0
102
RTVSPropertyOp53
 70
     1
102
RTVSPropertyOp54
 70
     1
102
RTVSPropertyOp55
 70
     1
102
RTVSPropertyOp56
 70
     1
102
RTVSPropertyOp57
 70
     1
102
RTVSPost2010Prop28
280
     0
102
RTVSPost2010PropOp28
 70
     1
102
RTVSPost2010Prop29
280
     1
102
RTVSPost2010PropOp29
 70
     1
102
RTVSPost2010Prop30
280
     1
102
RTVSPost2010PropOp30
 70
     1
102
RTVSPost2010Prop31
280
     0
102
RTVSPost2010PropOp31
 70
     1
102
RTVSPost2010Prop32
280
     0
102
RTVSPost2010PropOp32
 70
     1
102
RTVSPost2010Prop33
280
     0
102
RTVSPost2010PropOp33
 70
     1
102
RTVSPost2010Prop34
280
     0
102
RTVSPost2010PropOp34
 70
     1
102
RTVSPost2010Prop35
280
     0
102
RTVSPost2010PropOp35
 70
     1
102
RTVSPost2010Prop36
280
     0
102
RTVSPost2010PropOp36
 70
     1
102
RTVSPost2010Prop37
 90
       50
102
RTVSPost2010PropOp37
 70
     1
102
RTVSPost2010Prop38
140
0.0
102
RTVSPost2010PropOp38
 70
     1
102
RTVSPost2010Prop39
140
1.0
102
RTVSPost2010PropOp39
 70
     1
102
RTVSPost2010Prop40
 90
        0
102
RTVSPost2010PropOp40
 70
     1
102
RTVSPost2010Prop41ColorIndex
 90
      178
102
RTVSPost2010Prop41ColorRGB
 90
        0
102
RTVSPost2010PropOp41
 70
     1
102
RTVSPost2010Prop42
 90
       50
102
RTVSPost2010PropOp42
 70
     1
102
RTVSPost2010Prop43
 90
        3
102
RTVSPost2010PropOp43
 70
     1
102
RTVSPost2010Prop44ColorIndex
 90
        5
102
RTVSPost2010Prop44ColorRGB
 90
      255
102
RTVSPost2010PropOp44
 70
     1
102
RTVSPost2010Prop45
280
     0
102
RTVSPost2010PropOp45
 70
     1
102
RTVSPost2010Prop46
 90
       50
102
RTVSPost2010PropOp46
 70
     1
102
RTVSPost2010Prop47
 90
       50
102
RTVSPost2010PropOp47
 70
     1
102
RTVSPost2010Prop48
 90
       50
102
RTVSPost2010PropOp48
 70
     1
102
RTVSPost2010Prop49
280
     0
102
RTVSPost2010PropOp49
 70
     1
102
RTVSPost2010Prop50
 90
       50
102
RTVSPost2010PropOp50
 70
     1
102
RTVSPost2010Prop51ColorIndex
 90
      256
102
RTVSPost2010Prop51ColorRGB
 90
-16777216
102
RTVSPost2010PropOp51
 70
     0
102
RTVSPost2010Prop52
140
1.0
102
RTVSPost2010PropOp52
 70
     0
102
RTVSPost2010Prop53
 90
        2
102
RTVSPost2010PropOp53
 70
     1
102
RTVSPost2010Prop54
  1
strokes_ogs.tif
102
RTVSPost2010PropOp54
 70
     1
102
RTVSPost2010Prop55
280
     0
102
RTVSPost2010PropOp55
 70
     1
102
RTVSPost2010Prop56
140
1.0
102
RTVSPost2010PropOp56
 70
     1
102
RTVSPost2010Prop57
140
1.0
102
RTVSPost2010PropOp57
 70
     1
  0
XRECORD
  5
34D
102
{ACAD_REACTORS
330
34C
102
}
330
34C
100
AcDbXrecord
280
     1
102
RTVSPropertyOp0
 70
     0
102
RTVSPropertyOp1
 70
     0
102
RTVSPropertyOp2
 70
     0
102
RTVSPropertyOp3
 70
     0
102
RTVSPropertyOp4
 70
     0
102
RTVSPropertyOp5
 70
     0
102
RTVSPropertyOp6
 70
     0
102
RTVSPropertyOp7
 70
     0
102
RTVSPropertyOp8
 70
     0
102
RTVSPropertyOp9
 70
     0
102
RTVSPropertyOp10
 70
     0
102
RTVSPropertyOp11
 70
     0
102
RTVSPropertyOp12
 70
     0
102
RTVSPropertyOp13
 70
     0
102
RTVSPropertyOp14
 70
     2
102
RTVSPropertyOp15
 70
     0
102
RTVSPropertyOp16
 70
     0
102
RTVSPropertyOp17
 70
     0
102
RTVSPropertyOp18
 70
     0
102
RTVSPropertyOp19
 70
     0
102
RTVSPropertyOp20
 70
     0
102
RTVSPropertyOp21
 70
     0
102
RTVSPropertyOp22
 70
     0
102
RTVSPropertyOp23
 70
     0
102
RTVSPropertyOp24
 70
     0
102
RTVSPropertyOp25
 70
     0
102
RTVSPropertyOp26
 70
     0
102
RTVSPropertyOp27
 70
     0
102
RTVSPropertyOp28
 70
     0
102
RTVSPropertyOp29
 70
     0
102
RTVSPropertyOp30
 70
     0
102
RTVSPropertyOp31
 70
     0
102
RTVSPropertyOp32
 70
     0
102
RTVSPropertyOp33
 70
     0
102
RTVSPropertyOp34
 70
     0
102
RTVSPropertyOp35
 70
     0
102
RTVSPropertyOp36
 70
     0
102
RTVSPropertyOp37
 70
     0
102
RTVSPropertyOp38
 70
     0
102
RTVSPropertyOp39
 70
     0
102
RTVSPropertyOp40
 70
     0
102
RTVSPropertyOp41
 70
     0
102
RTVSPropertyOp42
 70
     0
102
RTVSPropertyOp43
 70
     0
102
RTVSPropertyOp44
 70
     0
102
RTVSPropertyOp45
 70
     0
102
RTVSPropertyOp46
 70
     0
102
RTVSPropertyOp47
 70
     0
102
RTVSPropertyOp48
 70
     0
102
RTVSPropertyOp49
 70
     0
102
RTVSPropertyOp50
 70
     0
102
RTVSPropertyOp51
 70
     0
102
RTVSPropertyOp52
 70
     0
102
RTVSPropertyOp53
 70
     0
102
RTVSPropertyOp54
 70
     0
102
RTVSPropertyOp55
 70
     0
102
RTVSPropertyOp56
 70
     0
102
RTVSPropertyOp57
 70
     0
102
RTVSPost2010Prop28
280
     0
102
RTVSPost2010PropOp28
 70
     0
102
RTVSPost2010Prop29
280
     1
102
RTVSPost2010PropOp29
 70
     0
102
RTVSPost2010Prop30
280
     1
102
RTVSPost2010PropOp30
 70
     0
102
RTVSPost2010Prop31
280
     0
102
RTVSPost2010PropOp31
 70
     0
102
RTVSPost2010Prop32
280
     0
102
RTVSPost2010PropOp32
 70
     0
102
RTVSPost2010Prop33
280
     0
102
RTVSPost2010PropOp33
 70
     0
102
RTVSPost2010Prop34
280
     0
102
RTVSPost2010PropOp34
 70
     0
102
RTVSPost2010Prop35
280
     0
102
RTVSPost2010PropOp35
 70
     0
102
RTVSPost2010Prop36
280
     0
102
RTVSPost2010PropOp36
 70
     0
102
RTVSPost2010Prop37
 90
       50
102
RTVSPost2010PropOp37
 70
     0
102
RTVSPost2010Prop38
140
0.0
102
RTVSPost2010PropOp38
 70
     0
102
RTVSPost2010Prop39
140
1.0
102
RTVSPost2010PropOp39
 70
     0
102
RTVSPost2010Prop40
 90
        0
102
RTVSPost2010PropOp40
 70
     0
102
RTVSPost2010Prop41ColorIndex
 90
      178
102
RTVSPost2010Prop41ColorRGB
 90
        0
102
RTVSPost2010PropOp41
 70
     0
102
RTVSPost2010Prop42
 90
       50
102
RTVSPost2010PropOp42
 70
     0
102
RTVSPost2010Prop43
 90
        3
102
RTVSPost2010PropOp43
 70
     0
102
RTVSPost2010Prop44ColorIndex
 90
        5
102
RTVSPost2010Prop44ColorRGB
 90
      255
102
RTVSPost2010PropOp44
 70
     0
102
RTVSPost2010Prop45
280
     0
102
RTVSPost2010PropOp45
 70
     0
102
RTVSPost2010Prop46
 90
       50
102
RTVSPost2010PropOp46
 70
     0
102
RTVSPost2010Prop47
 90
       50
102
RTVSPost2010PropOp47
 70
     0
102
RTVSPost2010Prop48
 90
       50
102
RTVSPost2010PropOp48
 70
     0
102
RTVSPost2010Prop49
280
     0
102
RTVSPost2010PropOp49
 70
     0
102
RTVSPost2010Prop50
 90
       50
102
RTVSPost2010PropOp50
 70
     0
102
RTVSPost2010Prop51ColorIndex
 90
      256
102
RTVSPost2010Prop51ColorRGB
 90
-16777216
102
RTVSPost2010PropOp51
 70
     0
102
RTVSPost2010Prop52
140
1.0
102
RTVSPost2010PropOp52
 70
     0
102
RTVSPost2010Prop53
 90
        2
102
RTVSPost2010PropOp53
 70
     0
102
RTVSPost2010Prop54
  1
strokes_ogs.tif
102
RTVSPost2010PropOp54
 70
     0
102
RTVSPost2010Prop55
280
     0
102
RTVSPost2010PropOp55
 70
     0
102
RTVSPost2010Prop56
140
1.0
102
RTVSPost2010PropOp56
 70
     0
102
RTVSPost2010Prop57
140
1.0
102
RTVSPost2010PropOp57
 70
     0
  0
XRECORD
  5
33B
102
{ACAD_REACTORS
330
33A
102
}
330
33A
100
AcDbXrecord
280
     1
102
RTVSPropertyOp0
 70
     1
102
RTVSPropertyOp1
 70
     1
102
RTVSPropertyOp2
 70
     1
102
RTVSPropertyOp3
 70
     1
102
RTVSPropertyOp4
 70
     1
102
RTVSPropertyOp5
 70
     1
102
RTVSPropertyOp6
 70
     1
102
RTVSPropertyOp7
 70
     1
102
RTVSPropertyOp8
 70
     1
102
RTVSPropertyOp9
 70
     1
102
RTVSPropertyOp10
 70
     1
102
RTVSPropertyOp11
 70
     1
102
RTVSPropertyOp12
 70
     1
102
RTVSPropertyOp13
 70
     1
102
RTVSPropertyOp14
 70
     1
102
RTVSPropertyOp15
 70
     1
102
RTVSPropertyOp16
 70
     1
102
RTVSPropertyOp17
 70
     1
102
RTVSPropertyOp18
 70
     1
102
RTVSPropertyOp19
 70
     1
102
RTVSPropertyOp20
 70
     1
102
RTVSPropertyOp21
 70
     1
102
RTVSPropertyOp22
 70
     1
102
RTVSPropertyOp23
 70
     1
102
RTVSPropertyOp24
 70
     1
102
RTVSPropertyOp25
 70
     1
102
RTVSPropertyOp26
 70
     1
102
RTVSPropertyOp27
 70
     1
102
RTVSPropertyOp28
 70
     1
102
RTVSPropertyOp29
 70
     1
102
RTVSPropertyOp30
 70
     1
102
RTVSPropertyOp31
 70
     1
102
RTVSPropertyOp32
 70
     1
102
RTVSPropertyOp33
 70
     1
102
RTVSPropertyOp34
 70
     1
102
RTVSPropertyOp35
 70
     1
102
RTVSPropertyOp36
 70
     1
102
RTVSPropertyOp37
 70
     1
102
RTVSPropertyOp38
 70
     1
102
RTVSPropertyOp39
 70
     1
102
RTVSPropertyOp40
 70
     1
102
RTVSPropertyOp41
 70
     1
102
RTVSPropertyOp42
 70
     1
102
RTVSPropertyOp43
 70
     1
102
RTVSPropertyOp44
 70
     1
102
RTVSPropertyOp45
 70
     1
102
RTVSPropertyOp46
 70
     1
102
RTVSPropertyOp47
 70
     1
102
RTVSPropertyOp48
 70
     1
102
RTVSPropertyOp49
 70
     1
102
RTVSPropertyOp50
 70
     1
102
RTVSPropertyOp51
 70
     0
102
RTVSPropertyOp52
 70
     0
102
RTVSPropertyOp53
 70
     1
102
RTVSPropertyOp54
 70
     1
102
RTVSPropertyOp55
 70
     1
102
RTVSPropertyOp56
 70
     1
102
RTVSPropertyOp57
 70
     1
102
RTVSPost2010Prop28
280
     0
102
RTVSPost2010PropOp28
 70
     1
102
RTVSPost2010Prop29
280
     1
102
RTVSPost2010PropOp29
 70
     1
102
RTVSPost2010Prop30
280
     1
102
RTVSPost2010PropOp30
 70
     1
102
RTVSPost2010Prop31
280
     0
102
RTVSPost2010PropOp31
 70
     1
102
RTVSPost2010Prop32
280
     0
102
RTVSPost2010PropOp32
 70
     1
102
RTVSPost2010Prop33
280
     0
102
RTVSPost2010PropOp33
 70
     1
102
RTVSPost2010Prop34
280
     0
102
RTVSPost2010PropOp34
 70
     1
102
RTVSPost2010Prop35
280
     0
102
RTVSPost2010PropOp35
 70
     1
102
RTVSPost2010Prop36
280
     0
102
RTVSPost2010PropOp36
 70
     1
102
RTVSPost2010Prop37
 90
       50
102
RTVSPost2010PropOp37
 70
     1
102
RTVSPost2010Prop38
140
0.0
102
RTVSPost2010PropOp38
 70
     1
102
RTVSPost2010Prop39
140
1.0
102
RTVSPost2010PropOp39
 70
     1
102
RTVSPost2010Prop40
 90
        0
102
RTVSPost2010PropOp40
 70
     1
102
RTVSPost2010Prop41ColorIndex
 90
      178
102
RTVSPost2010Prop41ColorRGB
 90
        0
102
RTVSPost2010PropOp41
 70
     1
102
RTVSPost2010Prop42
 90
       50
102
RTVSPost2010PropOp42
 70
     1
102
RTVSPost2010Prop43
 90
        3
102
RTVSPost2010PropOp43
 70
     1
102
RTVSPost2010Prop44ColorIndex
 90
        5
102
RTVSPost2010Prop44ColorRGB
 90
      255
102
RTVSPost2010PropOp44
 70
     1
102
RTVSPost2010Prop45
280
     0
102
RTVSPost2010PropOp45
 70
     1
102
RTVSPost2010Prop46
 90
       50
102
RTVSPost2010PropOp46
 70
     1
102
RTVSPost2010Prop47
 90
       50
102
RTVSPost2010PropOp47
 70
     1
102
RTVSPost2010Prop48
 90
       50
102
RTVSPost2010PropOp48
 70
     1
102
RTVSPost2010Prop49
280
     0
102
RTVSPost2010PropOp49
 70
     1
102
RTVSPost2010Prop50
 90
       50
102
RTVSPost2010PropOp50
 70
     1
102
RTVSPost2010Prop51ColorIndex
 90
      256
102
RTVSPost2010Prop51ColorRGB
 90
-16777216
102
RTVSPost2010PropOp51
 70
     0
102
RTVSPost2010Prop52
140
1.0
102
RTVSPost2010PropOp52
 70
     0
102
RTVSPost2010Prop53
 90
        2
102
RTVSPost2010PropOp53
 70
     1
102
RTVSPost2010Prop54
  1
strokes_ogs.tif
102
RTVSPost2010PropOp54
 70
     1
102
RTVSPost2010Prop55
280
     0
102
RTVSPost2010PropOp55
 70
     1
102
RTVSPost2010Prop56
140
1.0
102
RTVSPost2010PropOp56
 70
     1
102
RTVSPost2010Prop57
140
1.0
102
RTVSPost2010PropOp57
 70
     1
  0
XRECORD
  5
359
102
{ACAD_REACTORS
330
358
102
}
330
358
100
AcDbXrecord
280
     1
102
RTVSPropertyOp0
 70
     1
102
RTVSPropertyOp1
 70
     1
102
RTVSPropertyOp2
 70
     1
102
RTVSPropertyOp3
 70
     1
102
RTVSPropertyOp4
 70
     1
102
RTVSPropertyOp5
 70
     1
102
RTVSPropertyOp6
 70
     1
102
RTVSPropertyOp7
 70
     1
102
RTVSPropertyOp8
 70
     1
102
RTVSPropertyOp9
 70
     1
102
RTVSPropertyOp10
 70
     1
102
RTVSPropertyOp11
 70
     1
102
RTVSPropertyOp12
 70
     1
102
RTVSPropertyOp13
 70
     1
102
RTVSPropertyOp14
 70
     1
102
RTVSPropertyOp15
 70
     1
102
RTVSPropertyOp16
 70
     1
102
RTVSPropertyOp17
 70
     1
102
RTVSPropertyOp18
 70
     1
102
RTVSPropertyOp19
 70
     1
102
RTVSPropertyOp20
 70
     1
102
RTVSPropertyOp21
 70
     1
102
RTVSPropertyOp22
 70
     1
102
RTVSPropertyOp23
 70
     1
102
RTVSPropertyOp24
 70
     1
102
RTVSPropertyOp25
 70
     1
102
RTVSPropertyOp26
 70
     1
102
RTVSPropertyOp27
 70
     1
102
RTVSPropertyOp28
 70
     1
102
RTVSPropertyOp29
 70
     1
102
RTVSPropertyOp30
 70
     1
102
RTVSPropertyOp31
 70
     1
102
RTVSPropertyOp32
 70
     1
102
RTVSPropertyOp33
 70
     1
102
RTVSPropertyOp34
 70
     1
102
RTVSPropertyOp35
 70
     1
102
RTVSPropertyOp36
 70
     1
102
RTVSPropertyOp37
 70
     1
102
RTVSPropertyOp38
 70
     1
102
RTVSPropertyOp39
 70
     1
102
RTVSPropertyOp40
 70
     1
102
RTVSPropertyOp41
 70
     1
102
RTVSPropertyOp42
 70
     1
102
RTVSPropertyOp43
 70
     1
102
RTVSPropertyOp44
 70
     1
102
RTVSPropertyOp45
 70
     1
102
RTVSPropertyOp46
 70
     1
102
RTVSPropertyOp47
 70
     1
102
RTVSPropertyOp48
 70
     1
102
RTVSPropertyOp49
 70
     1
102
RTVSPropertyOp50
 70
     1
102
RTVSPropertyOp51
 70
     0
102
RTVSPropertyOp52
 70
     0
102
RTVSPropertyOp53
 70
     1
102
RTVSPropertyOp54
 70
     1
102
RTVSPropertyOp55
 70
     1
102
RTVSPropertyOp56
 70
     1
102
RTVSPropertyOp57
 70
     1
102
RTVSPost2010Prop28
280
     0
102
RTVSPost2010PropOp28
 70
     1
102
RTVSPost2010Prop29
280
     1
102
RTVSPost2010PropOp29
 70
     1
102
RTVSPost2010Prop30
280
     1
102
RTVSPost2010PropOp30
 70
     1
102
RTVSPost2010Prop31
280
     0
102
RTVSPost2010PropOp31
 70
     1
102
RTVSPost2010Prop32
280
     0
102
RTVSPost2010PropOp32
 70
     1
102
RTVSPost2010Prop33
280
     0
102
RTVSPost2010PropOp33
 70
     1
102
RTVSPost2010Prop34
280
     0
102
RTVSPost2010PropOp34
 70
     1
102
RTVSPost2010Prop35
280
     0
102
RTVSPost2010PropOp35
 70
     1
102
RTVSPost2010Prop36
280
     0
102
RTVSPost2010PropOp36
 70
     1
102
RTVSPost2010Prop37
 90
       50
102
RTVSPost2010PropOp37
 70
     1
102
RTVSPost2010Prop38
140
0.0
102
RTVSPost2010PropOp38
 70
     1
102
RTVSPost2010Prop39
140
1.0
102
RTVSPost2010PropOp39
 70
     1
102
RTVSPost2010Prop40
 90
        0
102
RTVSPost2010PropOp40
 70
     1
102
RTVSPost2010Prop41ColorIndex
 90
      178
102
RTVSPost2010Prop41ColorRGB
 90
        0
102
RTVSPost2010PropOp41
 70
     1
102
RTVSPost2010Prop42
 90
       50
102
RTVSPost2010PropOp42
 70
     1
102
RTVSPost2010Prop43
 90
        3
102
RTVSPost2010PropOp43
 70
     1
102
RTVSPost2010Prop44ColorIndex
 90
        5
102
RTVSPost2010Prop44ColorRGB
 90
      255
102
RTVSPost2010PropOp44
 70
     1
102
RTVSPost2010Prop45
280
     0
102
RTVSPost2010PropOp45
 70
     1
102
RTVSPost2010Prop46
 90
       50
102
RTVSPost2010PropOp46
 70
     1
102
RTVSPost2010Prop47
 90
       50
102
RTVSPost2010PropOp47
 70
     1
102
RTVSPost2010Prop48
 90
       50
102
RTVSPost2010PropOp48
 70
     1
102
RTVSPost2010Prop49
280
     0
102
RTVSPost2010PropOp49
 70
     1
102
RTVSPost2010Prop50
 90
       50
102
RTVSPost2010PropOp50
 70
     1
102
RTVSPost2010Prop51ColorIndex
 90
      256
102
RTVSPost2010Prop51ColorRGB
 90
-16777216
102
RTVSPost2010PropOp51
 70
     0
102
RTVSPost2010Prop52
140
1.0
102
RTVSPost2010PropOp52
 70
     0
102
RTVSPost2010Prop53
 90
        2
102
RTVSPost2010PropOp53
 70
     1
102
RTVSPost2010Prop54
  1
strokes_ogs.tif
102
RTVSPost2010PropOp54
 70
     1
102
RTVSPost2010Prop55
280
     0
102
RTVSPost2010PropOp55
 70
     1
102
RTVSPost2010Prop56
140
1.0
102
RTVSPost2010PropOp56
 70
     1
102
RTVSPost2010Prop57
140
1.0
102
RTVSPost2010PropOp57
 70
     1
  0
XRECORD
  5
357
102
{ACAD_REACTORS
330
356
102
}
330
356
100
AcDbXrecord
280
     1
102
RTVSPropertyOp0
 70
     1
102
RTVSPropertyOp1
 70
     1
102
RTVSPropertyOp2
 70
     1
102
RTVSPropertyOp3
 70
     1
102
RTVSPropertyOp4
 70
     1
102
RTVSPropertyOp5
 70
     1
102
RTVSPropertyOp6
 70
     1
102
RTVSPropertyOp7
 70
     1
102
RTVSPropertyOp8
 70
     1
102
RTVSPropertyOp9
 70
     1
102
RTVSPropertyOp10
 70
     1
102
RTVSPropertyOp11
 70
     1
102
RTVSPropertyOp12
 70
     1
102
RTVSPropertyOp13
 70
     1
102
RTVSPropertyOp14
 70
     1
102
RTVSPropertyOp15
 70
     1
102
RTVSPropertyOp16
 70
     1
102
RTVSPropertyOp17
 70
     1
102
RTVSPropertyOp18
 70
     1
102
RTVSPropertyOp19
 70
     1
102
RTVSPropertyOp20
 70
     1
102
RTVSPropertyOp21
 70
     1
102
RTVSPropertyOp22
 70
     1
102
RTVSPropertyOp23
 70
     1
102
RTVSPropertyOp24
 70
     1
102
RTVSPropertyOp25
 70
     1
102
RTVSPropertyOp26
 70
     1
102
RTVSPropertyOp27
 70
     1
102
RTVSPropertyOp28
 70
     1
102
RTVSPropertyOp29
 70
     1
102
RTVSPropertyOp30
 70
     1
102
RTVSPropertyOp31
 70
     1
102
RTVSPropertyOp32
 70
     1
102
RTVSPropertyOp33
 70
     1
102
RTVSPropertyOp34
 70
     1
102
RTVSPropertyOp35
 70
     1
102
RTVSPropertyOp36
 70
     1
102
RTVSPropertyOp37
 70
     1
102
RTVSPropertyOp38
 70
     1
102
RTVSPropertyOp39
 70
     1
102
RTVSPropertyOp40
 70
     1
102
RTVSPropertyOp41
 70
     1
102
RTVSPropertyOp42
 70
     1
102
RTVSPropertyOp43
 70
     1
102
RTVSPropertyOp44
 70
     1
102
RTVSPropertyOp45
 70
     1
102
RTVSPropertyOp46
 70
     1
102
RTVSPropertyOp47
 70
     1
102
RTVSPropertyOp48
 70
     1
102
RTVSPropertyOp49
 70
     1
102
RTVSPropertyOp50
 70
     1
102
RTVSPropertyOp51
 70
     0
102
RTVSPropertyOp52
 70
     0
102
RTVSPropertyOp53
 70
     1
102
RTVSPropertyOp54
 70
     1
102
RTVSPropertyOp55
 70
     1
102
RTVSPropertyOp56
 70
     1
102
RTVSPropertyOp57
 70
     1
102
RTVSPost2010Prop28
280
     0
102
RTVSPost2010PropOp28
 70
     1
102
RTVSPost2010Prop29
280
     1
102
RTVSPost2010PropOp29
 70
     1
102
RTVSPost2010Prop30
280
     1
102
RTVSPost2010PropOp30
 70
     1
102
RTVSPost2010Prop31
280
     0
102
RTVSPost2010PropOp31
 70
     1
102
RTVSPost2010Prop32
280
     0
102
RTVSPost2010PropOp32
 70
     1
102
RTVSPost2010Prop33
280
     0
102
RTVSPost2010PropOp33
 70
     1
102
RTVSPost2010Prop34
280
     0
102
RTVSPost2010PropOp34
 70
     1
102
RTVSPost2010Prop35
280
     0
102
RTVSPost2010PropOp35
 70
     1
102
RTVSPost2010Prop36
280
     0
102
RTVSPost2010PropOp36
 70
     1
102
RTVSPost2010Prop37
 90
       50
102
RTVSPost2010PropOp37
 70
     1
102
RTVSPost2010Prop38
140
0.0
102
RTVSPost2010PropOp38
 70
     1
102
RTVSPost2010Prop39
140
1.0
102
RTVSPost2010PropOp39
 70
     1
102
RTVSPost2010Prop40
 90
        0
102
RTVSPost2010PropOp40
 70
     1
102
RTVSPost2010Prop41ColorIndex
 90
      178
102
RTVSPost2010Prop41ColorRGB
 90
        0
102
RTVSPost2010PropOp41
 70
     1
102
RTVSPost2010Prop42
 90
       50
102
RTVSPost2010PropOp42
 70
     1
102
RTVSPost2010Prop43
 90
        3
102
RTVSPost2010PropOp43
 70
     1
102
RTVSPost2010Prop44ColorIndex
 90
        5
102
RTVSPost2010Prop44ColorRGB
 90
      255
102
RTVSPost2010PropOp44
 70
     1
102
RTVSPost2010Prop45
280
     0
102
RTVSPost2010PropOp45
 70
     1
102
RTVSPost2010Prop46
 90
       50
102
RTVSPost2010PropOp46
 70
     1
102
RTVSPost2010Prop47
 90
       50
102
RTVSPost2010PropOp47
 70
     1
102
RTVSPost2010Prop48
 90
       50
102
RTVSPost2010PropOp48
 70
     1
102
RTVSPost2010Prop49
280
     0
102
RTVSPost2010PropOp49
 70
     1
102
RTVSPost2010Prop50
 90
       50
102
RTVSPost2010PropOp50
 70
     1
102
RTVSPost2010Prop51ColorIndex
 90
      256
102
RTVSPost2010Prop51ColorRGB
 90
-16777216
102
RTVSPost2010PropOp51
 70
     0
102
RTVSPost2010Prop52
140
1.0
102
RTVSPost2010PropOp52
 70
     0
102
RTVSPost2010Prop53
 90
        2
102
RTVSPost2010PropOp53
 70
     1
102
RTVSPost2010Prop54
  1
strokes_ogs.tif
102
RTVSPost2010PropOp54
 70
     1
102
RTVSPost2010Prop55
280
     0
102
RTVSPost2010PropOp55
 70
     1
102
RTVSPost2010Prop56
140
1.0
102
RTVSPost2010PropOp56
 70
     1
102
RTVSPost2010Prop57
140
1.0
102
RTVSPost2010PropOp57
 70
     1
  0
XRECORD
  5
351
102
{ACAD_REACTORS
330
350
102
}
330
350
100
AcDbXrecord
280
     1
102
RTVSPropertyOp0
 70
     1
102
RTVSPropertyOp1
 70
     1
102
RTVSPropertyOp2
 70
     1
102
RTVSPropertyOp3
 70
     1
102
RTVSPropertyOp4
 70
     1
102
RTVSPropertyOp5
 70
     1
102
RTVSPropertyOp6
 70
     1
102
RTVSPropertyOp7
 70
     1
102
RTVSPropertyOp8
 70
     1
102
RTVSPropertyOp9
 70
     1
102
RTVSPropertyOp10
 70
     1
102
RTVSPropertyOp11
 70
     1
102
RTVSPropertyOp12
 70
     1
102
RTVSPropertyOp13
 70
     1
102
RTVSPropertyOp14
 70
     1
102
RTVSPropertyOp15
 70
     1
102
RTVSPropertyOp16
 70
     1
102
RTVSPropertyOp17
 70
     1
102
RTVSPropertyOp18
 70
     1
102
RTVSPropertyOp19
 70
     1
102
RTVSPropertyOp20
 70
     1
102
RTVSPropertyOp21
 70
     1
102
RTVSPropertyOp22
 70
     1
102
RTVSPropertyOp23
 70
     1
102
RTVSPropertyOp24
 70
     1
102
RTVSPropertyOp25
 70
     1
102
RTVSPropertyOp26
 70
     1
102
RTVSPropertyOp27
 70
     1
102
RTVSPropertyOp28
 70
     1
102
RTVSPropertyOp29
 70
     1
102
RTVSPropertyOp30
 70
     1
102
RTVSPropertyOp31
 70
     1
102
RTVSPropertyOp32
 70
     1
102
RTVSPropertyOp33
 70
     1
102
RTVSPropertyOp34
 70
     1
102
RTVSPropertyOp35
 70
     1
102
RTVSPropertyOp36
 70
     1
102
RTVSPropertyOp37
 70
     1
102
RTVSPropertyOp38
 70
     1
102
RTVSPropertyOp39
 70
     1
102
RTVSPropertyOp40
 70
     1
102
RTVSPropertyOp41
 70
     1
102
RTVSPropertyOp42
 70
     1
102
RTVSPropertyOp43
 70
     1
102
RTVSPropertyOp44
 70
     1
102
RTVSPropertyOp45
 70
     1
102
RTVSPropertyOp46
 70
     1
102
RTVSPropertyOp47
 70
     1
102
RTVSPropertyOp48
 70
     1
102
RTVSPropertyOp49
 70
     1
102
RTVSPropertyOp50
 70
     1
102
RTVSPropertyOp51
 70
     0
102
RTVSPropertyOp52
 70
     0
102
RTVSPropertyOp53
 70
     1
102
RTVSPropertyOp54
 70
     1
102
RTVSPropertyOp55
 70
     1
102
RTVSPropertyOp56
 70
     1
102
RTVSPropertyOp57
 70
     1
102
RTVSPost2010Prop28
280
     0
102
RTVSPost2010PropOp28
 70
     1
102
RTVSPost2010Prop29
280
     1
102
RTVSPost2010PropOp29
 70
     1
102
RTVSPost2010Prop30
280
     1
102
RTVSPost2010PropOp30
 70
     1
102
RTVSPost2010Prop31
280
     0
102
RTVSPost2010PropOp31
 70
     1
102
RTVSPost2010Prop32
280
     0
102
RTVSPost2010PropOp32
 70
     1
102
RTVSPost2010Prop33
280
     0
102
RTVSPost2010PropOp33
 70
     1
102
RTVSPost2010Prop34
280
     0
102
RTVSPost2010PropOp34
 70
     1
102
RTVSPost2010Prop35
280
     0
102
RTVSPost2010PropOp35
 70
     1
102
RTVSPost2010Prop36
280
     0
102
RTVSPost2010PropOp36
 70
     1
102
RTVSPost2010Prop37
 90
       50
102
RTVSPost2010PropOp37
 70
     1
102
RTVSPost2010Prop38
140
0.0
102
RTVSPost2010PropOp38
 70
     1
102
RTVSPost2010Prop39
140
1.0
102
RTVSPost2010PropOp39
 70
     1
102
RTVSPost2010Prop40
 90
        0
102
RTVSPost2010PropOp40
 70
     1
102
RTVSPost2010Prop41ColorIndex
 90
      178
102
RTVSPost2010Prop41ColorRGB
 90
        0
102
RTVSPost2010PropOp41
 70
     1
102
RTVSPost2010Prop42
 90
       50
102
RTVSPost2010PropOp42
 70
     1
102
RTVSPost2010Prop43
 90
        3
102
RTVSPost2010PropOp43
 70
     1
102
RTVSPost2010Prop44ColorIndex
 90
        5
102
RTVSPost2010Prop44ColorRGB
 90
      255
102
RTVSPost2010PropOp44
 70
     1
102
RTVSPost2010Prop45
280
     0
102
RTVSPost2010PropOp45
 70
     1
102
RTVSPost2010Prop46
 90
       50
102
RTVSPost2010PropOp46
 70
     1
102
RTVSPost2010Prop47
 90
       50
102
RTVSPost2010PropOp47
 70
     1
102
RTVSPost2010Prop48
 90
       50
102
RTVSPost2010PropOp48
 70
     1
102
RTVSPost2010Prop49
280
     0
102
RTVSPost2010PropOp49
 70
     1
102
RTVSPost2010Prop50
 90
       50
102
RTVSPost2010PropOp50
 70
     1
102
RTVSPost2010Prop51ColorIndex
 90
      256
102
RTVSPost2010Prop51ColorRGB
 90
-16777216
102
RTVSPost2010PropOp51
 70
     0
102
RTVSPost2010Prop52
140
1.0
102
RTVSPost2010PropOp52
 70
     0
102
RTVSPost2010Prop53
 90
        2
102
RTVSPost2010PropOp53
 70
     1
102
RTVSPost2010Prop54
  1
strokes_ogs.tif
102
RTVSPost2010PropOp54
 70
     1
102
RTVSPost2010Prop55
280
     0
102
RTVSPost2010PropOp55
 70
     1
102
RTVSPost2010Prop56
140
1.0
102
RTVSPost2010PropOp56
 70
     1
102
RTVSPost2010Prop57
140
1.0
102
RTVSPost2010PropOp57
 70
     1
  0
XRECORD
  5
353
102
{ACAD_REACTORS
330
352
102
}
330
352
100
AcDbXrecord
280
     1
102
RTVSPropertyOp0
 70
     1
102
RTVSPropertyOp1
 70
     1
102
RTVSPropertyOp2
 70
     1
102
RTVSPropertyOp3
 70
     1
102
RTVSPropertyOp4
 70
     1
102
RTVSPropertyOp5
 70
     1
102
RTVSPropertyOp6
 70
     1
102
RTVSPropertyOp7
 70
     1
102
RTVSPropertyOp8
 70
     1
102
RTVSPropertyOp9
 70
     1
102
RTVSPropertyOp10
 70
     1
102
RTVSPropertyOp11
 70
     1
102
RTVSPropertyOp12
 70
     1
102
RTVSPropertyOp13
 70
     1
102
RTVSPropertyOp14
 70
     1
102
RTVSPropertyOp15
 70
     1
102
RTVSPropertyOp16
 70
     1
102
RTVSPropertyOp17
 70
     1
102
RTVSPropertyOp18
 70
     1
102
RTVSPropertyOp19
 70
     1
102
RTVSPropertyOp20
 70
     1
102
RTVSPropertyOp21
 70
     1
102
RTVSPropertyOp22
 70
     1
102
RTVSPropertyOp23
 70
     1
102
RTVSPropertyOp24
 70
     1
102
RTVSPropertyOp25
 70
     1
102
RTVSPropertyOp26
 70
     1
102
RTVSPropertyOp27
 70
     1
102
RTVSPropertyOp28
 70
     1
102
RTVSPropertyOp29
 70
     1
102
RTVSPropertyOp30
 70
     1
102
RTVSPropertyOp31
 70
     1
102
RTVSPropertyOp32
 70
     1
102
RTVSPropertyOp33
 70
     1
102
RTVSPropertyOp34
 70
     1
102
RTVSPropertyOp35
 70
     1
102
RTVSPropertyOp36
 70
     1
102
RTVSPropertyOp37
 70
     1
102
RTVSPropertyOp38
 70
     1
102
RTVSPropertyOp39
 70
     1
102
RTVSPropertyOp40
 70
     1
102
RTVSPropertyOp41
 70
     1
102
RTVSPropertyOp42
 70
     1
102
RTVSPropertyOp43
 70
     1
102
RTVSPropertyOp44
 70
     1
102
RTVSPropertyOp45
 70
     1
102
RTVSPropertyOp46
 70
     1
102
RTVSPropertyOp47
 70
     1
102
RTVSPropertyOp48
 70
     1
102
RTVSPropertyOp49
 70
     1
102
RTVSPropertyOp50
 70
     1
102
RTVSPropertyOp51
 70
     0
102
RTVSPropertyOp52
 70
     0
102
RTVSPropertyOp53
 70
     1
102
RTVSPropertyOp54
 70
     1
102
RTVSPropertyOp55
 70
     1
102
RTVSPropertyOp56
 70
     1
102
RTVSPropertyOp57
 70
     1
102
RTVSPost2010Prop28
280
     0
102
RTVSPost2010PropOp28
 70
     1
102
RTVSPost2010Prop29
280
     1
102
RTVSPost2010PropOp29
 70
     1
102
RTVSPost2010Prop30
280
     1
102
RTVSPost2010PropOp30
 70
     1
102
RTVSPost2010Prop31
280
     0
102
RTVSPost2010PropOp31
 70
     1
102
RTVSPost2010Prop32
280
     0
102
RTVSPost2010PropOp32
 70
     1
102
RTVSPost2010Prop33
280
     0
102
RTVSPost2010PropOp33
 70
     1
102
RTVSPost2010Prop34
280
     0
102
RTVSPost2010PropOp34
 70
     1
102
RTVSPost2010Prop35
280
     0
102
RTVSPost2010PropOp35
 70
     1
102
RTVSPost2010Prop36
280
     0
102
RTVSPost2010PropOp36
 70
     1
102
RTVSPost2010Prop37
 90
       50
102
RTVSPost2010PropOp37
 70
     1
102
RTVSPost2010Prop38
140
0.0
102
RTVSPost2010PropOp38
 70
     1
102
RTVSPost2010Prop39
140
1.0
102
RTVSPost2010PropOp39
 70
     1
102
RTVSPost2010Prop40
 90
        0
102
RTVSPost2010PropOp40
 70
     1
102
RTVSPost2010Prop41ColorIndex
 90
      178
102
RTVSPost2010Prop41ColorRGB
 90
        0
102
RTVSPost2010PropOp41
 70
     1
102
RTVSPost2010Prop42
 90
       50
102
RTVSPost2010PropOp42
 70
     1
102
RTVSPost2010Prop43
 90
        3
102
RTVSPost2010PropOp43
 70
     1
102
RTVSPost2010Prop44ColorIndex
 90
        5
102
RTVSPost2010Prop44ColorRGB
 90
      255
102
RTVSPost2010PropOp44
 70
     1
102
RTVSPost2010Prop45
280
     0
102
RTVSPost2010PropOp45
 70
     1
102
RTVSPost2010Prop46
 90
       50
102
RTVSPost2010PropOp46
 70
     1
102
RTVSPost2010Prop47
 90
       50
102
RTVSPost2010PropOp47
 70
     1
102
RTVSPost2010Prop48
 90
       50
102
RTVSPost2010PropOp48
 70
     1
102
RTVSPost2010Prop49
280
     0
102
RTVSPost2010PropOp49
 70
     1
102
RTVSPost2010Prop50
 90
       50
102
RTVSPost2010PropOp50
 70
     1
102
RTVSPost2010Prop51ColorIndex
 90
      256
102
RTVSPost2010Prop51ColorRGB
 90
-16777216
102
RTVSPost2010PropOp51
 70
     0
102
RTVSPost2010Prop52
140
1.0
102
RTVSPost2010PropOp52
 70
     0
102
RTVSPost2010Prop53
 90
        2
102
RTVSPost2010PropOp53
 70
     1
102
RTVSPost2010Prop54
  1
strokes_ogs.tif
102
RTVSPost2010PropOp54
 70
     1
102
RTVSPost2010Prop55
280
     0
102
RTVSPost2010PropOp55
 70
     1
102
RTVSPost2010Prop56
140
1.0
102
RTVSPost2010PropOp56
 70
     1
102
RTVSPost2010Prop57
140
1.0
102
RTVSPost2010PropOp57
 70
     1
  0
XRECORD
  5
343
102
{ACAD_REACTORS
330
342
102
}
330
342
100
AcDbXrecord
280
     1
102
RTVSPropertyOp0
 70
     1
102
RTVSPropertyOp1
 70
     1
102
RTVSPropertyOp2
 70
     1
102
RTVSPropertyOp3
 70
     1
102
RTVSPropertyOp4
 70
     1
102
RTVSPropertyOp5
 70
     1
102
RTVSPropertyOp6
 70
     1
102
RTVSPropertyOp7
 70
     1
102
RTVSPropertyOp8
 70
     1
102
RTVSPropertyOp9
 70
     1
102
RTVSPropertyOp10
 70
     1
102
RTVSPropertyOp11
 70
     1
102
RTVSPropertyOp12
 70
     1
102
RTVSPropertyOp13
 70
     1
102
RTVSPropertyOp14
 70
     1
102
RTVSPropertyOp15
 70
     1
102
RTVSPropertyOp16
 70
     1
102
RTVSPropertyOp17
 70
     1
102
RTVSPropertyOp18
 70
     1
102
RTVSPropertyOp19
 70
     1
102
RTVSPropertyOp20
 70
     1
102
RTVSPropertyOp21
 70
     1
102
RTVSPropertyOp22
 70
     1
102
RTVSPropertyOp23
 70
     1
102
RTVSPropertyOp24
 70
     1
102
RTVSPropertyOp25
 70
     1
102
RTVSPropertyOp26
 70
     1
102
RTVSPropertyOp27
 70
     1
102
RTVSPropertyOp28
 70
     1
102
RTVSPropertyOp29
 70
     1
102
RTVSPropertyOp30
 70
     1
102
RTVSPropertyOp31
 70
     1
102
RTVSPropertyOp32
 70
     1
102
RTVSPropertyOp33
 70
     1
102
RTVSPropertyOp34
 70
     1
102
RTVSPropertyOp35
 70
     1
102
RTVSPropertyOp36
 70
     1
102
RTVSPropertyOp37
 70
     1
102
RTVSPropertyOp38
 70
     1
102
RTVSPropertyOp39
 70
     1
102
RTVSPropertyOp40
 70
     1
102
RTVSPropertyOp41
 70
     1
102
RTVSPropertyOp42
 70
     1
102
RTVSPropertyOp43
 70
     1
102
RTVSPropertyOp44
 70
     1
102
RTVSPropertyOp45
 70
     1
102
RTVSPropertyOp46
 70
     1
102
RTVSPropertyOp47
 70
     1
102
RTVSPropertyOp48
 70
     1
102
RTVSPropertyOp49
 70
     1
102
RTVSPropertyOp50
 70
     1
102
RTVSPropertyOp51
 70
     0
102
RTVSPropertyOp52
 70
     0
102
RTVSPropertyOp53
 70
     1
102
RTVSPropertyOp54
 70
     1
102
RTVSPropertyOp55
 70
     1
102
RTVSPropertyOp56
 70
     1
102
RTVSPropertyOp57
 70
     1
102
RTVSPost2010Prop28
280
     0
102
RTVSPost2010PropOp28
 70
     1
102
RTVSPost2010Prop29
280
     1
102
RTVSPost2010PropOp29
 70
     1
102
RTVSPost2010Prop30
280
     1
102
RTVSPost2010PropOp30
 70
     1
102
RTVSPost2010Prop31
280
     0
102
RTVSPost2010PropOp31
 70
     1
102
RTVSPost2010Prop32
280
     0
102
RTVSPost2010PropOp32
 70
     1
102
RTVSPost2010Prop33
280
     0
102
RTVSPost2010PropOp33
 70
     1
102
RTVSPost2010Prop34
280
     0
102
RTVSPost2010PropOp34
 70
     1
102
RTVSPost2010Prop35
280
     0
102
RTVSPost2010PropOp35
 70
     1
102
RTVSPost2010Prop36
280
     0
102
RTVSPost2010PropOp36
 70
     1
102
RTVSPost2010Prop37
 90
       50
102
RTVSPost2010PropOp37
 70
     1
102
RTVSPost2010Prop38
140
0.0
102
RTVSPost2010PropOp38
 70
     1
102
RTVSPost2010Prop39
140
1.0
102
RTVSPost2010PropOp39
 70
     1
102
RTVSPost2010Prop40
 90
        0
102
RTVSPost2010PropOp40
 70
     1
102
RTVSPost2010Prop41ColorIndex
 90
      178
102
RTVSPost2010Prop41ColorRGB
 90
        0
102
RTVSPost2010PropOp41
 70
     1
102
RTVSPost2010Prop42
 90
       50
102
RTVSPost2010PropOp42
 70
     1
102
RTVSPost2010Prop43
 90
        3
102
RTVSPost2010PropOp43
 70
     1
102
RTVSPost2010Prop44ColorIndex
 90
        5
102
RTVSPost2010Prop44ColorRGB
 90
      255
102
RTVSPost2010PropOp44
 70
     1
102
RTVSPost2010Prop45
280
     0
102
RTVSPost2010PropOp45
 70
     1
102
RTVSPost2010Prop46
 90
       50
102
RTVSPost2010PropOp46
 70
     1
102
RTVSPost2010Prop47
 90
       50
102
RTVSPost2010PropOp47
 70
     1
102
RTVSPost2010Prop48
 90
       50
102
RTVSPost2010PropOp48
 70
     1
102
RTVSPost2010Prop49
280
     0
102
RTVSPost2010PropOp49
 70
     1
102
RTVSPost2010Prop50
 90
       50
102
RTVSPost2010PropOp50
 70
     1
102
RTVSPost2010Prop51ColorIndex
 90
      256
102
RTVSPost2010Prop51ColorRGB
 90
-16777216
102
RTVSPost2010PropOp51
 70
     0
102
RTVSPost2010Prop52
140
1.0
102
RTVSPost2010PropOp52
 70
     0
102
RTVSPost2010Prop53
 90
        2
102
RTVSPost2010PropOp53
 70
     1
102
RTVSPost2010Prop54
  1
strokes_ogs.tif
102
RTVSPost2010PropOp54
 70
     1
102
RTVSPost2010Prop55
280
     0
102
RTVSPost2010PropOp55
 70
     1
102
RTVSPost2010Prop56
140
1.0
102
RTVSPost2010PropOp56
 70
     1
102
RTVSPost2010Prop57
140
1.0
102
RTVSPost2010PropOp57
 70
     1
  0
XRECORD
  5
335
102
{ACAD_REACTORS
330
334
102
}
330
334
100
AcDbXrecord
280
     1
102
RTVSPropertyOp0
 70
     1
102
RTVSPropertyOp1
 70
     1
102
RTVSPropertyOp2
 70
     1
102
RTVSPropertyOp3
 70
     1
102
RTVSPropertyOp4
 70
     1
102
RTVSPropertyOp5
 70
     1
102
RTVSPropertyOp6
 70
     1
102
RTVSPropertyOp7
 70
     1
102
RTVSPropertyOp8
 70
     1
102
RTVSPropertyOp9
 70
     1
102
RTVSPropertyOp10
 70
     1
102
RTVSPropertyOp11
 70
     1
102
RTVSPropertyOp12
 70
     1
102
RTVSPropertyOp13
 70
     1
102
RTVSPropertyOp14
 70
     1
102
RTVSPropertyOp15
 70
     1
102
RTVSPropertyOp16
 70
     1
102
RTVSPropertyOp17
 70
     1
102
RTVSPropertyOp18
 70
     1
102
RTVSPropertyOp19
 70
     1
102
RTVSPropertyOp20
 70
     1
102
RTVSPropertyOp21
 70
     1
102
RTVSPropertyOp22
 70
     1
102
RTVSPropertyOp23
 70
     1
102
RTVSPropertyOp24
 70
     1
102
RTVSPropertyOp25
 70
     1
102
RTVSPropertyOp26
 70
     1
102
RTVSPropertyOp27
 70
     1
102
RTVSPropertyOp28
 70
     1
102
RTVSPropertyOp29
 70
     1
102
RTVSPropertyOp30
 70
     1
102
RTVSPropertyOp31
 70
     1
102
RTVSPropertyOp32
 70
     1
102
RTVSPropertyOp33
 70
     1
102
RTVSPropertyOp34
 70
     1
102
RTVSPropertyOp35
 70
     1
102
RTVSPropertyOp36
 70
     1
102
RTVSPropertyOp37
 70
     1
102
RTVSPropertyOp38
 70
     1
102
RTVSPropertyOp39
 70
     1
102
RTVSPropertyOp40
 70
     1
102
RTVSPropertyOp41
 70
     1
102
RTVSPropertyOp42
 70
     1
102
RTVSPropertyOp43
 70
     1
102
RTVSPropertyOp44
 70
     1
102
RTVSPropertyOp45
 70
     1
102
RTVSPropertyOp46
 70
     1
102
RTVSPropertyOp47
 70
     1
102
RTVSPropertyOp48
 70
     1
102
RTVSPropertyOp49
 70
     1
102
RTVSPropertyOp50
 70
     1
102
RTVSPropertyOp51
 70
     0
102
RTVSPropertyOp52
 70
     0
102
RTVSPropertyOp53
 70
     1
102
RTVSPropertyOp54
 70
     1
102
RTVSPropertyOp55
 70
     1
102
RTVSPropertyOp56
 70
     1
102
RTVSPropertyOp57
 70
     1
102
RTVSPost2010Prop28
280
     0
102
RTVSPost2010PropOp28
 70
     1
102
RTVSPost2010Prop29
280
     1
102
RTVSPost2010PropOp29
 70
     1
102
RTVSPost2010Prop30
280
     1
102
RTVSPost2010PropOp30
 70
     1
102
RTVSPost2010Prop31
280
     0
102
RTVSPost2010PropOp31
 70
     1
102
RTVSPost2010Prop32
280
     0
102
RTVSPost2010PropOp32
 70
     1
102
RTVSPost2010Prop33
280
     0
102
RTVSPost2010PropOp33
 70
     1
102
RTVSPost2010Prop34
280
     0
102
RTVSPost2010PropOp34
 70
     1
102
RTVSPost2010Prop35
280
     0
102
RTVSPost2010PropOp35
 70
     1
102
RTVSPost2010Prop36
280
     0
102
RTVSPost2010PropOp36
 70
     1
102
RTVSPost2010Prop37
 90
       50
102
RTVSPost2010PropOp37
 70
     1
102
RTVSPost2010Prop38
140
0.0
102
RTVSPost2010PropOp38
 70
     1
102
RTVSPost2010Prop39
140
1.0
102
RTVSPost2010PropOp39
 70
     1
102
RTVSPost2010Prop40
 90
        0
102
RTVSPost2010PropOp40
 70
     1
102
RTVSPost2010Prop41ColorIndex
 90
      178
102
RTVSPost2010Prop41ColorRGB
 90
        0
102
RTVSPost2010PropOp41
 70
     1
102
RTVSPost2010Prop42
 90
       50
102
RTVSPost2010PropOp42
 70
     1
102
RTVSPost2010Prop43
 90
        3
102
RTVSPost2010PropOp43
 70
     1
102
RTVSPost2010Prop44ColorIndex
 90
        5
102
RTVSPost2010Prop44ColorRGB
 90
      255
102
RTVSPost2010PropOp44
 70
     1
102
RTVSPost2010Prop45
280
     0
102
RTVSPost2010PropOp45
 70
     1
102
RTVSPost2010Prop46
 90
       50
102
RTVSPost2010PropOp46
 70
     1
102
RTVSPost2010Prop47
 90
       50
102
RTVSPost2010PropOp47
 70
     1
102
RTVSPost2010Prop48
 90
       50
102
RTVSPost2010PropOp48
 70
     1
102
RTVSPost2010Prop49
280
     0
102
RTVSPost2010PropOp49
 70
     1
102
RTVSPost2010Prop50
 90
       50
102
RTVSPost2010PropOp50
 70
     1
102
RTVSPost2010Prop51ColorIndex
 90
      256
102
RTVSPost2010Prop51ColorRGB
 90
-16777216
102
RTVSPost2010PropOp51
 70
     0
102
RTVSPost2010Prop52
140
1.0
102
RTVSPost2010PropOp52
 70
     0
102
RTVSPost2010Prop53
 90
        2
102
RTVSPost2010PropOp53
 70
     1
102
RTVSPost2010Prop54
  1
strokes_ogs.tif
102
RTVSPost2010PropOp54
 70
     1
102
RTVSPost2010Prop55
280
     0
102
RTVSPost2010PropOp55
 70
     1
102
RTVSPost2010Prop56
140
1.0
102
RTVSPost2010PropOp56
 70
     1
102
RTVSPost2010Prop57
140
1.0
102
RTVSPost2010PropOp57
 70
     1
  0
XRECORD
  5
355
102
{ACAD_REACTORS
330
354
102
}
330
354
100
AcDbXrecord
280
     1
102
RTVSPropertyOp0
 70
     1
102
RTVSPropertyOp1
 70
     1
102
RTVSPropertyOp2
 70
     1
102
RTVSPropertyOp3
 70
     1
102
RTVSPropertyOp4
 70
     1
102
RTVSPropertyOp5
 70
     1
102
RTVSPropertyOp6
 70
     1
102
RTVSPropertyOp7
 70
     1
102
RTVSPropertyOp8
 70
     1
102
RTVSPropertyOp9
 70
     1
102
RTVSPropertyOp10
 70
     1
102
RTVSPropertyOp11
 70
     1
102
RTVSPropertyOp12
 70
     1
102
RTVSPropertyOp13
 70
     1
102
RTVSPropertyOp14
 70
     1
102
RTVSPropertyOp15
 70
     1
102
RTVSPropertyOp16
 70
     1
102
RTVSPropertyOp17
 70
     1
102
RTVSPropertyOp18
 70
     1
102
RTVSPropertyOp19
 70
     1
102
RTVSPropertyOp20
 70
     1
102
RTVSPropertyOp21
 70
     1
102
RTVSPropertyOp22
 70
     1
102
RTVSPropertyOp23
 70
     1
102
RTVSPropertyOp24
 70
     1
102
RTVSPropertyOp25
 70
     1
102
RTVSPropertyOp26
 70
     1
102
RTVSPropertyOp27
 70
     1
102
RTVSPropertyOp28
 70
     1
102
RTVSPropertyOp29
 70
     1
102
RTVSPropertyOp30
 70
     1
102
RTVSPropertyOp31
 70
     1
102
RTVSPropertyOp32
 70
     1
102
RTVSPropertyOp33
 70
     1
102
RTVSPropertyOp34
 70
     1
102
RTVSPropertyOp35
 70
     1
102
RTVSPropertyOp36
 70
     1
102
RTVSPropertyOp37
 70
     1
102
RTVSPropertyOp38
 70
     1
102
RTVSPropertyOp39
 70
     1
102
RTVSPropertyOp40
 70
     1
102
RTVSPropertyOp41
 70
     1
102
RTVSPropertyOp42
 70
     1
102
RTVSPropertyOp43
 70
     1
102
RTVSPropertyOp44
 70
     1
102
RTVSPropertyOp45
 70
     1
102
RTVSPropertyOp46
 70
     1
102
RTVSPropertyOp47
 70
     1
102
RTVSPropertyOp48
 70
     1
102
RTVSPropertyOp49
 70
     1
102
RTVSPropertyOp50
 70
     1
102
RTVSPropertyOp51
 70
     0
102
RTVSPropertyOp52
 70
     0
102
RTVSPropertyOp53
 70
     1
102
RTVSPropertyOp54
 70
     1
102
RTVSPropertyOp55
 70
     1
102
RTVSPropertyOp56
 70
     1
102
RTVSPropertyOp57
 70
     1
102
RTVSPost2010Prop28
280
     0
102
RTVSPost2010PropOp28
 70
     1
102
RTVSPost2010Prop29
280
     1
102
RTVSPost2010PropOp29
 70
     1
102
RTVSPost2010Prop30
280
     1
102
RTVSPost2010PropOp30
 70
     1
102
RTVSPost2010Prop31
280
     0
102
RTVSPost2010PropOp31
 70
     1
102
RTVSPost2010Prop32
280
     0
102
RTVSPost2010PropOp32
 70
     1
102
RTVSPost2010Prop33
280
     0
102
RTVSPost2010PropOp33
 70
     1
102
RTVSPost2010Prop34
280
     0
102
RTVSPost2010PropOp34
 70
     1
102
RTVSPost2010Prop35
280
     0
102
RTVSPost2010PropOp35
 70
     1
102
RTVSPost2010Prop36
280
     0
102
RTVSPost2010PropOp36
 70
     1
102
RTVSPost2010Prop37
 90
       50
102
RTVSPost2010PropOp37
 70
     1
102
RTVSPost2010Prop38
140
0.0
102
RTVSPost2010PropOp38
 70
     1
102
RTVSPost2010Prop39
140
1.0
102
RTVSPost2010PropOp39
 70
     1
102
RTVSPost2010Prop40
 90
        0
102
RTVSPost2010PropOp40
 70
     1
102
RTVSPost2010Prop41ColorIndex
 90
      178
102
RTVSPost2010Prop41ColorRGB
 90
        0
102
RTVSPost2010PropOp41
 70
     1
102
RTVSPost2010Prop42
 90
       50
102
RTVSPost2010PropOp42
 70
     1
102
RTVSPost2010Prop43
 90
        3
102
RTVSPost2010PropOp43
 70
     1
102
RTVSPost2010Prop44ColorIndex
 90
        5
102
RTVSPost2010Prop44ColorRGB
 90
      255
102
RTVSPost2010PropOp44
 70
     1
102
RTVSPost2010Prop45
280
     0
102
RTVSPost2010PropOp45
 70
     1
102
RTVSPost2010Prop46
 90
       50
102
RTVSPost2010PropOp46
 70
     1
102
RTVSPost2010Prop47
 90
       50
102
RTVSPost2010PropOp47
 70
     1
102
RTVSPost2010Prop48
 90
       50
102
RTVSPost2010PropOp48
 70
     1
102
RTVSPost2010Prop49
280
     0
102
RTVSPost2010PropOp49
 70
     1
102
RTVSPost2010Prop50
 90
       50
102
RTVSPost2010PropOp50
 70
     1
102
RTVSPost2010Prop51ColorIndex
 90
      256
102
RTVSPost2010Prop51ColorRGB
 90
-16777216
102
RTVSPost2010PropOp51
 70
     0
102
RTVSPost2010Prop52
140
1.0
102
RTVSPost2010PropOp52
 70
     0
102
RTVSPost2010Prop53
 90
        2
102
RTVSPost2010PropOp53
 70
     1
102
RTVSPost2010Prop54
  1
strokes_ogs.tif
102
RTVSPost2010PropOp54
 70
     1
102
RTVSPost2010Prop55
280
     0
102
RTVSPost2010PropOp55
 70
     1
102
RTVSPost2010Prop56
140
1.0
102
RTVSPost2010PropOp56
 70
     1
102
RTVSPost2010Prop57
140
1.0
102
RTVSPost2010PropOp57
 70
     1
  0
ENDSEC
  0
EOF
