  0
SECTION
  2
HEADER
  9
$ACADVER
  1
AC1024
  9
$ACADMAINTVER
 70
     6
  9
$DWGCODEPAGE
  3
ANSI_1252
  9
$INSBASE
 10
0.0
 20
0.0
 30
0.0
  9
$EXTMIN
 10
1.000000000000000E+20
 20
1.000000000000000E+20
 30
1.000000000000000E+20
  9
$EXTMAX
 10
-1.000000000000000E+20
 20
-1.000000000000000E+20
 30
-1.000000000000000E+20
  9
$LIMMIN
 10
0.0
 20
0.0
  9
$LIMMAX
 10
12.0
 20
9.0
  9
$ORTHOMODE
 70
     0
  9
$REGENMODE
 70
     1
  9
$FILLMODE
 70
     1
  9
$QTEXTMODE
 70
     0
  9
$MIRRTEXT
 70
     1
  9
$LTSCALE
 40
1.0
  9
$ATTMODE
 70
     1
  9
$TEXTSIZE
 40
0.2
  9
$TRACEWID
 40
0.05
  9
$TEXTSTYLE
  7
Standard
  9
$CLAYER
  8
0
  9
$CELTYPE
  6
ByLayer
  9
$CECOLOR
 62
   256
  9
$CELTSCALE
 40
1.0
  9
$DISPSILH
 70
     0
  9
$DIMSCALE
 40
1.0
  9
$DIMASZ
 40
0.18
  9
$DIMEXO
 40
0.0625
  9
$DIMDLI
 40
0.38
  9
$DIMRND
 40
0.0
  9
$DIMDLE
 40
0.0
  9
$DIMEXE
 40
0.18
  9
$DIMTP
 40
0.0
  9
$DIMTM
 40
0.0
  9
$DIMTXT
 40
0.18
  9
$DIMCEN
 40
0.09
  9
$DIMTSZ
 40
0.0
  9
$DIMTOL
 70
     0
  9
$DIMLIM
 70
     0
  9
$DIMTIH
 70
     1
  9
$DIMTOH
 70
     1
  9
$DIMSE1
 70
     0
  9
$DIMSE2
 70
     0
  9
$DIMTAD
 70
     0
  9
$DIMZIN
 70
     0
  9
$DIMBLK
  1

  9
$DIMASO
 70
     1
  9
$DIMSHO
 70
     1
  9
$DIMPOST
  1

  9
$DIMAPOST
  1

  9
$DIMALT
 70
     0
  9
$DIMALTD
 70
     2
  9
$DIMALTF
 40
25.4
  9
$DIMLFAC
 40
1.0
  9
$DIMTOFL
 70
     0
  9
$DIMTVP
 40
0.0
  9
$DIMTIX
 70
     0
  9
$DIMSOXD
 70
     0
  9
$DIMSAH
 70
     0
  9
$DIMBLK1
  1

  9
$DIMBLK2
  1

  9
$DIMSTYLE
  2
Standard
  9
$DIMCLRD
 70
     0
  9
$DIMCLRE
 70
     0
  9
$DIMCLRT
 70
     0
  9
$DIMTFAC
 40
1.0
  9
$DIMGAP
 40
0.09
  9
$DIMJUST
 70
     0
  9
$DIMSD1
 70
     0
  9
$DIMSD2
 70
     0
  9
$DIMTOLJ
 70
     1
  9
$DIMTZIN
 70
     0
  9
$DIMALTZ
 70
     0
  9
$DIMALTTZ
 70
     0
  9
$DIMUPT
 70
     0
  9
$DIMDEC
 70
     4
  9
$DIMTDEC
 70
     4
  9
$DIMALTU
 70
     2
  9
$DIMALTTD
 70
     2
  9
$DIMTXSTY
  7
Standard
  9
$DIMAUNIT
 70
     0
  9
$DIMADEC
 70
     0
  9
$DIMALTRND
 40
0.0
  9
$DIMAZIN
 70
     0
  9
$DIMDSEP
 70
    46
  9
$DIMATFIT
 70
     3
  9
$DIMFRAC
 70
     0
  9
$DIMLDRBLK
  1

  9
$DIMLUNIT
 70
     2
  9
$DIMLWD
 70
    -2
  9
$DIMLWE
 70
    -2
  9
$DIMTMOVE
 70
     0
  9
$DIMFXL
 40
1.0
  9
$DIMFXLON
 70
     0
  9
$DIMJOGANG
 40
0.7853981633974483
  9
$DIMTFILL
 70
     0
  9
$DIMTFILLCLR
 70
     0
  9
$DIMARCSYM
 70
     0
  9
$DIMLTYPE
  6

  9
$DIMLTEX1
  6

  9
$DIMLTEX2
  6

  9
$DIMTXTDIRECTION
 70
     0
  9
$LUNITS
 70
     2
  9
$LUPREC
 70
     4
  9
$SKETCHINC
 40
0.1
  9
$FILLETRAD
 40
0.5
  9
$AUNITS
 70
     0
  9
$AUPREC
 70
     0
  9
$MENU
  1
.
  9
$ELEVATION
 40
0.0
  9
$PELEVATION
 40
0.0
  9
$THICKNESS
 40
0.0
  9
$LIMCHECK
 70
     0
  9
$CHAMFERA
 40
0.0
  9
$CHAMFERB
 40
0.0
  9
$CHAMFERC
 40
0.0
  9
$CHAMFERD
 40
0.0
  9
$SKPOLY
 70
     0
  9
$TDCREATE
 40
2459818.609733785
  9
$TDUCREATE
 40
2459818.56806713
  9
$TDUPDATE
 40
2459818.609756933
  9
$TDUUPDATE
 40
2459818.568090278
  9
$TDINDWG
 40
0.0000000116
  9
$TDUSRTIMER
 40
0.0000000116
  9
$USRTIMER
 70
     1
  9
$ANGBASE
 50
0.0
  9
$ANGDIR
 70
     0
  9
$PDMODE
 70
     0
  9
$PDSIZE
 40
0.0
  9
$PLINEWID
 40
0.0
  9
$SPLFRAME
 70
     0
  9
$SPLINETYPE
 70
     6
  9
$SPLINESEGS
 70
     8
  9
$HANDSEED
  5
3A3
  9
$SURFTAB1
 70
     6
  9
$SURFTAB2
 70
     6
  9
$SURFTYPE
 70
     6
  9
$SURFU
 70
     6
  9
$SURFV
 70
     6
  9
$UCSBASE
  2

  9
$UCSNAME
  2

  9
$UCSORG
 10
0.0
 20
0.0
 30
0.0
  9
$UCSXDIR
 10
1.0
 20
0.0
 30
0.0
  9
$UCSYDIR
 10
0.0
 20
1.0
 30
0.0
  9
$UCSORTHOREF
  2

  9
$UCSORTHOVIEW
 70
     0
  9
$UCSORGTOP
 10
0.0
 20
0.0
 30
0.0
  9
$UCSORGBOTTOM
 10
0.0
 20
0.0
 30
0.0
  9
$UCSORGLEFT
 10
0.0
 20
0.0
 30
0.0
  9
$UCSORGRIGHT
 10
0.0
 20
0.0
 30
0.0
  9
$UCSORGFRONT
 10
0.0
 20
0.0
 30
0.0
  9
$UCSORGBACK
 10
0.0
 20
0.0
 30
0.0
  9
$PUCSBASE
  2

  9
$PUCSNAME
  2

  9
$PUCSORG
 10
0.0
 20
0.0
 30
0.0
  9
$PUCSXDIR
 10
1.0
 20
0.0
 30
0.0
  9
$PUCSYDIR
 10
0.0
 20
1.0
 30
0.0
  9
$PUCSORTHOREF
  2

  9
$PUCSORTHOVIEW
 70
     0
  9
$PUCSORGTOP
 10
0.0
 20
0.0
 30
0.0
  9
$PUCSORGBOTTOM
 10
0.0
 20
0.0
 30
0.0
  9
$PUCSORGLEFT
 10
0.0
 20
0.0
 30
0.0
  9
$PUCSORGRIGHT
 10
0.0
 20
0.0
 30
0.0
  9
$PUCSORGFRONT
 10
0.0
 20
0.0
 30
0.0
  9
$PUCSORGBACK
 10
0.0
 20
0.0
 30
0.0
  9
$USERI1
 70
     0
  9
$USERI2
 70
     0
  9
$USERI3
 70
     0
  9
$USERI4
 70
     0
  9
$USERI5
 70
     0
  9
$USERR1
 40
0.0
  9
$USERR2
 40
0.0
  9
$USERR3
 40
0.0
  9
$USERR4
 40
0.0
  9
$USERR5
 40
0.0
  9
$WORLDVIEW
 70
     1
  9
$SHADEDGE
 70
     3
  9
$SHADEDIF
 70
    70
  9
$TILEMODE
 70
     0
  9
$MAXACTVP
 70
    64
  9
$PINSBASE
 10
0.0
 20
0.0
 30
0.0
  9
$PLIMCHECK
 70
     0
  9
$PEXTMIN
 10
1.000000000000000E+20
 20
1.000000000000000E+20
 30
1.000000000000000E+20
  9
$PEXTMAX
 10
-1.000000000000000E+20
 20
-1.000000000000000E+20
 30
-1.000000000000000E+20
  9
$PLIMMIN
 10
0.0
 20
0.0
  9
$PLIMMAX
 10
12.0
 20
9.0
  9
$UNITMODE
 70
     0
  9
$VISRETAIN
 70
     1
  9
$PLINEGEN
 70
     0
  9
$PSLTSCALE
 70
     0
  9
$TREEDEPTH
 70
  3020
  9
$CMLSTYLE
  2
Standard
  9
$CMLJUST
 70
     0
  9
$CMLSCALE
 40
1.0
  9
$PROXYGRAPHICS
 70
     1
  9
$MEASUREMENT
 70
     0
  9
$CELWEIGHT
370
    -1
  9
$ENDCAPS
280
     0
  9
$JOINSTYLE
280
     0
  9
$LWDISPLAY
290
     1
  9
$INSUNITS
 70
     6
  9
$HYPERLINKBASE
  1

  9
$STYLESHEET
  1

  9
$XEDIT
290
     1
  9
$CEPSNTYPE
380
     0
  9
$PSTYLEMODE
290
     1
  9
$FINGERPRINTGUID
  2
{53EBB15A-C798-1B29-5E52-AF872DD809CE}
  9
$VERSIONGUID
  2
{FAEB1C32-E019-11D5-929B-00C0DF256EC4}
  9
$EXTNAMES
290
     1
  9
$PSVPSCALE
 40
0.0
  9
$OLESTARTUP
290
     0
  9
$SORTENTS
280
   127
  9
$INDEXCTL
280
     0
  9
$HIDETEXT
280
     1
  9
$XCLIPFRAME
280
     0
  9
$HALOGAP
280
     0
  9
$OBSCOLOR
 70
   257
  9
$OBSLTYPE
280
     0
  9
$INTERSECTIONDISPLAY
280
     0
  9
$INTERSECTIONCOLOR
 70
   257
  9
$DIMASSOC
280
     2
  9
$PROJECTNAME
  1

  9
$CAMERADISPLAY
290
     0
  9
$LENSLENGTH
 40
50.0
  9
$CAMERAHEIGHT
 40
0.0
  9
$STEPSPERSEC
 40
2.0
  9
$STEPSIZE
 40
6.0
  9
$3DDWFPREC
 40
2.0
  9
$PSOLWIDTH
 40
0.25
  9
$PSOLHEIGHT
 40
4.0
  9
$LOFTANG1
 40
1.570796326794897
  9
$LOFTANG2
 40
1.570796326794897
  9
$LOFTMAG1
 40
0.0
  9
$LOFTMAG2
 40
0.0
  9
$LOFTPARAM
 70
     7
  9
$LOFTNORMALS
280
     1
  9
$LATITUDE
 40
37.795
  9
$LONGITUDE
 40
-122.394
  9
$NORTHDIRECTION
 40
0.0
  9
$TIMEZONE
 70
 -8000
  9
$LIGHTGLYPHDISPLAY
280
     1
  9
$TILEMODELIGHTSYNCH
280
     1
  9
$CMATERIAL
347
44
  9
$SOLIDHIST
280
     1
  9
$SHOWHIST
280
     1
  9
$DWFFRAME
280
     2
  9
$DGNFRAME
280
     2
  9
$REALWORLDSCALE
290
     1
  9
$INTERFERECOLOR
 62
   256
  9
$CSHADOW
280
     0
  9
$SHADOWPLANELOCATION
 40
0.0
  0
ENDSEC
  0
SECTION
  2
CLASSES
  0
CLASS
  1
ACDBDICTIONARYWDFLT
  2
AcDbDictionaryWithDefault
  3
ObjectDBX Classes
 90
        0
 91
        4
280
     0
281
     0
  0
CLASS
  1
VISUALSTYLE
  2
AcDbVisualStyle
  3
ObjectDBX Classes
 90
     4095
 91
        4
280
     0
281
     0
  0
CLASS
  1
MATERIAL
  2
AcDbMaterial
  3
ObjectDBX Classes
 90
     1153
 91
        4
280
     0
281
     0
  0
CLASS
  1
SCALE
  2
AcDbScale
  3
ObjectDBX Classes
 90
     1153
 91
        4
280
     0
281
     0
  0
CLASS
  1
SUN
  2
AcDbSun
  3
SCENEOE
 90
     1153
 91
        4
280
     0
281
     0
  0
CLASS
  1
DICTIONARYVAR
  2
AcDbDictionaryVar
  3
ObjectDBX Classes
 90
        0
 91
        4
280
     0
281
     0
  0
ENDSEC
  0
SECTION
  2
TABLES
  0
TABLE
  2
VPORT
  5
8
330
0
100
AcDbSymbolTable
 70
     1
  0
VPORT
  5
29
330
8
100
AcDbSymbolTableRecord
100
AcDbViewportTableRecord
  2
*Active
 70
     0
 10
0.0
 20
0.0
 11
1.0
 21
1.0
 12
10.42990654205607
 22
4.5
 13
0.0
 23
0.0
 14
0.5
 24
0.5
 15
0.5
 25
0.5
 16
0.0
 26
0.0
 36
1.0
 17
0.0
 27
0.0
 37
0.0
 40
9.0
 41
1.972972972850329
 42
50.0
 43
0.0
 44
0.0
 50
0.0
 51
0.0
 71
     0
 72
   100
 73
     1
 74
     3
 75
     0
 76
     0
 77
     0
 78
     0
281
     0
 65
     1
110
0.0
120
0.0
130
0.0
111
1.0
121
0.0
131
0.0
112
0.0
122
1.0
132
0.0
 79
     0
146
0.0
 60
     3
 61
     5
292
     1
282
     1
141
0.0
142
0.0
 63
   250
361
69
  0
ENDTAB
  0
TABLE
  2
LTYPE
  5
5
330
0
100
AcDbSymbolTable
 70
     7
  0
LTYPE
  5
14
330
5
100
AcDbSymbolTableRecord
100
AcDbLinetypeTableRecord
  2
ByBlock
 70
     0
  3

 72
    65
 73
     0
 40
0.0
  0
LTYPE
  5
15
330
5
100
AcDbSymbolTableRecord
100
AcDbLinetypeTableRecord
  2
ByLayer
 70
     0
  3

 72
    65
 73
     0
 40
0.0
  0
LTYPE
  5
16
330
5
100
AcDbSymbolTableRecord
100
AcDbLinetypeTableRecord
  2
Continuous
 70
     0
  3
Solid line
 72
    65
 73
     0
 40
0.0
  0
LTYPE
  5
18F
330
5
100
AcDbSymbolTableRecord
100
AcDbLinetypeTableRecord
  2
STRICHLINIE__LANG
 70
     0
  3
- - - - - 
 72
    65
 73
     2
 40
0.021167
 49
0.0127
 74
     0
 49
-0.008467
 74
     0
  0
LTYPE
  5
195
330
5
100
AcDbSymbolTableRecord
100
AcDbLinetypeTableRecord
  2
Strich 2_1mm
 70
     0
  3
- - - - - 
 72
    65
 73
     2
 40
0.006
 49
0.004
 74
     0
 49
-0.002
 74
     0
  0
LTYPE
  5
1A5
330
5
100
AcDbSymbolTableRecord
100
AcDbLinetypeTableRecord
  2
Dachwasserlinie
 70
     0
  3
- - - - - 
 72
    65
 73
     4
 40
0.008
 49
0.002
 74
     0
 49
-0.002
 74
     0
 49
0.002
 74
     0
 49
-0.002
 74
     0
  0
LTYPE
  5
323
330
5
100
AcDbSymbolTableRecord
100
AcDbLinetypeTableRecord
  2
STRICHLINIEX2
 70
     0
  3
- - - - - 
 72
    65
 73
     2
 40
0.0381
 49
0.0254
 74
     0
 49
-0.0127
 74
     0
  0
LTYPE
  5
338
330
5
100
AcDbSymbolTableRecord
100
AcDbLinetypeTableRecord
  2
STRICHLINIE2_S3
 70
     0
  3
- - - - - 
 72
    65
 73
     2
 40
0.0025
 49
0.0
 74
     0
 49
-0.0025
 74
     0
  0
LTYPE
  5
347
330
5
100
AcDbSymbolTableRecord
100
AcDbLinetypeTableRecord
  2
STRICHLINIE_S4
 70
     0
  3
- - - - - 
 72
    65
 73
     2
 40
0.01
 49
0.005
 74
     0
 49
-0.005
 74
     0
  0
ENDTAB
  0
TABLE
  2
LAYER
  5
2
330
0
100
AcDbSymbolTable
 70
     3
  0
LAYER
  5
10
330
2
100
AcDbSymbolTableRecord
100
AcDbLayerTableRecord
  2
0
 70
     0
 62
     7
  6
Continuous
370
    -3
390
F
347
46
  0
LAYER
  5
6C
330
2
100
AcDbSymbolTableRecord
100
AcDbLayerTableRecord
  2
000 Kataster
 70
     0
 62
     7
  6
Continuous
370
    -3
390
F
347
46
  0
LAYER
  5
34B
330
2
100
AcDbSymbolTableRecord
100
AcDbLayerTableRecord
  2
NonPlottable_000 Kataster
 70
     0
 62
     7
  6
Continuous
290
     0
370
    -3
390
F
347
46
  0
ENDTAB
  0
TABLE
  2
STYLE
  5
3
330
0
100
AcDbSymbolTable
 70
     2
  0
STYLE
  5
11
330
3
100
AcDbSymbolTableRecord
100
AcDbTextStyleTableRecord
  2
Standard
 70
     0
 40
0.0
 41
1.0
 50
0.0
 71
     0
 42
0.2
  3
txt
  4

  0
STYLE
  5
361
330
3
100
AcDbSymbolTableRecord
100
AcDbTextStyleTableRecord
  2
ERSTELLTER_STIL_1
 70
     0
 40
0.0
 41
1.0
 50
0.0
 71
     0
 42
0.2
  3

  4

1001
ACAD
1000
Arial
1071
       34
  0
ENDTAB
  0
TABLE
  2
VIEW
  5
6
330
0
100
AcDbSymbolTable
 70
     0
  0
ENDTAB
  0
TABLE
  2
UCS
  5
7
330
0
100
AcDbSymbolTable
 70
     0
  0
ENDTAB
  0
TABLE
  2
APPID
  5
9
330
0
100
AcDbSymbolTable
 70
     1
  0
APPID
  5
12
330
9
100
AcDbSymbolTableRecord
100
AcDbRegAppTableRecord
  2
ACAD
 70
     0
  0
ENDTAB
  0
TABLE
  2
DIMSTYLE
  5
A
330
0
100
AcDbSymbolTable
 70
     1
100
AcDbDimStyleTable
  0
DIMSTYLE
105
27
330
A
100
AcDbSymbolTableRecord
100
AcDbDimStyleTableRecord
  2
Standard
 70
     0
178
     0
340
11
  0
ENDTAB
  0
TABLE
  2
BLOCK_RECORD
  5
1
330
0
100
AcDbSymbolTable
 70
     1
  0
BLOCK_RECORD
  5
1F
330
1
100
AcDbSymbolTableRecord
100
AcDbBlockTableRecord
  2
*Model_Space
340
22
 70
     0
280
     1
281
     0
  0
BLOCK_RECORD
  5
1B
330
1
100
AcDbSymbolTableRecord
100
AcDbBlockTableRecord
  2
*Paper_Space
340
1E
 70
     0
280
     1
281
     0
  0
ENDTAB
  0
ENDSEC
  0
SECTION
  2
BLOCKS
  0
BLOCK
  5
20
330
1F
100
AcDbEntity
  8
0
100
AcDbBlockBegin
  2
*Model_Space
 70
     0
 10
0.0
 20
0.0
 30
0.0
  3
*Model_Space
  1
*Model_Space
  0
ENDBLK
  5
21
330
1F
100
AcDbEntity
  8
0
100
AcDbBlockEnd
  0
BLOCK
  5
1C
330
1B
100
AcDbEntity
 67
     1
  8
0
100
AcDbBlockBegin
  2
*Paper_Space
 70
     0
 10
0.0
 20
0.0
 30
0.0
  3
*Paper_Space
  1
*Paper_Space
  0
ENDBLK
  5
1D
330
1B
100
AcDbEntity
 67
     1
  8
0
100
AcDbBlockEnd
  0
ENDSEC
  0
SECTION
  2
ENTITIES
  0
HATCH
  5
6B
330
1F
100
AcDbEntity
  8
000 Kataster
  6
Continuous
 62
   254
420
 14806250
370
    35
100
AcDbHatch
 10
0.0
 20
0.0
 30
0.0
210
0.0
220
0.0
230
1.0
  2
SOLID
 70
     1
 71
     1
 91
        1
 92
        3
 72
     0
 73
     1
 93
        5
 10
-6.084170096639578
 20
2.299623888062122
 10
-6.0810730752093
 20
2.299623888062122
 10
-6.0810730752093
 20
3.691414354564808
 10
-6.082694306705978
 20
3.68979312306813
 10
-6.084170096639578
 20
3.68979312306813
 97
        1
330
6D
 75
     0
 76
     1
 98
        0
  0
LWPOLYLINE
  5
6D
102
{ACAD_REACTORS
330
6B
102
}
330
1F
100
AcDbEntity
  8
000 Kataster
  6
Continuous
 62
     7
370
    13
100
AcDbPolyline
 90
        5
 70
   129
 43
0.0
 10
-6.084170096639578
 20
2.299623888062122
 10
-6.0810730752093
 20
2.299623888062122
 10
-6.0810730752093
 20
3.691414354564808
 10
-6.082694306705978
 20
3.68979312306813
 10
-6.084170096639578
 20
3.68979312306813
  0
HATCH
  5
6E
330
1F
100
AcDbEntity
  8
000 Kataster
  6
Continuous
 62
     7
370
    18
100
AcDbHatch
 10
0.0
 20
0.0
 30
0.0
210
0.0
220
0.0
230
1.0
  2
__Mörtel__0002
 70
     0
 71
     1
 91
        1
 92
        3
 72
     0
 73
     1
 93
        4
 10
-5.638103939523738
 20
3.68880090758545
 10
-5.638103939523738
 20
3.692202698370703
 10
-6.063169969395417
 20
3.692202698370704
 10
-6.063169969395417
 20
3.68880090758545
 97
        1
330
6F
 75
     0
 76
     2
 52
0.0
 41
1.0
 77
     0
 78
     2
 53
44.99999999999999
 43
0.0
 44
0.01
 45
-0.0031819805153395
 46
0.0031819805153395
 79
     4
 49
0.0
 49
-0.003
 49
0.0
 49
-0.0045
 53
110.0
 43
0.01
 44
0.01
 45
0.0042286167935366
 46
0.0015390906449655
 79
     4
 49
0.0
 49
-0.0022
 49
0.0
 49
-0.0038
 98
        0
  0
LWPOLYLINE
  5
6F
102
{ACAD_REACTORS
330
6E
102
}
330
1F
100
AcDbEntity
  8
000 Kataster
  6
Continuous
 62
     7
370
    13
100
AcDbPolyline
 90
        4
 70
   129
 43
0.0
 10
-5.638103939523738
 20
3.68880090758545
 10
-5.638103939523738
 20
3.692202698370703
 10
-6.063169969395417
 20
3.692202698370704
 10
-6.063169969395417
 20
3.68880090758545
  0
HATCH
  5
70
330
1F
100
AcDbEntity
  8
000 Kataster
  6
Continuous
 62
     7
370
    18
100
AcDbHatch
 10
0.0
 20
0.0
 30
0.0
210
0.0
220
0.0
230
1.0
  2
__Holz__massiv_0002
 70
     0
 71
     0
 91
        1
 92
        3
 72
     0
 73
     1
 93
        8
 10
-5.626103939523734
 20
3.723205768028305
 10
-5.576103939523735
 20
3.723205768028305
 10
-5.576103939523735
 20
3.688205768028306
 10
-5.615493191216089
 20
3.688205768028306
 10
-5.615493191216089
 20
3.698205768028306
 10
-5.821107301194111
 20
3.698205768028305
 10
-5.821107301194111
 20
3.713205768028305
 10
-5.821107301194111
 20
3.723205768028305
 97
        0
 75
     0
 76
     2
 52
0.0
 41
1.0
 77
     0
 78
     1
 53
65.0
 43
0.0
 44
0.0
 45
-0.0072504622962932
 46
0.0033809460939256
 79
     0
 98
        0
  0
HATCH
  5
71
330
1F
100
AcDbEntity
  8
000 Kataster
  6
Continuous
 62
     7
370
    18
100
AcDbHatch
 10
0.0
 20
0.0
 30
0.0
210
0.0
220
0.0
230
1.0
  2
Dichtungsmasse_0002
 70
     0
 71
     1
 91
        1
 92
        3
 72
     0
 73
     1
 93
        8
 10
-6.063170096639579
 20
3.696465849232669
 10
-6.077170096639579
 20
3.695317333134529
 10
-6.0810730752093
 20
3.691414354564808
 10
-6.0810730752093
 20
3.680313670802127
 10
-6.0810730752093
 20
2.299623888062122
 10
-6.063103939523739
 20
2.299623888062122
 10
-6.063103939523739
 20
2.433765920782923
 10
-6.063103939523739
 20
2.477177943102948
 97
        1
330
72
 75
     0
 76
     2
 52
0.0
 41
1.0
 77
     0
 78
     2
 53
54.4623222080256
 43
0.0
 44
0.007
 45
-0.0015909902576697
 46
0.0022273863607376
 79
     4
 49
0.0
 49
-0.0018248287590895
 49
0.0
 49
-0.0027372431386342
 53
104.5730751475173
 43
0.005
 44
0.007
 45
0.0021143083967683
 46
0.0010773634514758
 79
     4
 49
0.0
 49
-0.0014952319594509
 49
0.0
 49
-0.0025826733845062
 98
        0
  0
LWPOLYLINE
  5
72
102
{ACAD_REACTORS
330
71
102
}
330
1F
100
AcDbEntity
  8
000 Kataster
  6
Continuous
 62
     7
370
    13
100
AcDbPolyline
 90
        8
 70
   129
 43
0.0
 10
-6.063170096639579
 20
3.696465849232669
 10
-6.077170096639579
 20
3.695317333134529
 10
-6.0810730752093
 20
3.691414354564808
 10
-6.0810730752093
 20
3.680313670802127
 10
-6.0810730752093
 20
2.299623888062122
 10
-6.063103939523739
 20
2.299623888062122
 10
-6.063103939523739
 20
2.433765920782923
 10
-6.063103939523739
 20
2.477177943102948
  0
HATCH
  5
73
330
1F
100
AcDbEntity
  8
000 Kataster
  6
Continuous
 62
   251
420
  6250335
370
    18
100
AcDbHatch
 10
0.0
 20
0.0
 30
0.0
210
0.0
220
0.0
230
1.0
  2
Kunststein__Betonwerkste_24
 70
     0
 71
     1
 91
        1
 92
        3
 72
     0
 73
     1
 93
       45
 10
-5.889107301194111
 20
3.696793123068129
 10
-5.889107301194111
 20
3.707777992573231
 10
-5.920184832865607
 20
3.707777992573231
 10
-5.920184832865607
 20
3.69879312306813
 10
-6.063170096639579
 20
3.69879312306813
 10
-6.063170096639579
 20
3.75146841603688
 10
-5.889107301194111
 20
3.768112701094653
 10
-5.889107301194111
 20
3.78679312306813
 10
-5.909107301194111
 20
3.78679312306813
 10
-5.909107301194111
 20
3.78146890431813
 10
-5.909114021745063
 20
3.78120975119019
 10
-5.909134165175286
 20
3.780951296224814
 10
-5.90916767733543
 20
3.780694232687862
 10
-5.90921446813847
 20
3.780439251614725
 10
-5.909274411801883
 20
3.780187038442736
 10
-5.909347347185768
 20
3.779938271168591
 10
-5.909433078226022
 20
3.779693618525759
 10
-5.909531374461399
 20
3.779453738186801
 10
-5.909641971653032
 20
3.779219274995424
 10
-5.909764572494762
 20
3.778990859233017
 10
-5.90989884741234
 20
3.778769104924341
 10
-5.910044435449404
 20
3.778554608186901
 10
-5.910200945237781
 20
3.778347945628489
 10
-5.910367956049568
 20
3.778149672797132
 10
-5.910545018928126
 20
3.777960322687692
 10
-5.910731657894956
 20
3.777780404309063
 10
-5.910927371229231
 20
3.777610401315869
 10
-5.9111316328165
 20
3.777450770708295
 10
-5.911343893562996
 20
3.777301941603599
 10
-5.911563582871699
 20
3.777164314082553
 10
-5.91179011017621
 20
3.777038258113956
 10
-5.912022866528303
 20
3.776924112560087
 10
-5.912261226234896
 20
3.776822184265775
 10
-5.912504548540027
 20
3.776732747233549
 10
-5.912752179347335
 20
3.776656041887062
 10
-5.913003452978389
 20
3.776592274424787
 10
-5.913257693962159
 20
3.77654161626572
 10
-5.913514218850808
 20
3.776504203588573
 10
-5.913772481346002
 20
3.776480127346836
 10
-6.13317009663958
 20
3.75679312306813
 10
-6.13317009663958
 20
3.696793123068129
 10
-6.118170096639579
 20
3.696793123068129
 10
-6.118170096639579
 20
3.70679312306813
 10
-6.108170096639579
 20
3.70679312306813
 10
-6.108170096639579
 20
3.696793123068129
 97
        1
330
74
 75
     0
 76
     2
 52
0.0
 41
1.0
 77
     0
 78
     2
 53
0.0
 43
-6.011138698916845
 44
3.74179312306813
 45
0.0
 46
0.0075
 79
     0
 53
90.0000000000002
 43
-6.011138698916845
 44
3.74179312306813
 45
-0.0075
 46
0.0
 79
     0
 98
        0
  0
LWPOLYLINE
  5
74
102
{ACAD_REACTORS
330
73
102
}
330
1F
100
AcDbEntity
  8
000 Kataster
  6
Continuous
 62
     7
370
    35
100
AcDbPolyline
 90
       45
 70
   129
 43
0.0
 10
-5.889107301194111
 20
3.696793123068129
 10
-5.889107301194111
 20
3.707777992573231
 10
-5.920184832865607
 20
3.707777992573231
 10
-5.920184832865607
 20
3.69879312306813
 10
-6.063170096639579
 20
3.69879312306813
 10
-6.063170096639579
 20
3.75146841603688
 10
-5.889107301194111
 20
3.768112701094653
 10
-5.889107301194111
 20
3.78679312306813
 10
-5.909107301194111
 20
3.78679312306813
 10
-5.909107301194111
 20
3.78146890431813
 10
-5.909114021745063
 20
3.78120975119019
 10
-5.909134165175286
 20
3.780951296224814
 10
-5.90916767733543
 20
3.780694232687862
 10
-5.90921446813847
 20
3.780439251614725
 10
-5.909274411801883
 20
3.780187038442736
 10
-5.909347347185768
 20
3.779938271168591
 10
-5.909433078226022
 20
3.779693618525759
 10
-5.909531374461399
 20
3.779453738186801
 10
-5.909641971653032
 20
3.779219274995424
 10
-5.909764572494762
 20
3.778990859233017
 10
-5.90989884741234
 20
3.778769104924341
 10
-5.910044435449404
 20
3.778554608186901
 10
-5.910200945237781
 20
3.778347945628489
 10
-5.910367956049568
 20
3.778149672797132
 10
-5.910545018928126
 20
3.777960322687692
 10
-5.910731657894956
 20
3.777780404309063
 10
-5.910927371229231
 20
3.777610401315869
 10
-5.9111316328165
 20
3.777450770708295
 10
-5.911343893562996
 20
3.777301941603599
 10
-5.911563582871699
 20
3.777164314082553
 10
-5.91179011017621
 20
3.777038258113956
 10
-5.912022866528303
 20
3.776924112560087
 10
-5.912261226234896
 20
3.776822184265775
 10
-5.912504548540027
 20
3.776732747233549
 10
-5.912752179347335
 20
3.776656041887062
 10
-5.913003452978389
 20
3.776592274424787
 10
-5.913257693962159
 20
3.77654161626572
 10
-5.913514218850808
 20
3.776504203588573
 10
-5.913772481346002
 20
3.776480127346836
 10
-6.13317009663958
 20
3.75679312306813
 10
-6.13317009663958
 20
3.696793123068129
 10
-6.118170096639579
 20
3.696793123068129
 10
-6.118170096639579
 20
3.70679312306813
 10
-6.108170096639579
 20
3.70679312306813
 10
-6.108170096639579
 20
3.696793123068129
  0
HATCH
  5
75
330
1F
100
AcDbEntity
  8
000 Kataster
  6
Continuous
 62
   251
420
  6974058
370
     9
100
AcDbHatch
 10
0.0
 20
0.0
 30
0.0
210
0.0
220
0.0
230
1.0
  2
SOLID
 70
     1
 71
     0
 91
        1
 92
        3
 72
     0
 73
     1
 93
       36
 10
-5.889107301194111
 20
3.782322430116468
 10
-5.879107301142048
 20
3.782322430116468
 10
-5.879107301142048
 20
3.795606302528005
 10
-5.879118615894076
 20
3.795158082683491
 10
-5.879152960791474
 20
3.794708202473692
 10
-5.879212781844473
 20
3.794241394970465
 10
-5.879294533258683
 20
3.793792042878761
 10
-5.879397649900237
 20
3.793354368768735
 10
-5.87952671915176
 20
3.792908900364069
 10
-5.879676540000156
 20
3.792477444310156
 10
-5.879848337528967
 20
3.792054258609359
 10
-5.880041658047535
 20
3.791640461652696
 10
-5.880255990263119
 20
3.791237147483911
 10
-5.88049076765623
 20
3.790845382038516
 10
-5.880745369668317
 20
3.790466200966383
 10
-5.881019123681202
 20
3.790100606266691
 10
-5.881311305610934
 20
3.789749564506399
 10
-5.881621143272846
 20
3.789414003455191
 10
-5.881947817965124
 20
3.789094810303957
 10
-5.882290465854425
 20
3.788792828497676
 10
-5.882648181340939
 20
3.788508856349795
 10
-5.883020019235799
 20
3.78824364446894
 10
-5.883404996146691
 20
3.787997893977409
 10
-5.883802094832652
 20
3.787772254333775
 10
-5.884210265391742
 20
3.787567321947264
 10
-5.884628429219951
 20
3.787383638396252
 10
-5.885055480990654
 20
3.787221689438536
 10
-5.885490291623785
 20
3.787081903031885
 10
-5.885931712244748
 20
3.786964648740196
 10
-5.886378575570032
 20
3.786870236347885
 10
-5.886829700855849
 20
3.786798915661936
 10
-5.887283895283741
 20
3.786750874730395
 10
-5.887739958711277
 20
3.786726241030046
 10
-5.888196685453557
 20
3.78672507948695
 10
-5.888652868242117
 20
3.786747393268233
 10
-5.889107301194111
 20
3.7867931229903
 97
        0
 75
     0
 76
     1
 98
        0
  0
HATCH
  5
76
330
1F
100
AcDbEntity
  8
000 Kataster
  6
Continuous
 62
    51
370
    20
100
AcDbHatch
 10
0.0
 20
0.0
 30
0.0
210
0.0
220
0.0
230
1.0
  2
SOLID
 70
     1
 71
     1
 91
        1
 92
        3
 72
     0
 73
     1
 93
        4
 10
-5.889107301194111
 20
3.782322430116468
 10
-5.889107301194111
 20
3.768112701094653
 10
-5.879107301194111
 20
3.768112701094653
 10
-5.879107301194111
 20
3.782322430116468
 97
        1
330
77
 75
     0
 76
     1
 98
        0
  0
LWPOLYLINE
  5
77
102
{ACAD_REACTORS
330
76
102
}
330
1F
100
AcDbEntity
  8
000 Kataster
  6
Continuous
 62
     7
370
    13
100
AcDbPolyline
 90
        4
 70
   129
 43
0.0
 10
-5.889107301194111
 20
3.782322430116468
 10
-5.889107301194111
 20
3.768112701094653
 10
-5.879107301194111
 20
3.768112701094653
 10
-5.879107301194111
 20
3.782322430116468
  0
HATCH
  5
78
330
1F
100
AcDbEntity
  8
000 Kataster
  6
Continuous
 62
   251
420
  6250335
370
    18
100
AcDbHatch
 10
0.0
 20
0.0
 30
0.0
210
0.0
220
0.0
230
1.0
  2
__Steinwolle_IIII_1_5_0002
 70
     0
 71
     0
 91
        1
 92
        3
 72
     0
 73
     1
 93
        6
 10
-5.89110730119411
 20
3.767995584022105
 10
-6.063170096639579
 20
3.75151877042985
 10
-6.063170096639579
 20
3.69879312306813
 10
-5.920184832865607
 20
3.69879312306813
 10
-5.920184832865607
 20
3.707777992573231
 10
-5.89110730119411
 20
3.707777992573231
 97
        0
 75
     0
 76
     2
 52
0.0
 41
1.0
 77
     0
 78
     1
 53
90.0
 43
0.0
 44
0.0
 45
-0.01
 46
0.0
 79
     0
 98
        0
  0
HATCH
  5
79
330
1F
100
AcDbEntity
  8
000 Kataster
  6
Continuous
 62
   251
420
  6974058
370
     9
100
AcDbHatch
 10
0.0
 20
0.0
 30
0.0
210
0.0
220
0.0
230
1.0
  2
SOLID
 70
     1
 71
     0
 91
        1
 92
        3
 72
     0
 73
     1
 93
        5
 10
-6.077170096639579
 20
3.695317333134529
 10
-6.077170096639579
 20
3.696793123068129
 10
-6.084170096639578
 20
3.696793123068129
 10
-6.084170096639578
 20
3.68979312306813
 10
-6.082694306705978
 20
3.68979312306813
 97
        0
 75
     0
 76
     1
 98
        0
  0
HATCH
  5
7A
330
1F
100
AcDbEntity
  8
000 Kataster
  6
Continuous
 62
   251
420
  6250335
370
    18
100
AcDbHatch
 10
0.0
 20
0.0
 30
0.0
210
0.0
220
0.0
230
1.0
  2
Vertikal_1_0mm_0002
 70
     0
 71
     1
 91
        1
 92
        3
 72
     0
 73
     1
 93
        4
 10
-5.879107301194111
 20
3.692202698370703
 10
-5.821107301194111
 20
3.692202698370703
 10
-5.821107301194111
 20
3.702202698370703
 10
-5.879107301194111
 20
3.702202698370703
 97
        1
330
7B
 75
     0
 76
     2
 52
0.0
 41
1.0
 77
     0
 78
     1
 53
90.0000000000002
 43
0.0
 44
0.0
 45
-0.002
 46
0.0
 79
     0
 98
        0
  0
LWPOLYLINE
  5
7B
102
{ACAD_REACTORS
330
7A
102
}
330
1F
100
AcDbEntity
  8
000 Kataster
  6
Continuous
 62
     7
370
    13
100
AcDbPolyline
 90
        4
 70
   129
 43
0.0
 10
-5.879107301194111
 20
3.692202698370703
 10
-5.821107301194111
 20
3.692202698370703
 10
-5.821107301194111
 20
3.702202698370703
 10
-5.879107301194111
 20
3.702202698370703
  0
HATCH
  5
7C
330
1F
100
AcDbEntity
  8
000 Kataster
  6
Continuous
 62
   152
420
    27349
370
    20
100
AcDbHatch
 10
0.0
 20
0.0
 30
0.0
210
0.0
220
0.0
230
1.0
  2
SOLID
 70
     1
 71
     0
 91
        1
 92
        3
 72
     0
 73
     1
 93
        7
 10
-5.879107301194111
 20
3.757300731854255
 10
-5.880107301194111
 20
3.757300731854255
 10
-5.880107301194111
 20
3.696793123068129
 10
-5.947836836765708
 20
3.696793123068129
 10
-5.947836836765708
 20
3.695790053410528
 10
-5.880107301194111
 20
3.695790053410528
 10
-5.879107301194111
 20
3.695790053410528
 97
        0
 75
     0
 76
     1
 98
        0
  0
HATCH
  5
7D
330
1F
100
AcDbEntity
  8
000 Kataster
  6
Continuous
 62
     7
370
    13
100
AcDbHatch
 10
0.0
 20
0.0
 30
0.0
210
0.0
220
0.0
230
1.0
  2
SOLID
 70
     1
 71
     0
 91
        1
 92
        3
 72
     0
 73
     1
 93
        4
 10
-6.063169969395417
 20
3.695790053410529
 10
-6.063169969395417
 20
3.696793123068129
 10
-5.947836836765708
 20
3.696793123068129
 10
-5.947836836765708
 20
3.695790053410528
 97
        0
 75
     0
 76
     1
 98
        0
  0
HATCH
  5
7E
330
1F
100
AcDbEntity
  8
000 Kataster
  6
Continuous
 62
     7
370
    18
100
AcDbHatch
 10
0.0
 20
0.0
 30
0.0
210
0.0
220
0.0
230
1.0
  2
__Mörtel__0002
 70
     0
 71
     1
 91
        1
 92
        3
 72
     0
 73
     1
 93
        4
 10
-5.638103939523738
 20
3.692202698370703
 10
-5.815683142985208
 20
3.692202698370703
 10
-5.815683142985208
 20
3.698205768028306
 10
-5.638103939523738
 20
3.698205768028306
 97
        1
330
7F
 75
     0
 76
     2
 52
0.0
 41
1.0
 77
     0
 78
     2
 53
44.99999999999999
 43
0.0
 44
0.01
 45
-0.0031819805153395
 46
0.0031819805153395
 79
     4
 49
0.0
 49
-0.003
 49
0.0
 49
-0.0045
 53
110.0
 43
0.01
 44
0.01
 45
0.0042286167935366
 46
0.0015390906449655
 79
     4
 49
0.0
 49
-0.0022
 49
0.0
 49
-0.0038
 98
        0
  0
LWPOLYLINE
  5
7F
102
{ACAD_REACTORS
330
7E
102
}
330
1F
100
AcDbEntity
  8
000 Kataster
  6
Continuous
 62
     7
370
    13
100
AcDbPolyline
 90
        4
 70
   129
 43
0.0
 10
-5.638103939523738
 20
3.692202698370703
 10
-5.815683142985208
 20
3.692202698370703
 10
-5.815683142985208
 20
3.698205768028306
 10
-5.638103939523738
 20
3.698205768028306
  0
HATCH
  5
80
330
1F
100
AcDbEntity
  8
000 Kataster
  6
Continuous
 62
     7
370
    18
100
AcDbHatch
 10
0.0
 20
0.0
 30
0.0
210
0.0
220
0.0
230
1.0
  2
Dichtungsmasse_0002
 70
     0
 71
     1
 91
        1
 92
        3
 72
     0
 73
     1
 93
      105
 10
-6.086758862416689
 20
3.578593016638773
 10
-6.086699384968316
 20
3.576511325969125
 10
-6.086563318090903
 20
3.574436667510583
 10
-6.086364089463172
 20
3.5728453494206
 10
-6.086262522869742
 20
3.571932415440458
 10
-6.08658429458394
 20
3.569799340772692
 10
-6.086245983557745
 20
3.567021224927696
 10
-6.086297675915919
 20
3.566479135961802
 10
-6.086364089463172
 20
3.565484022024883
 10
-6.086496896534298
 20
3.563959125491505
 10
-6.086496896534298
 20
3.561902968636214
 10
-6.086563318090903
 20
3.560245257022358
 10
-6.086563318090903
 20
3.552486469535509
 10
-6.086627296795132
 20
3.55114423828981
 10
-6.086246744446191
 20
3.548093912601143
 10
-6.086367994022299
 20
3.546629150283006
 10
-6.086475411447406
 20
3.543950430497032
 10
-6.086475411447406
 20
3.537628168357644
 10
-6.086367994022299
 20
3.534842031146564
 10
-6.086155097435283
 20
3.531841547655745
 10
-6.086146987966326
 20
3.531647248784204
 10
-6.086132543099891
 20
3.506269696886427
 10
-6.086262522869742
 20
3.504195062455941
 10
-6.086352451874633
 20
3.500172233231211
 10
-6.086352451874633
 20
3.49635389878319
 10
-6.08638729255608
 20
3.496002156073597
 10
-6.086582836881865
 20
3.491122310160108
 10
-6.086475411447406
 20
3.488336176953703
 10
-6.086047688019528
 20
3.483835197420547
 10
-6.085940262585069
 20
3.480406493922023
 10
-6.085940262585069
 20
3.471190661127743
 10
-6.086047688019528
 20
3.468619378790256
 10
-6.086047688019528
 20
3.464225824691559
 10
-6.086262522869742
 20
3.461653553199094
 10
-6.086475411447406
 20
3.4589748534365
 10
-6.086377693347639
 20
3.455098931747192
 10
-6.086377693347639
 20
3.451244831537562
 10
-6.086475411447406
 20
3.448152088320403
 10
-6.086155097435283
 20
3.445687738842224
 10
-6.086155097435283
 20
3.443330318218676
 10
-6.085940262585069
 20
3.440544172998244
 10
-6.085832845159962
 20
3.438079338954265
 10
-6.085832845159962
 20
3.434328851727515
 10
-6.085940262585069
 20
3.43111449450873
 10
-6.086047688019528
 20
3.428220939872542
 10
-6.086155097435283
 20
3.425434806666138
 10
-6.086047680010176
 20
3.423202696360191
 10
-6.084170095663663
 20
3.423202696360191
 10
-6.084170095663663
 20
3.508197263594449
 10
-6.084170095663663
 20
3.695539054047577
 10
-6.085840842497991
 20
3.695539054047577
 10
-6.085832845159962
 20
3.695355571805989
 10
-6.085832845159962
 20
3.691605076569887
 10
-6.085940262585069
 20
3.688390707337073
 10
-6.086047688019528
 20
3.681909809675089
 10
-6.086155097435283
 20
3.679123672464008
 10
-6.086155097435283
 20
3.673230126912153
 10
-6.086262522869742
 20
3.670980119709037
 10
-6.086367994022299
 20
3.669372698816744
 10
-6.086367994022299
 20
3.667443982766701
 10
-6.086475411447406
 20
3.665836573888436
 10
-6.086582836881865
 20
3.664443022719435
 10
-6.086582836881865
 20
3.660585586614673
 10
-6.086262522869742
 20
3.658335583416232
 10
-6.086262522869742
 20
3.656620741094157
 10
-6.086155097435283
 20
3.653942029317535
 10
-6.086047688019528
 20
3.652120262145504
 10
-6.086047688019528
 20
3.650834604958057
 10
-6.086155097435283
 20
3.648584137217197
 10
-6.086262522869742
 20
3.647619767178147
 10
-6.086367994022299
 20
3.646012342281178
 10
-6.086475411447406
 20
3.643869283956073
 10
-6.086475411447406
 20
3.643011854785684
 10
-6.086582836881865
 20
3.641404930473218
 10
-6.086497208899028
 20
3.639043008593815
 10
-6.086411560892811
 20
3.637030310482783
 10
-6.08658285290057
 20
3.63326185827937
 10
-6.086497208899028
 20
3.630949398153592
 10
-6.086411560892811
 20
3.629150818055765
 10
-6.086197442879606
 20
3.62726658995172
 10
-6.085940262585069
 20
3.625116835808296
 10
-6.085940262585069
 20
3.622116368336181
 10
-6.086262522869742
 20
3.620723289718951
 10
-6.086318604352843
 20
3.618474908414302
 10
-6.086112091219415
 20
3.61677114302612
 10
-6.086319873835143
 20
3.613998505577931
 10
-6.086385654643584
 20
3.612845246984655
 10
-6.086367994022299
 20
3.611829240652896
 10
-6.086262522869742
 20
3.611293599215408
 10
-6.086262522869742
 20
3.610650532343461
 10
-6.086364089463172
 20
3.609518214201137
 10
-6.086364089463172
 20
3.608987446454375
 10
-6.086231274382693
 20
3.608257942655033
 10
-6.086098467311567
 20
3.607462049336494
 10
-6.086098467311567
 20
3.603728137463825
 10
-6.086155097435283
 20
3.602993395548238
 10
-6.086207895084041
 20
3.602098230315633
 10
-6.086364089463172
 20
3.601162249424948
 10
-6.086310669081461
 20
3.598551286115478
 10
-6.086496896534298
 20
3.595942690848655
 10
-6.086388183848494
 20
3.594559275613237
 10
-6.086271909830352
 20
3.591148625095692
 10
-6.086310667084954
 20
3.589133243851721
 10
-6.086310667084954
 20
3.587350402130685
 10
-6.086656783224727
 20
3.583013638342745
 97
        1
330
81
 75
     0
 76
     2
 52
0.0
 41
1.0
 77
     0
 78
     2
 53
54.4623222080256
 43
0.0
 44
0.007
 45
-0.0015909902576697
 46
0.0022273863607376
 79
     4
 49
0.0
 49
-0.0018248287590895
 49
0.0
 49
-0.0027372431386342
 53
104.5730751475173
 43
0.005
 44
0.007
 45
0.0021143083967683
 46
0.0010773634514758
 79
     4
 49
0.0
 49
-0.0014952319594509
 49
0.0
 49
-0.0025826733845062
 98
        0
  0
LWPOLYLINE
  5
81
102
{ACAD_REACTORS
330
80
102
}
330
1F
100
AcDbEntity
  8
000 Kataster
  6
Continuous
 62
     7
370
    13
100
AcDbPolyline
 90
      105
 70
   129
 43
0.0
 10
-6.086758862416689
 20
3.578593016638773
 10
-6.086699384968316
 20
3.576511325969125
 10
-6.086563318090903
 20
3.574436667510583
 10
-6.086364089463172
 20
3.5728453494206
 10
-6.086262522869742
 20
3.571932415440458
 10
-6.08658429458394
 20
3.569799340772692
 10
-6.086245983557745
 20
3.567021224927696
 10
-6.086297675915919
 20
3.566479135961802
 10
-6.086364089463172
 20
3.565484022024883
 10
-6.086496896534298
 20
3.563959125491505
 10
-6.086496896534298
 20
3.561902968636214
 10
-6.086563318090903
 20
3.560245257022358
 10
-6.086563318090903
 20
3.552486469535509
 10
-6.086627296795132
 20
3.55114423828981
 10
-6.086246744446191
 20
3.548093912601143
 10
-6.086367994022299
 20
3.546629150283006
 10
-6.086475411447406
 20
3.543950430497032
 10
-6.086475411447406
 20
3.537628168357644
 10
-6.086367994022299
 20
3.534842031146564
 10
-6.086155097435283
 20
3.531841547655745
 10
-6.086146987966326
 20
3.531647248784204
 10
-6.086132543099891
 20
3.506269696886427
 10
-6.086262522869742
 20
3.504195062455941
 10
-6.086352451874633
 20
3.500172233231211
 10
-6.086352451874633
 20
3.49635389878319
 10
-6.08638729255608
 20
3.496002156073597
 10
-6.086582836881865
 20
3.491122310160108
 10
-6.086475411447406
 20
3.488336176953703
 10
-6.086047688019528
 20
3.483835197420547
 10
-6.085940262585069
 20
3.480406493922023
 10
-6.085940262585069
 20
3.471190661127743
 10
-6.086047688019528
 20
3.468619378790256
 10
-6.086047688019528
 20
3.464225824691559
 10
-6.086262522869742
 20
3.461653553199094
 10
-6.086475411447406
 20
3.4589748534365
 10
-6.086377693347639
 20
3.455098931747192
 10
-6.086377693347639
 20
3.451244831537562
 10
-6.086475411447406
 20
3.448152088320403
 10
-6.086155097435283
 20
3.445687738842224
 10
-6.086155097435283
 20
3.443330318218676
 10
-6.085940262585069
 20
3.440544172998244
 10
-6.085832845159962
 20
3.438079338954265
 10
-6.085832845159962
 20
3.434328851727515
 10
-6.085940262585069
 20
3.43111449450873
 10
-6.086047688019528
 20
3.428220939872542
 10
-6.086155097435283
 20
3.425434806666138
 10
-6.086047680010176
 20
3.423202696360191
 10
-6.084170095663663
 20
3.423202696360191
 10
-6.084170095663663
 20
3.508197263594449
 10
-6.084170095663663
 20
3.695539054047577
 10
-6.085840842497991
 20
3.695539054047577
 10
-6.085832845159962
 20
3.695355571805989
 10
-6.085832845159962
 20
3.691605076569887
 10
-6.085940262585069
 20
3.688390707337073
 10
-6.086047688019528
 20
3.681909809675089
 10
-6.086155097435283
 20
3.679123672464008
 10
-6.086155097435283
 20
3.673230126912153
 10
-6.086262522869742
 20
3.670980119709037
 10
-6.086367994022299
 20
3.669372698816744
 10
-6.086367994022299
 20
3.667443982766701
 10
-6.086475411447406
 20
3.665836573888436
 10
-6.086582836881865
 20
3.664443022719435
 10
-6.086582836881865
 20
3.660585586614673
 10
-6.086262522869742
 20
3.658335583416232
 10
-6.086262522869742
 20
3.656620741094157
 10
-6.086155097435283
 20
3.653942029317535
 10
-6.086047688019528
 20
3.652120262145504
 10
-6.086047688019528
 20
3.650834604958057
 10
-6.086155097435283
 20
3.648584137217197
 10
-6.086262522869742
 20
3.647619767178147
 10
-6.086367994022299
 20
3.646012342281178
 10
-6.086475411447406
 20
3.643869283956073
 10
-6.086475411447406
 20
3.643011854785684
 10
-6.086582836881865
 20
3.641404930473218
 10
-6.086497208899028
 20
3.639043008593815
 10
-6.086411560892811
 20
3.637030310482783
 10
-6.08658285290057
 20
3.63326185827937
 10
-6.086497208899028
 20
3.630949398153592
 10
-6.086411560892811
 20
3.629150818055765
 10
-6.086197442879606
 20
3.62726658995172
 10
-6.085940262585069
 20
3.625116835808296
 10
-6.085940262585069
 20
3.622116368336181
 10
-6.086262522869742
 20
3.620723289718951
 10
-6.086318604352843
 20
3.618474908414302
 10
-6.086112091219415
 20
3.61677114302612
 10
-6.086319873835143
 20
3.613998505577931
 10
-6.086385654643584
 20
3.612845246984655
 10
-6.086367994022299
 20
3.611829240652896
 10
-6.086262522869742
 20
3.611293599215408
 10
-6.086262522869742
 20
3.610650532343461
 10
-6.086364089463172
 20
3.609518214201137
 10
-6.086364089463172
 20
3.608987446454375
 10
-6.086231274382693
 20
3.608257942655033
 10
-6.086098467311567
 20
3.607462049336494
 10
-6.086098467311567
 20
3.603728137463825
 10
-6.086155097435283
 20
3.602993395548238
 10
-6.086207895084041
 20
3.602098230315633
 10
-6.086364089463172
 20
3.601162249424948
 10
-6.086310669081461
 20
3.598551286115478
 10
-6.086496896534298
 20
3.595942690848655
 10
-6.086388183848494
 20
3.594559275613237
 10
-6.086271909830352
 20
3.591148625095692
 10
-6.086310667084954
 20
3.589133243851721
 10
-6.086310667084954
 20
3.587350402130685
 10
-6.086656783224727
 20
3.583013638342745
  0
HATCH
  5
82
330
1F
100
AcDbEntity
  8
000 Kataster
  6
Continuous
 62
    30
420
 16741427
370
     5
100
AcDbHatch
 10
0.0
 20
0.0
 30
0.0
210
0.0
220
0.0
230
1.0
  2
SOLID
 70
     1
 71
     1
 91
        1
 92
        3
 72
     0
 73
     1
 93
      206
 10
-6.086047680043559
 20
3.423202696360212
 10
-6.086155097215003
 20
3.425434804886049
 10
-6.086047689186209
 20
3.428220940627386
 10
-6.085940262872116
 20
3.431114493540204
 10
-6.085832845700674
 20
3.434328853426336
 10
-6.085832845700673
 20
3.438079339189808
 10
-6.085940262872117
 20
3.440544174254045
 10
-6.086155097215004
 20
3.443330319138074
 10
-6.086155097215003
 20
3.445687737030856
 10
-6.086475410484346
 20
3.448152087533824
 10
-6.086377692425325
 20
3.451244832030612
 10
-6.086377692425324
 20
3.455098932555399
 10
-6.086475410484345
 20
3.45897485440361
 10
-6.086262523529123
 20
3.461653554688424
 10
-6.086047689186226
 20
3.464225825209208
 10
-6.086047689186225
 20
3.46861937860293
 10
-6.085940262872117
 20
3.471190661716102
 10
-6.085940262872117
 20
3.480406495494788
 10
-6.086047689186223
 20
3.483835196019843
 10
-6.086475410484346
 20
3.488336175727664
 10
-6.086582836798454
 20
3.491122311469061
 10
-6.086387293077805
 20
3.49600215625498
 10
-6.086352450636287
 20
3.496353898783302
 10
-6.086352450636287
 20
3.500172233255219
 10
-6.086262523529109
 20
3.504195060774835
 10
-6.086132542260373
 20
3.506269696038224
 10
-6.086146987671119
 20
3.531647247357903
 10
-6.086155097215001
 20
3.531841547275109
 10
-6.086367993312902
 20
3.534842032798131
 10
-6.086475410484345
 20
3.537628168539523
 10
-6.086475410484346
 20
3.543950431120086
 10
-6.086367993312902
 20
3.546629149690018
 10
-6.086246743289268
 20
3.548093914339873
 10
-6.086627297578496
 20
3.55114423652997
 10
-6.086563317208613
 20
3.552486471183093
 10
-6.086563317208614
 20
3.560245256721233
 10
-6.086496895747166
 20
3.561902968173891
 10
-6.086496895747167
 20
3.563959126111246
 10
-6.086364089394938
 20
3.56548402206902
 10
-6.08629767707615
 20
3.566479137158924
 10
-6.086245984448071
 20
3.56702122405391
 10
-6.086584295453657
 20
3.569799339809861
 10
-6.086262523529109
 20
3.571932416856317
 10
-6.086364089394921
 20
3.572845348530254
 10
-6.086563317208611
 20
3.574436665949461
 10
-6.086699385556739
 20
3.576511327246265
 10
-6.086758862416689
 20
3.578593017344513
 10
-6.086656784442154
 20
3.583013637148933
 10
-6.086310667084954
 20
3.587350402130685
 10
-6.086310667084954
 20
3.589133243851721
 10
-6.086273368757276
 20
3.591072760744948
 10
-6.086320741034205
 20
3.592580984391049
 10
-6.086380048042019
 20
3.594320629069422
 10
-6.086496895747167
 20
3.595942691763347
 10
-6.086314599873019
 20
3.598743406654675
 10
-6.08636408939494
 20
3.601162248371898
 10
-6.086207896105552
 20
3.602098228704386
 10
-6.086155097215006
 20
3.602993396180235
 10
-6.086098467547804
 20
3.603728137312708
 10
-6.086098467547804
 20
3.607462047424474
 10
-6.086231273900018
 20
3.608257943843289
 10
-6.086364089394934
 20
3.608987446228814
 10
-6.086364089394934
 20
3.609518214504496
 10
-6.08626252352911
 20
3.610650533568513
 10
-6.086262523529109
 20
3.61129360119876
 10
-6.086367993312902
 20
3.611829242514904
 10
-6.086385655316193
 20
3.61284524500234
 10
-6.086319872887457
 20
3.613998503764396
 10
-6.086112089375797
 20
3.61677114425471
 10
-6.086318606250625
 20
3.618474908472034
 10
-6.086262523529111
 20
3.620723291055193
 10
-6.085940262872117
 20
3.622116368068546
 10
-6.085940262872117
 20
3.625116835306234
 10
-6.086197444176928
 20
3.627266590667743
 10
-6.086411560872765
 20
3.629150817591116
 10
-6.086497207551095
 20
3.630949397836058
 10
-6.086582854229423
 20
3.633261858150877
 10
-6.086411560872766
 20
3.637030311997338
 10
-6.086497207551091
 20
3.639043008938051
 10
-6.086582836798454
 20
3.641404931905928
 10
-6.086475410484345
 20
3.64301185585435
 10
-6.086475410484345
 20
3.643869282408905
 10
-6.086367993312905
 20
3.646012341377336
 10
-6.086262523529109
 20
3.647619768172364
 10
-6.086155097215004
 20
3.648584136479755
 10
-6.086047689186225
 20
3.650834603477031
 10
-6.086047689186225
 20
3.652120263318944
 10
-6.086155097215003
 20
3.653942030752888
 10
-6.08626252352911
 20
3.656620740180196
 10
-6.08626252352911
 20
3.658335584146619
 10
-6.086582836798453
 20
3.660585584867954
 10
-6.086582836798452
 20
3.664443021526949
 10
-6.086475410484341
 20
3.665836573958831
 10
-6.086367993312902
 20
3.667443982468553
 10
-6.086367993312902
 20
3.669372700798049
 10
-6.086262523529109
 20
3.670980118450393
 10
-6.086155097215002
 20
3.673230128314368
 10
-6.086155097215004
 20
3.679123673046297
 10
-6.086047689186233
 20
3.681909808787925
 10
-6.085940262872112
 20
3.688390707597955
 10
-6.085832845700674
 20
3.691605076626415
 10
-6.085832845700673
 20
3.695355571532561
 10
-6.085840841843319
 20
3.695539054047577
 10
-6.086444451068043
 20
3.695539054047577
 10
-6.086436454925397
 20
3.695355571532561
 10
-6.086436454925397
 20
3.691605076626415
 10
-6.086543872096827
 20
3.688390707597698
 10
-6.086651298410947
 20
3.681909808787925
 10
-6.086758706439727
 20
3.679123673046321
 10
-6.086758706439726
 20
3.673230128314368
 10
-6.08686613275383
 20
3.670980118450448
 10
-6.086971602537625
 20
3.669372700798063
 10
-6.086971602537625
 20
3.667443982468553
 10
-6.087079019709066
 20
3.66583657395903
 10
-6.087186446023176
 20
3.664443021526961
 10
-6.087186446023176
 20
3.660585584867954
 10
-6.086866132753833
 20
3.658335584146619
 10
-6.086866132753834
 20
3.656620740180196
 10
-6.086758706439725
 20
3.65394203075294
 10
-6.086651298410948
 20
3.652120263318944
 10
-6.086651298410948
 20
3.650834603477031
 10
-6.086758706439726
 20
3.648584136479772
 10
-6.086866132753833
 20
3.647619768172364
 10
-6.086971602537626
 20
3.646012341377336
 10
-6.087079019709068
 20
3.643869282408905
 10
-6.087079019709068
 20
3.64301185585435
 10
-6.087186446023176
 20
3.641404931905928
 10
-6.087100816775807
 20
3.639043008937898
 10
-6.087015170097489
 20
3.637030311997338
 10
-6.087186463454146
 20
3.633261858150877
 10
-6.087100816775817
 20
3.630949397835967
 10
-6.087015170097488
 20
3.6291508175911
 10
-6.086801053401653
 20
3.627266590667743
 10
-6.08654387209684
 20
3.625116835306234
 10
-6.08654387209684
 20
3.622116368068546
 10
-6.086866132753834
 20
3.620723291055188
 10
-6.086922215475347
 20
3.618474908472041
 10
-6.086715698600519
 20
3.61677114425471
 10
-6.086923482112179
 20
3.61399850376434
 10
-6.086989264540918
 20
3.612845245002353
 10
-6.086971602537625
 20
3.611829242514904
 10
-6.086866132753833
 20
3.611293601198765
 10
-6.086866132753833
 20
3.610650533568513
 10
-6.086967698619657
 20
3.609518214504486
 10
-6.086967698619656
 20
3.608987446228814
 10
-6.086834883124747
 20
3.608257943843289
 10
-6.086702076772527
 20
3.607462047424474
 10
-6.086702076772527
 20
3.603728137312708
 10
-6.086758706439725
 20
3.602993396180179
 10
-6.086811505330275
 20
3.602098228704396
 10
-6.086967698619658
 20
3.601162248371947
 10
-6.086998886524396
 20
3.598639094843626
 10
-6.08710050497189
 20
3.595942691763347
 10
-6.087031184343993
 20
3.594278889197975
 10
-6.087047059368281
 20
3.592698921204426
 10
-6.086998886524396
 20
3.591210596336221
 10
-6.086966588704798
 20
3.589208131521181
 10
-6.086901993065603
 20
3.587270262345336
 10
-6.087260393666878
 20
3.583013637148933
 10
-6.087362471641411
 20
3.578593017344513
 10
-6.08730299478146
 20
3.576511327246239
 10
-6.087166926433337
 20
3.574436665949479
 10
-6.086967698619651
 20
3.572845348530334
 10
-6.086866132753834
 20
3.571932416856317
 10
-6.087187904678381
 20
3.569799339809861
 10
-6.086849593672793
 20
3.56702122405391
 10
-6.086901286300877
 20
3.566479137158924
 10
-6.08696769861966
 20
3.56548402206902
 10
-6.08710050497189
 20
3.563959126111246
 10
-6.08710050497189
 20
3.561902968173891
 10
-6.087166926433336
 20
3.560245256721233
 10
-6.087166926433336
 20
3.552486471183093
 10
-6.08723090680322
 20
3.551144236529976
 10
-6.086850352513991
 20
3.548093914339873
 10
-6.086971602537623
 20
3.546629149690018
 10
-6.087079019709069
 20
3.543950431120086
 10
-6.087079019709068
 20
3.537628168539523
 10
-6.086971602537625
 20
3.534842032798131
 10
-6.086758706439722
 20
3.531841547275075
 10
-6.086750596895842
 20
3.531647247357903
 10
-6.086736151485094
 20
3.506269696038224
 10
-6.086866132753831
 20
3.504195060774835
 10
-6.086956059861009
 20
3.500172233255178
 10
-6.08695605986101
 20
3.496353898783302
 10
-6.086990902302528
 20
3.496002156254963
 10
-6.087186446023176
 20
3.491122311469048
 10
-6.087079019709069
 20
3.488336175727664
 10
-6.086651298410946
 20
3.483835196019843
 10
-6.08654387209684
 20
3.480406495494817
 10
-6.08654387209684
 20
3.47119066171608
 10
-6.086651298410949
 20
3.468619378602908
 10
-6.086651298410949
 20
3.464225825209208
 10
-6.086866132753842
 20
3.461653554688167
 10
-6.087079019709068
 20
3.458974854403601
 10
-6.086981301650049
 20
3.455098932555399
 10
-6.086981301650048
 20
3.451244832030612
 10
-6.087079019709069
 20
3.448152087533824
 10
-6.086758706439726
 20
3.445687737030848
 10
-6.086758706439727
 20
3.443330319138074
 10
-6.086543872096841
 20
3.440544174254045
 10
-6.086436454925397
 20
3.438079339189808
 10
-6.086436454925397
 20
3.434328853426336
 10
-6.086543872096836
 20
3.43111449354046
 10
-6.086651298410931
 20
3.428220940627386
 10
-6.086758706439724
 20
3.42543480488606
 10
-6.086651289268284
 20
3.423202692784725
 97
        1
330
83
 75
     0
 76
     1
 98
        0
  0
LWPOLYLINE
  5
83
102
{ACAD_REACTORS
330
82
102
}
330
1F
100
AcDbEntity
  8
000 Kataster
  6
Continuous
 62
     7
370
    13
100
AcDbPolyline
 90
      206
 70
   129
 43
0.0
 10
-6.086047680043559
 20
3.423202696360212
 10
-6.086155097215003
 20
3.425434804886049
 10
-6.086047689186209
 20
3.428220940627386
 10
-6.085940262872116
 20
3.431114493540204
 10
-6.085832845700674
 20
3.434328853426336
 10
-6.085832845700673
 20
3.438079339189808
 10
-6.085940262872117
 20
3.440544174254045
 10
-6.086155097215004
 20
3.443330319138074
 10
-6.086155097215003
 20
3.445687737030856
 10
-6.086475410484346
 20
3.448152087533824
 10
-6.086377692425325
 20
3.451244832030612
 10
-6.086377692425324
 20
3.455098932555399
 10
-6.086475410484345
 20
3.45897485440361
 10
-6.086262523529123
 20
3.461653554688424
 10
-6.086047689186226
 20
3.464225825209208
 10
-6.086047689186225
 20
3.46861937860293
 10
-6.085940262872117
 20
3.471190661716102
 10
-6.085940262872117
 20
3.480406495494788
 10
-6.086047689186223
 20
3.483835196019843
 10
-6.086475410484346
 20
3.488336175727664
 10
-6.086582836798454
 20
3.491122311469061
 10
-6.086387293077805
 20
3.49600215625498
 10
-6.086352450636287
 20
3.496353898783302
 10
-6.086352450636287
 20
3.500172233255219
 10
-6.086262523529109
 20
3.504195060774835
 10
-6.086132542260373
 20
3.506269696038224
 10
-6.086146987671119
 20
3.531647247357903
 10
-6.086155097215001
 20
3.531841547275109
 10
-6.086367993312902
 20
3.534842032798131
 10
-6.086475410484345
 20
3.537628168539523
 10
-6.086475410484346
 20
3.543950431120086
 10
-6.086367993312902
 20
3.546629149690018
 10
-6.086246743289268
 20
3.548093914339873
 10
-6.086627297578496
 20
3.55114423652997
 10
-6.086563317208613
 20
3.552486471183093
 10
-6.086563317208614
 20
3.560245256721233
 10
-6.086496895747166
 20
3.561902968173891
 10
-6.086496895747167
 20
3.563959126111246
 10
-6.086364089394938
 20
3.56548402206902
 10
-6.08629767707615
 20
3.566479137158924
 10
-6.086245984448071
 20
3.56702122405391
 10
-6.086584295453657
 20
3.569799339809861
 10
-6.086262523529109
 20
3.571932416856317
 10
-6.086364089394921
 20
3.572845348530254
 10
-6.086563317208611
 20
3.574436665949461
 10
-6.086699385556739
 20
3.576511327246265
 10
-6.086758862416689
 20
3.578593017344513
 10
-6.086656784442154
 20
3.583013637148933
 10
-6.086310667084954
 20
3.587350402130685
 10
-6.086310667084954
 20
3.589133243851721
 10
-6.086273368757276
 20
3.591072760744948
 10
-6.086320741034205
 20
3.592580984391049
 10
-6.086380048042019
 20
3.594320629069422
 10
-6.086496895747167
 20
3.595942691763347
 10
-6.086314599873019
 20
3.598743406654675
 10
-6.08636408939494
 20
3.601162248371898
 10
-6.086207896105552
 20
3.602098228704386
 10
-6.086155097215006
 20
3.602993396180235
 10
-6.086098467547804
 20
3.603728137312708
 10
-6.086098467547804
 20
3.607462047424474
 10
-6.086231273900018
 20
3.608257943843289
 10
-6.086364089394934
 20
3.608987446228814
 10
-6.086364089394934
 20
3.609518214504496
 10
-6.08626252352911
 20
3.610650533568513
 10
-6.086262523529109
 20
3.61129360119876
 10
-6.086367993312902
 20
3.611829242514904
 10
-6.086385655316193
 20
3.61284524500234
 10
-6.086319872887457
 20
3.613998503764396
 10
-6.086112089375797
 20
3.61677114425471
 10
-6.086318606250625
 20
3.618474908472034
 10
-6.086262523529111
 20
3.620723291055193
 10
-6.085940262872117
 20
3.622116368068546
 10
-6.085940262872117
 20
3.625116835306234
 10
-6.086197444176928
 20
3.627266590667743
 10
-6.086411560872765
 20
3.629150817591116
 10
-6.086497207551095
 20
3.630949397836058
 10
-6.086582854229423
 20
3.633261858150877
 10
-6.086411560872766
 20
3.637030311997338
 10
-6.086497207551091
 20
3.639043008938051
 10
-6.086582836798454
 20
3.641404931905928
 10
-6.086475410484345
 20
3.64301185585435
 10
-6.086475410484345
 20
3.643869282408905
 10
-6.086367993312905
 20
3.646012341377336
 10
-6.086262523529109
 20
3.647619768172364
 10
-6.086155097215004
 20
3.648584136479755
 10
-6.086047689186225
 20
3.650834603477031
 10
-6.086047689186225
 20
3.652120263318944
 10
-6.086155097215003
 20
3.653942030752888
 10
-6.08626252352911
 20
3.656620740180196
 10
-6.08626252352911
 20
3.658335584146619
 10
-6.086582836798453
 20
3.660585584867954
 10
-6.086582836798452
 20
3.664443021526949
 10
-6.086475410484341
 20
3.665836573958831
 10
-6.086367993312902
 20
3.667443982468553
 10
-6.086367993312902
 20
3.669372700798049
 10
-6.086262523529109
 20
3.670980118450393
 10
-6.086155097215002
 20
3.673230128314368
 10
-6.086155097215004
 20
3.679123673046297
 10
-6.086047689186233
 20
3.681909808787925
 10
-6.085940262872112
 20
3.688390707597955
 10
-6.085832845700674
 20
3.691605076626415
 10
-6.085832845700673
 20
3.695355571532561
 10
-6.085840841843319
 20
3.695539054047577
 10
-6.086444451068043
 20
3.695539054047577
 10
-6.086436454925397
 20
3.695355571532561
 10
-6.086436454925397
 20
3.691605076626415
 10
-6.086543872096827
 20
3.688390707597698
 10
-6.086651298410947
 20
3.681909808787925
 10
-6.086758706439727
 20
3.679123673046321
 10
-6.086758706439726
 20
3.673230128314368
 10
-6.08686613275383
 20
3.670980118450448
 10
-6.086971602537625
 20
3.669372700798063
 10
-6.086971602537625
 20
3.667443982468553
 10
-6.087079019709066
 20
3.66583657395903
 10
-6.087186446023176
 20
3.664443021526961
 10
-6.087186446023176
 20
3.660585584867954
 10
-6.086866132753833
 20
3.658335584146619
 10
-6.086866132753834
 20
3.656620740180196
 10
-6.086758706439725
 20
3.65394203075294
 10
-6.086651298410948
 20
3.652120263318944
 10
-6.086651298410948
 20
3.650834603477031
 10
-6.086758706439726
 20
3.648584136479772
 10
-6.086866132753833
 20
3.647619768172364
 10
-6.086971602537626
 20
3.646012341377336
 10
-6.087079019709068
 20
3.643869282408905
 10
-6.087079019709068
 20
3.64301185585435
 10
-6.087186446023176
 20
3.641404931905928
 10
-6.087100816775807
 20
3.639043008937898
 10
-6.087015170097489
 20
3.637030311997338
 10
-6.087186463454146
 20
3.633261858150877
 10
-6.087100816775817
 20
3.630949397835967
 10
-6.087015170097488
 20
3.6291508175911
 10
-6.086801053401653
 20
3.627266590667743
 10
-6.08654387209684
 20
3.625116835306234
 10
-6.08654387209684
 20
3.622116368068546
 10
-6.086866132753834
 20
3.620723291055188
 10
-6.086922215475347
 20
3.618474908472041
 10
-6.086715698600519
 20
3.61677114425471
 10
-6.086923482112179
 20
3.61399850376434
 10
-6.086989264540918
 20
3.612845245002353
 10
-6.086971602537625
 20
3.611829242514904
 10
-6.086866132753833
 20
3.611293601198765
 10
-6.086866132753833
 20
3.610650533568513
 10
-6.086967698619657
 20
3.609518214504486
 10
-6.086967698619656
 20
3.608987446228814
 10
-6.086834883124747
 20
3.608257943843289
 10
-6.086702076772527
 20
3.607462047424474
 10
-6.086702076772527
 20
3.603728137312708
 10
-6.086758706439725
 20
3.602993396180179
 10
-6.086811505330275
 20
3.602098228704396
 10
-6.086967698619658
 20
3.601162248371947
 10
-6.086998886524396
 20
3.598639094843626
 10
-6.08710050497189
 20
3.595942691763347
 10
-6.087031184343993
 20
3.594278889197975
 10
-6.087047059368281
 20
3.592698921204426
 10
-6.086998886524396
 20
3.591210596336221
 10
-6.086966588704798
 20
3.589208131521181
 10
-6.086901993065603
 20
3.587270262345336
 10
-6.087260393666878
 20
3.583013637148933
 10
-6.087362471641411
 20
3.578593017344513
 10
-6.08730299478146
 20
3.576511327246239
 10
-6.087166926433337
 20
3.574436665949479
 10
-6.086967698619651
 20
3.572845348530334
 10
-6.086866132753834
 20
3.571932416856317
 10
-6.087187904678381
 20
3.569799339809861
 10
-6.086849593672793
 20
3.56702122405391
 10
-6.086901286300877
 20
3.566479137158924
 10
-6.08696769861966
 20
3.56548402206902
 10
-6.08710050497189
 20
3.563959126111246
 10
-6.08710050497189
 20
3.561902968173891
 10
-6.087166926433336
 20
3.560245256721233
 10
-6.087166926433336
 20
3.552486471183093
 10
-6.08723090680322
 20
3.551144236529976
 10
-6.086850352513991
 20
3.548093914339873
 10
-6.086971602537623
 20
3.546629149690018
 10
-6.087079019709069
 20
3.543950431120086
 10
-6.087079019709068
 20
3.537628168539523
 10
-6.086971602537625
 20
3.534842032798131
 10
-6.086758706439722
 20
3.531841547275075
 10
-6.086750596895842
 20
3.531647247357903
 10
-6.086736151485094
 20
3.506269696038224
 10
-6.086866132753831
 20
3.504195060774835
 10
-6.086956059861009
 20
3.500172233255178
 10
-6.08695605986101
 20
3.496353898783302
 10
-6.086990902302528
 20
3.496002156254963
 10
-6.087186446023176
 20
3.491122311469048
 10
-6.087079019709069
 20
3.488336175727664
 10
-6.086651298410946
 20
3.483835196019843
 10
-6.08654387209684
 20
3.480406495494817
 10
-6.08654387209684
 20
3.47119066171608
 10
-6.086651298410949
 20
3.468619378602908
 10
-6.086651298410949
 20
3.464225825209208
 10
-6.086866132753842
 20
3.461653554688167
 10
-6.087079019709068
 20
3.458974854403601
 10
-6.086981301650049
 20
3.455098932555399
 10
-6.086981301650048
 20
3.451244832030612
 10
-6.087079019709069
 20
3.448152087533824
 10
-6.086758706439726
 20
3.445687737030848
 10
-6.086758706439727
 20
3.443330319138074
 10
-6.086543872096841
 20
3.440544174254045
 10
-6.086436454925397
 20
3.438079339189808
 10
-6.086436454925397
 20
3.434328853426336
 10
-6.086543872096836
 20
3.43111449354046
 10
-6.086651298410931
 20
3.428220940627386
 10
-6.086758706439724
 20
3.42543480488606
 10
-6.086651289268284
 20
3.423202692784725
  0
HATCH
  5
84
330
1F
100
AcDbEntity
  8
000 Kataster
  6
Continuous
 62
     7
370
    18
100
AcDbHatch
 10
0.0
 20
0.0
 30
0.0
210
0.0
220
0.0
230
1.0
  2
__Mörtel__0002
 70
     0
 71
     1
 91
        1
 92
        3
 72
     0
 73
     1
 93
        4
 10
-5.879107301194111
 20
3.692202698370703
 10
-6.063169969395417
 20
3.692202698370703
 10
-6.063169969395417
 20
3.695790053410529
 10
-5.879107301194111
 20
3.695790053410529
 97
        1
330
85
 75
     0
 76
     2
 52
0.0
 41
1.0
 77
     0
 78
     2
 53
44.99999999999999
 43
0.0
 44
0.01
 45
-0.0031819805153395
 46
0.0031819805153395
 79
     4
 49
0.0
 49
-0.003
 49
0.0
 49
-0.0045
 53
110.0
 43
0.01
 44
0.01
 45
0.0042286167935366
 46
0.0015390906449655
 79
     4
 49
0.0
 49
-0.0022
 49
0.0
 49
-0.0038
 98
        0
  0
LWPOLYLINE
  5
85
102
{ACAD_REACTORS
330
84
102
}
330
1F
100
AcDbEntity
  8
000 Kataster
  6
Continuous
 62
     7
370
    13
100
AcDbPolyline
 90
        4
 70
   129
 43
0.0
 10
-5.879107301194111
 20
3.692202698370703
 10
-6.063169969395417
 20
3.692202698370703
 10
-6.063169969395417
 20
3.695790053410529
 10
-5.879107301194111
 20
3.695790053410529
  0
HATCH
  5
86
330
1F
100
AcDbEntity
  8
000 Kataster
  6
Continuous
 62
   255
370
     5
100
AcDbHatch
 10
0.0
 20
0.0
 30
0.0
210
0.0
220
0.0
230
1.0
  2
25_Raster_punktiert__0002
 70
     0
 71
     1
 91
        1
 92
        3
 72
     1
 73
     1
 93
       39
 10
-5.846041658569778
 20
3.823717153978664
 42
0.4433158595651282
 10
-5.845928570431023
 20
3.824175012571602
 42
0.2432887437345122
 10
-5.847276554232401
 20
3.825036312418349
 42
0.0
 10
-5.848799586910188
 20
3.825293127835465
 42
-0.3087091451963037
 10
-5.849449647442873
 20
3.825918326118505
 42
0.0
 10
-5.849855435519217
 20
3.827859874730835
 42
0.3054863243287026
 10
-5.851056892272057
 20
3.829029080817714
 42
-0.4461873528364123
 10
-5.851681924410611
 20
3.830042591072747
 42
0.0
 10
-5.850207137045757
 20
3.833271644985792
 42
0.2034819766429098
 10
-5.850157129183003
 20
3.83405161067517
 42
-0.3081882357287147
 10
-5.850325059740525
 20
3.834325549085813
 42
-0.8872359410434175
 10
-5.849333204029424
 20
3.834280349635082
 42
0.0
 10
-5.848908649082107
 20
3.828246480345092
 42
0.679250642310775
 10
-5.848198990183997
 20
3.828024117829206
 42
0.1507402336305466
 10
-5.848100118517152
 20
3.828270310062655
 42
0.0
 10
-5.848334521953003
 20
3.834333093437126
 42
0.2098394686663038
 10
-5.848887352151444
 20
3.835408778887665
 42
0.1835562278559559
 10
-5.849418612288702
 20
3.835693250925696
 42
0.3203705521099042
 10
-5.850994883521818
 20
3.834948636684458
 42
0.0
 10
-5.85364083568569
 20
3.830774946471132
 42
0.0
 10
-5.853850187254483
 20
3.830388353079397
 42
0.0
 10
-5.85488563507764
 20
3.828247013412566
 42
0.0828488203790659
 10
-5.85490730119411
 20
3.828117153978664
 42
0.7186800301004264
 10
-5.854188620896261
 20
3.827875404381431
 42
0.0
 10
-5.854137796186832
 20
3.827942402770362
 42
-0.234622419810764
 10
-5.85318175529328
 20
3.828317153978664
 42
0.0
 10
-5.853097660494345
 20
3.828317153978664
 42
-0.5004906958560467
 10
-5.85190730119411
 20
3.825870932422077
 42
0.0
 10
-5.85190730119411
 20
3.817467153978664
 42
0.4142135623730951
 10
-5.850657301194111
 20
3.816217153978664
 42
0.1989123673799659
 10
-5.849700194412923
 20
3.816510047197478
 42
0.0
 10
-5.847907301194111
 20
3.818302940416291
 42
0.0
 10
-5.847907301194111
 20
3.819010047197477
 42
0.0
 10
-5.849604658378357
 20
3.817960127490518
 42
-0.723524277973742
 10
-5.849895557253173
 20
3.818204514641076
 42
-0.2313411142283513
 10
-5.847943081839023
 20
3.821834626680529
 42
0.0954403684706957
 10
-5.847907301194111
 20
3.822020369487557
 42
0.0
 10
-5.847907301194111
 20
3.822475534129954
 42
0.0
 10
-5.847907301194111
 20
3.823717153978664
 42
0.0
 97
        1
330
87
 75
     0
 76
     2
 52
0.0
 41
1.0
 77
     0
 78
     2
 53
44.99999999999999
 43
0.0
 44
0.005
 45
-0.0015909902576697
 46
0.0015909902576697
 79
     4
 49
0.0
 49
-0.0015
 49
0.0
 49
-0.00225
 53
110.0
 43
0.005
 44
0.005
 45
0.0021143083967683
 46
0.0007695453224828
 79
     4
 49
0.0
 49
-0.0011
 49
0.0
 49
-0.0019
 98
        0
  0
LWPOLYLINE
  5
87
102
{ACAD_REACTORS
330
86
102
}
330
1F
100
AcDbEntity
  8
000 Kataster
  6
Continuous
 62
     7
370
    13
100
AcDbPolyline
 90
       39
 70
   129
 43
0.0
 10
-5.846041658569778
 20
3.823717153978664
 42
0.4433158595651282
 10
-5.845928570431023
 20
3.824175012571602
 42
0.2432887437345122
 10
-5.847276554232401
 20
3.825036312418349
 10
-5.848799586910188
 20
3.825293127835465
 42
-0.3087091451963037
 10
-5.849449647442873
 20
3.825918326118505
 10
-5.849855435519217
 20
3.827859874730835
 42
0.3054863243287026
 10
-5.851056892272057
 20
3.829029080817714
 42
-0.4461873528364123
 10
-5.851681924410611
 20
3.830042591072747
 10
-5.850207137045757
 20
3.833271644985792
 42
0.2034819766429098
 10
-5.850157129183003
 20
3.83405161067517
 42
-0.3081882357287147
 10
-5.850325059740525
 20
3.834325549085813
 42
-0.8872359410434175
 10
-5.849333204029424
 20
3.834280349635082
 10
-5.848908649082107
 20
3.828246480345092
 42
0.679250642310775
 10
-5.848198990183997
 20
3.828024117829206
 42
0.1507402336305466
 10
-5.848100118517152
 20
3.828270310062655
 10
-5.848334521953003
 20
3.834333093437126
 42
0.2098394686663038
 10
-5.848887352151444
 20
3.835408778887665
 42
0.1835562278559559
 10
-5.849418612288702
 20
3.835693250925696
 42
0.3203705521099042
 10
-5.850994883521818
 20
3.834948636684458
 10
-5.85364083568569
 20
3.830774946471132
 10
-5.853850187254483
 20
3.830388353079397
 10
-5.85488563507764
 20
3.828247013412566
 42
0.0828488203790659
 10
-5.85490730119411
 20
3.828117153978664
 42
0.7186800301004264
 10
-5.854188620896261
 20
3.827875404381431
 10
-5.854137796186832
 20
3.827942402770362
 42
-0.234622419810764
 10
-5.85318175529328
 20
3.828317153978664
 10
-5.853097660494345
 20
3.828317153978664
 42
-0.5004906958560467
 10
-5.85190730119411
 20
3.825870932422077
 10
-5.85190730119411
 20
3.817467153978664
 42
0.4142135623730951
 10
-5.850657301194111
 20
3.816217153978664
 42
0.1989123673799659
 10
-5.849700194412923
 20
3.816510047197478
 10
-5.847907301194111
 20
3.818302940416291
 10
-5.847907301194111
 20
3.819010047197477
 10
-5.849604658378357
 20
3.817960127490518
 42
-0.723524277973742
 10
-5.849895557253173
 20
3.818204514641076
 42
-0.2313411142283513
 10
-5.847943081839023
 20
3.821834626680529
 42
0.0954403684706957
 10
-5.847907301194111
 20
3.822020369487557
 10
-5.847907301194111
 20
3.822475534129954
 10
-5.847907301194111
 20
3.823717153978664
  0
LINE
  5
88
330
1F
100
AcDbEntity
  8
000 Kataster
  6
Continuous
 62
     7
370
    25
100
AcDbLine
 10
-5.821107301194111
 20
3.814217153978664
 30
0.0
 11
-5.821107301194111
 21
3.702202698370703
 31
0.0
  0
LINE
  5
89
330
1F
100
AcDbEntity
  8
000 Kataster
  6
Continuous
 62
     7
370
    13
100
AcDbLine
 10
-5.85190730119413
 20
3.815942111083312
 30
0.0
 11
-5.85190730119413
 21
3.823434311265168
 31
0.0
  0
LINE
  5
8A
330
1F
100
AcDbEntity
  8
000 Kataster
  6
Continuous
 62
     7
370
    13
100
AcDbLine
 10
-5.86760730119256
 20
3.839277244309056
 30
0.0
 11
-5.86760730119256
 21
3.837178890358519
 31
0.0
  0
LINE
  5
8B
330
1F
100
AcDbEntity
  8
000 Kataster
  6
Continuous
 62
     7
370
    13
100
AcDbLine
 10
-5.85190730119411
 20
3.825870932422077
 30
0.0
 11
-5.85190730119411
 21
3.817467153978664
 31
0.0
  0
LINE
  5
8C
330
1F
100
AcDbEntity
  8
000 Kataster
  6
Continuous
 62
     7
370
    25
100
AcDbLine
 10
-5.8261072642568
 20
3.862717153978664
 30
0.0
 11
-5.8116072642568
 21
3.862717153978664
 31
0.0
  0
LINE
  5
8D
330
1F
100
AcDbEntity
  8
000 Kataster
  6
Continuous
 62
     7
370
    13
100
AcDbLine
 10
-5.87660730119166
 20
3.815217153978464
 30
0.0
 11
-5.87660730119166
 21
3.815834959783339
 31
0.0
  0
LINE
  5
8E
330
1F
100
AcDbEntity
  8
000 Kataster
  6
Continuous
 62
     7
370
    13
100
AcDbLine
 10
-5.86760730119256
 20
3.844967153975489
 30
0.0
 11
-5.86760730119256
 21
3.842035689106186
 31
0.0
  0
LINE
  5
8F
330
1F
100
AcDbEntity
  8
000 Kataster
  6
Continuous
 62
     7
370
    25
100
AcDbLine
 10
-5.86460730119151
 20
3.841217153978663
 30
0.0
 11
-5.864607301191512
 21
3.850182500002706
 31
0.0
  0
LINE
  5
90
330
1F
100
AcDbEntity
  8
000 Kataster
  6
Continuous
 62
     7
370
    25
100
AcDbLine
 10
-5.861258291673479
 20
3.839717153978664
 30
0.0
 11
-5.86310730119151
 21
3.839717153978663
 31
0.0
  0
LINE
  5
91
330
1F
100
AcDbEntity
  8
000 Kataster
  6
Continuous
 62
     7
370
    25
100
AcDbLine
 10
-5.859065453486821
 20
3.843605382546317
 30
0.0
 11
-5.859809402934046
 21
3.84082892541101
 31
0.0
  0
LINE
  5
92
330
1F
100
AcDbEntity
  8
000 Kataster
  6
Continuous
 62
     7
370
    25
100
AcDbLine
 10
-5.855098037635635
 20
3.844717153978664
 30
0.0
 11
-5.857616564747387
 21
3.844717153978664
 31
0.0
  0
LINE
  5
93
330
1F
100
AcDbEntity
  8
000 Kataster
  6
Continuous
 62
     7
370
    25
100
AcDbLine
 10
-5.847907301194111
 20
3.822020369487557
 30
0.0
 11
-5.847907301194111
 21
3.822475534129954
 31
0.0
  0
LINE
  5
94
330
1F
100
AcDbEntity
  8
000 Kataster
  6
Continuous
 62
     7
370
    25
100
AcDbLine
 10
-5.852905199448976
 20
3.84082892541101
 30
0.0
 11
-5.853649148896201
 21
3.843605382546317
 31
0.0
  0
LINE
  5
95
330
1F
100
AcDbEntity
  8
000 Kataster
  6
Continuous
 62
     7
370
    25
100
AcDbLine
 10
-5.849107301191511
 20
3.839717153978664
 30
0.0
 11
-5.851456310709542
 21
3.839717153978664
 31
0.0
  0
LINE
  5
96
330
1F
100
AcDbEntity
  8
000 Kataster
  6
Continuous
 62
     7
370
    25
100
AcDbLine
 10
-5.8261072642568
 20
3.862717153978664
 30
0.0
 11
-5.8261072642568
 21
3.882717153978664
 31
0.0
  0
LINE
  5
97
330
1F
100
AcDbEntity
  8
000 Kataster
  6
Continuous
 62
     7
370
    13
100
AcDbLine
 10
-5.853607301193961
 20
3.825733490483423
 30
0.0
 11
-5.853607301193961
 21
3.819691636261374
 31
0.0
  0
LINE
  5
98
330
1F
100
AcDbEntity
  8
000 Kataster
  6
Continuous
 62
     7
370
    13
100
AcDbLine
 10
-5.85210730119411
 20
3.82379999669008
 30
0.0
 11
-5.85210730119411
 21
3.826717153977314
 31
0.0
  0
LINE
  5
99
330
1F
100
AcDbEntity
  8
000 Kataster
  6
Continuous
 62
     7
370
    13
100
AcDbLine
 10
-5.854081133215791
 20
3.819192321494047
 30
0.0
 11
-5.876081133213592
 21
3.818039350349935
 31
0.0
  0
LINE
  5
9A
330
1F
100
AcDbEntity
  8
000 Kataster
  6
Continuous
 62
     7
370
    13
100
AcDbLine
 10
-5.86013346917143
 20
3.817172799019111
 30
0.0
 11
-5.858597008879073
 21
3.817253321490989
 31
0.0
  0
LINE
  5
9B
330
1F
100
AcDbEntity
  8
000 Kataster
  6
Continuous
 62
     7
370
    13
100
AcDbLine
 10
-5.854736710716399
 20
3.826419778346835
 30
0.0
 11
-5.853977891671372
 21
3.826216453396519
 31
0.0
  0
LINE
  5
9C
330
1F
100
AcDbEntity
  8
000 Kataster
  6
Continuous
 62
     7
370
    13
100
AcDbLine
 10
-5.855107301193812
 20
3.827217153977264
 30
0.0
 11
-5.855107301193812
 21
3.826902741259931
 31
0.0
  0
LINE
  5
9D
330
1F
100
AcDbEntity
  8
000 Kataster
  6
Continuous
 62
     7
370
    13
100
AcDbLine
 10
-5.85310730119401
 20
3.827717153977214
 30
0.0
 11
-5.854607301193861
 21
3.827717153977214
 31
0.0
  0
LINE
  5
9E
330
1F
100
AcDbEntity
  8
000 Kataster
  6
Continuous
 62
     7
370
    13
100
AcDbLine
 10
-5.867657904169405
 20
3.836959704785146
 30
0.0
 11
-5.868880198488947
 21
3.834453630046252
 31
0.0
  0
LINE
  5
9F
330
1F
100
AcDbEntity
  8
000 Kataster
  6
Continuous
 62
     7
370
    25
100
AcDbLine
 10
-5.822607301194111
 20
3.815717153978664
 30
0.0
 11
-5.827107301194111
 21
3.815717153978664
 31
0.0
  0
LINE
  5
A0
330
1F
100
AcDbEntity
  8
000 Kataster
  6
Continuous
 62
     7
370
    13
100
AcDbLine
 10
-5.867895992061662
 20
3.841582535212713
 30
0.0
 11
-5.877241228584209
 21
3.83722477985498
 31
0.0
  0
LINE
  5
A1
330
1F
100
AcDbEntity
  8
000 Kataster
  6
Continuous
 62
     7
370
    25
100
AcDbLine
 10
-5.82210730119151
 20
3.827717153978663
 30
0.0
 11
-5.84710730119151
 21
3.827717153978663
 31
0.0
  0
LINE
  5
A2
330
1F
100
AcDbEntity
  8
000 Kataster
  6
Continuous
 62
     7
370
    25
100
AcDbLine
 10
-5.850107264048338
 20
3.882717153978664
 30
0.0
 11
-5.850107264048338
 21
3.862717153978664
 31
0.0
  0
LINE
  5
A3
330
1F
100
AcDbEntity
  8
000 Kataster
  6
Continuous
 62
     7
370
    13
100
AcDbLine
 10
-5.87631861032256
 20
3.835999936937662
 30
0.0
 11
-5.86831861032336
 21
3.839730398202528
 31
0.0
  0
LINE
  5
A4
330
1F
100
AcDbEntity
  8
000 Kataster
  6
Continuous
 62
     7
370
    13
100
AcDbLine
 10
-5.867532007419634
 20
3.833796073326134
 30
0.0
 11
-5.866512125007473
 21
3.835887142153743
 31
0.0
  0
LINE
  5
A5
330
1F
100
AcDbEntity
  8
000 Kataster
  6
Continuous
 62
     7
370
    13
100
AcDbLine
 10
-5.915528308913458
 20
3.782450237798737
 30
0.0
 11
-5.915535589951194
 21
3.781048303629535
 31
0.0
  0
LINE
  5
A6
330
1F
100
AcDbEntity
  8
000 Kataster
  6
Continuous
 62
     7
370
    25
100
AcDbLine
 10
-5.850107264048338
 20
3.862717153978664
 30
0.0
 11
-5.8261072642568
 21
3.862717153978664
 31
0.0
  0
LINE
  5
A7
330
1F
100
AcDbEntity
  8
000 Kataster
  6
Continuous
 62
     7
370
    13
100
AcDbLine
 10
-5.916847273805139
 20
3.782105611327355
 30
0.0
 11
-5.916209673474413
 21
3.782736623037629
 31
0.0
  0
LINE
  5
A8
330
1F
100
AcDbEntity
  8
000 Kataster
  6
Continuous
 62
     7
370
    13
100
AcDbLine
 10
-5.866107301192711
 20
3.837640626740724
 30
0.0
 11
-5.866107301192711
 21
3.844967153975489
 31
0.0
  0
LINE
  5
A9
330
1F
100
AcDbEntity
  8
000 Kataster
  6
Continuous
 62
     7
370
    13
100
AcDbLine
 10
-5.915636488142463
 20
3.780875620234275
 30
0.0
 11
-5.918545144584577
 21
3.779216388172421
 31
0.0
  0
LINE
  5
AA
330
1F
100
AcDbEntity
  8
000 Kataster
  6
Continuous
 62
     7
370
    13
100
AcDbLine
 10
-5.884369488432363
 20
3.803117492136487
 30
0.0
 11
-5.882805871576126
 21
3.804009451455836
 31
0.0
  0
LINE
  5
AB
330
1F
100
AcDbEntity
  8
000 Kataster
  6
Continuous
 62
     7
370
    13
100
AcDbLine
 10
-5.881702068106614
 20
3.80304084345496
 30
0.0
 11
-5.884083203026954
 21
3.802416056318692
 31
0.0
  0
LINE
  5
AC
330
1F
100
AcDbEntity
  8
000 Kataster
  6
Continuous
 62
     7
370
    13
100
AcDbLine
 10
-5.880952180215136
 20
3.804715403967844
 30
0.0
 11
-5.880955880615556
 21
3.804002906934146
 31
0.0
  0
LINE
  5
AD
330
1F
100
AcDbEntity
  8
000 Kataster
  6
Continuous
 62
     7
370
    13
100
AcDbLine
 10
-5.869686231257063
 20
3.808054617222435
 30
0.0
 11
-5.880579086469607
 21
3.805196435707437
 31
0.0
  0
LINE
  5
AE
330
1F
100
AcDbEntity
  8
000 Kataster
  6
Continuous
 62
     7
370
    13
100
AcDbLine
 10
-5.916716892502526
 20
3.797781922257913
 30
0.0
 11
-5.86856208671928
 21
3.810417284893557
 31
0.0
  0
LINE
  5
AF
330
1F
100
AcDbEntity
  8
000 Kataster
  6
Continuous
 62
     7
370
    13
100
AcDbLine
 10
-5.88318051886613
 20
3.804927385179607
 30
0.0
 11
-5.916310814066286
 21
3.796234311097569
 31
0.0
  0
LINE
  5
B0
330
1F
100
AcDbEntity
  8
000 Kataster
  6
Continuous
 62
     7
370
    25
100
AcDbLine
 10
-5.84710730119151
 20
3.827717153978663
 30
0.0
 11
-5.84710730119151
 21
3.837717153978664
 31
0.0
  0
LINE
  5
B1
330
1F
100
AcDbEntity
  8
000 Kataster
  6
Continuous
 62
     7
370
    13
100
AcDbLine
 10
-5.86060730119326
 20
3.807477437504514
 30
0.0
 11
-5.86060730119326
 21
3.808717153979114
 31
0.0
  0
LINE
  5
B2
330
1F
100
AcDbEntity
  8
000 Kataster
  6
Continuous
 62
     7
370
    13
100
AcDbLine
 10
-5.830107309048339
 20
3.871717153978664
 30
0.0
 11
-5.830107309048339
 21
3.879717153978664
 31
0.0
  0
LINE
  5
B3
330
1F
100
AcDbEntity
  8
000 Kataster
  6
Continuous
 62
     7
370
    13
100
AcDbLine
 10
-5.846107264048339
 20
3.879717153978664
 30
0.0
 11
-5.846107264048339
 21
3.871717153978664
 31
0.0
  0
LINE
  5
B4
330
1F
100
AcDbEntity
  8
000 Kataster
  6
Continuous
 62
     7
370
    13
100
AcDbLine
 10
-5.830107309048339
 20
3.867717153978664
 30
0.0
 11
-5.830107309048339
 21
3.871717153978664
 31
0.0
  0
LINE
  5
B5
330
1F
100
AcDbEntity
  8
000 Kataster
  6
Continuous
 62
     7
370
    13
100
AcDbLine
 10
-5.85845884710524
 20
3.817319221276662
 30
0.0
 11
-5.858285824220564
 21
3.817511382657734
 31
0.0
  0
LINE
  5
B6
330
1F
100
AcDbEntity
  8
000 Kataster
  6
Continuous
 62
     7
370
    13
100
AcDbLine
 10
-5.846107264048339
 20
3.871717153978664
 30
0.0
 11
-5.846107264048339
 21
3.867717153978664
 31
0.0
  0
LINE
  5
B7
330
1F
100
AcDbEntity
  8
000 Kataster
  6
Continuous
 62
     7
370
    25
100
AcDbLine
 10
-5.86666380970269
 20
3.875701294364745
 30
0.0
 11
-5.855907264048339
 21
3.880717153978664
 31
0.0
  0
LINE
  5
B8
330
1F
100
AcDbEntity
  8
000 Kataster
  6
Continuous
 62
     7
370
    25
100
AcDbLine
 10
-5.855907264048339
 20
3.880717153978664
 30
0.0
 11
-5.850107264048338
 21
3.882717153978664
 31
0.0
  0
LINE
  5
B9
330
1F
100
AcDbEntity
  8
000 Kataster
  6
Continuous
 62
     7
370
    25
100
AcDbLine
 10
-5.828107301194111
 20
3.811717153978664
 30
0.0
 11
-5.83610730119411
 21
3.811717153978664
 31
0.0
  0
LINE
  5
BA
330
1F
100
AcDbEntity
  8
000 Kataster
  6
Continuous
 62
     7
370
    25
100
AcDbLine
 10
-5.83610730119411
 20
3.811717153978664
 30
0.0
 11
-5.83610730119411
 21
3.814717153978664
 31
0.0
  0
LINE
  5
BB
330
1F
100
AcDbEntity
  8
000 Kataster
  6
Continuous
 62
     7
370
    25
100
AcDbLine
 10
-5.868107301420896
 20
3.85418963361399
 30
0.0
 11
-5.868107264048339
 21
3.873435524897154
 31
0.0
  0
LINE
  5
BC
330
1F
100
AcDbEntity
  8
000 Kataster
  6
Continuous
 62
     7
370
    25
100
AcDbLine
 10
-5.837107301194111
 20
3.815717153978664
 30
0.0
 11
-5.840107301194111
 21
3.815717153978664
 31
0.0
  0
LINE
  5
BD
330
1F
100
AcDbEntity
  8
000 Kataster
  6
Continuous
 62
     7
370
    13
100
AcDbLine
 10
-5.858003369134225
 20
3.817526185501556
 30
0.0
 11
-5.857811207753153
 21
3.817353162616882
 31
0.0
  0
LINE
  5
BE
330
1F
100
AcDbEntity
  8
000 Kataster
  6
Continuous
 62
     7
370
    13
100
AcDbLine
 10
-5.857666914440648
 20
3.817302065675031
 30
0.0
 11
-5.856400023902832
 21
3.817368460594713
 31
0.0
  0
LINE
  5
BF
330
1F
100
AcDbEntity
  8
000 Kataster
  6
Continuous
 62
     7
370
    25
100
AcDbLine
 10
-5.804107264256801
 20
3.862717153978664
 30
0.0
 11
-5.802607264256801
 21
3.862717153978664
 31
0.0
  0
LINE
  5
C0
330
1F
100
AcDbEntity
  8
000 Kataster
  6
Continuous
 62
     7
370
    25
100
AcDbLine
 10
-5.820107301191511
 20
3.809217153978664
 30
0.0
 11
-5.820107301191511
 21
3.825717153978664
 31
0.0
  0
LINE
  5
C1
330
1F
100
AcDbEntity
  8
000 Kataster
  6
Continuous
 62
     7
370
    25
100
AcDbLine
 10
-5.8253072642568
 20
3.862717153978664
 30
0.0
 11
-5.8031072642568
 21
3.862717153978664
 31
0.0
  0
LINE
  5
C2
330
1F
100
AcDbEntity
  8
000 Kataster
  6
Continuous
 62
     7
370
    25
100
AcDbLine
 10
-5.8261072642568
 20
3.882717153978664
 30
0.0
 11
-5.820307264256801
 21
3.880717153978664
 31
0.0
  0
LINE
  5
C3
330
1F
100
AcDbEntity
  8
000 Kataster
  6
Continuous
 62
     7
370
    25
100
AcDbLine
 10
-5.801107264256801
 20
3.864717153978664
 30
0.0
 11
-5.801107264256801
 21
3.874037875508029
 31
0.0
  0
LINE
  5
C4
330
1F
100
AcDbEntity
  8
000 Kataster
  6
Continuous
 62
     7
370
    13
100
AcDbLine
 10
-5.856261862128999
 20
3.817434360380386
 30
0.0
 11
-5.856088839244324
 21
3.817626521761457
 31
0.0
  0
LINE
  5
C5
330
1F
100
AcDbEntity
  8
000 Kataster
  6
Continuous
 62
     7
370
    25
100
AcDbLine
 10
-5.8001072642568
 20
3.860217153978664
 30
0.0
 11
-5.8001072642568
 21
3.810217153978664
 31
0.0
  0
LINE
  5
C6
330
1F
100
AcDbEntity
  8
000 Kataster
  6
Continuous
 62
     7
370
    25
100
AcDbLine
 10
-5.866089663101308
 20
3.852114351655284
 30
0.0
 11
-5.866624939511103
 21
3.852257778537017
 31
0.0
  0
LINE
  5
C7
330
1F
100
AcDbEntity
  8
000 Kataster
  6
Continuous
 62
     7
370
    25
100
AcDbLine
 10
-5.84210730119411
 20
3.817717153978665
 30
0.0
 11
-5.84210730119411
 21
3.822217153978664
 31
0.0
  0
LINE
  5
C8
330
1F
100
AcDbEntity
  8
000 Kataster
  6
Continuous
 62
     7
370
    25
100
AcDbLine
 10
-5.860607301194111
 20
3.813217153978664
 30
0.0
 11
-5.860607301194111
 21
3.804217153978664
 31
0.0
  0
LINE
  5
C9
330
1F
100
AcDbEntity
  8
000 Kataster
  6
Continuous
 62
     7
370
    25
100
AcDbLine
 10
-5.879107301194111
 20
3.693205768028305
 30
0.0
 11
-5.879107301194111
 21
3.798717153978664
 31
0.0
  0
LINE
  5
CA
330
1F
100
AcDbEntity
  8
000 Kataster
  6
Continuous
 62
     7
370
    25
100
AcDbLine
 10
-5.86730730119411
 20
3.804217153978664
 30
0.0
 11
-5.874813075415894
 21
3.800717153978664
 31
0.0
  0
LINE
  5
CB
330
1F
100
AcDbEntity
  8
000 Kataster
  6
Continuous
 62
     7
370
    25
100
AcDbLine
 10
-5.84360730119411
 20
3.823717153978664
 30
0.0
 11
-5.847907301194111
 21
3.823717153978664
 31
0.0
  0
LINE
  5
CC
330
1F
100
AcDbEntity
  8
000 Kataster
  6
Continuous
 62
     7
370
    25
100
AcDbLine
 10
-5.852107301194112
 20
3.801717153978664
 30
0.0
 11
-5.852107301194112
 21
3.813217153978664
 31
0.0
  0
LINE
  5
CD
330
1F
100
AcDbEntity
  8
000 Kataster
  6
Continuous
 62
     7
370
    25
100
AcDbLine
 10
-5.847907301194111
 20
3.823717153978664
 30
0.0
 11
-5.847907301194111
 21
3.801717153978664
 31
0.0
  0
LINE
  5
CE
330
1F
100
AcDbEntity
  8
000 Kataster
  6
Continuous
 62
     7
370
    13
100
AcDbLine
 10
-5.855806384157985
 20
3.81764132460528
 30
0.0
 11
-5.855614222776913
 21
3.817468301720604
 31
0.0
  0
LINE
  5
CF
330
1F
100
AcDbEntity
  8
000 Kataster
  6
Continuous
 62
     7
370
    13
100
AcDbLine
 10
-5.87760730119156
 20
3.814717153978514
 30
0.0
 11
-5.877107301191611
 21
3.814717153978514
 31
0.0
  0
LINE
  5
D0
330
1F
100
AcDbEntity
  8
000 Kataster
  6
Continuous
 62
     7
370
    13
100
AcDbLine
 10
-5.855469929464407
 20
3.817417204778754
 30
0.0
 11
-5.85393346917205
 21
3.817497727250633
 31
0.0
  0
LINE
  5
D1
330
1F
100
AcDbEntity
  8
000 Kataster
  6
Continuous
 62
     7
370
    13
100
AcDbLine
 10
-5.853407301193981
 20
3.816998412483305
 30
0.0
 11
-5.853407301193981
 21
3.814997997149448
 31
0.0
  0
LINE
  5
D2
330
1F
100
AcDbEntity
  8
000 Kataster
  6
Continuous
 62
     7
370
    13
100
AcDbLine
 10
-5.876133469169829
 20
3.816334274550666
 30
0.0
 11
-5.862633469171179
 21
3.817041779570916
 31
0.0
  0
LINE
  5
D3
330
1F
100
AcDbEntity
  8
000 Kataster
  6
Continuous
 62
     7
370
    13
100
AcDbLine
 10
-5.853777891671392
 20
3.814515034236352
 30
0.0
 11
-5.854936710716379
 21
3.814204529609074
 31
0.0
  0
LINE
  5
D4
330
1F
100
AcDbEntity
  8
000 Kataster
  6
Continuous
 62
     7
370
    13
100
AcDbLine
 10
-5.874813075415894
 20
3.800717153978664
 30
0.0
 11
-5.87710730119411
 21
3.800717153978664
 31
0.0
  0
LINE
  5
D5
330
1F
100
AcDbEntity
  8
000 Kataster
  6
Continuous
 62
     7
370
    25
100
AcDbLine
 10
-5.847907301194111
 20
3.801717153978664
 30
0.0
 11
-5.852107301194112
 21
3.801717153978664
 31
0.0
  0
LINE
  5
D6
330
1F
100
AcDbEntity
  8
000 Kataster
  6
Continuous
 62
     7
370
    25
100
AcDbLine
 10
-5.852107301194112
 20
3.813217153978664
 30
0.0
 11
-5.860607301194111
 21
3.813217153978664
 31
0.0
  0
LINE
  5
D7
330
1F
100
AcDbEntity
  8
000 Kataster
  6
Continuous
 62
     7
370
    13
100
AcDbLine
 10
-5.878107301191511
 20
3.916746492406125
 30
0.0
 11
-5.878107301191511
 21
3.841640725638756
 31
0.0
  0
LINE
  5
D8
330
1F
100
AcDbEntity
  8
000 Kataster
  6
Continuous
 62
     7
370
    13
100
AcDbLine
 10
-5.868107282734616
 20
3.916746492406125
 30
0.0
 11
-5.868107282734616
 21
3.877006955103752
 31
0.0
  0
LINE
  5
D9
330
1F
100
AcDbEntity
  8
000 Kataster
  6
Continuous
 62
     7
370
    13
100
AcDbLine
 10
-5.850107264048338
 20
3.916746492406125
 30
0.0
 11
-5.850107264048338
 21
3.882717153978664
 31
0.0
  0
LINE
  5
DA
330
1F
100
AcDbEntity
  8
000 Kataster
  6
Continuous
 62
     7
370
    25
100
AcDbLine
 10
-5.860607301194111
 20
3.804217153978664
 30
0.0
 11
-5.86730730119411
 21
3.804217153978664
 31
0.0
  0
LINE
  5
DB
330
1F
100
AcDbEntity
  8
000 Kataster
  6
Continuous
 62
     7
370
    13
100
AcDbLine
 10
-5.826107309048339
 20
3.916746492406125
 30
0.0
 11
-5.826107309048339
 21
3.882717169424022
 31
0.0
  0
LINE
  5
DC
330
1F
100
AcDbEntity
  8
000 Kataster
  6
Continuous
 62
     7
370
    13
100
AcDbLine
 10
-5.801107264256801
 20
3.916746492406125
 30
0.0
 11
-5.801107264256801
 21
3.877006955103752
 31
0.0
  0
LINE
  5
DD
330
1F
100
AcDbEntity
  8
000 Kataster
  6
Continuous
 62
     7
370
    13
100
AcDbLine
 10
-5.830107309048339
 20
3.879717153978664
 30
0.0
 11
-5.846107264048339
 21
3.879717153978664
 31
0.0
  0
LINE
  5
DE
330
1F
100
AcDbEntity
  8
000 Kataster
  6
Continuous
 62
     7
370
    13
100
AcDbLine
 10
-5.830107309048339
 20
3.871717153978664
 30
0.0
 11
-5.846107264048339
 21
3.871717153978664
 31
0.0
  0
LINE
  5
DF
330
1F
100
AcDbEntity
  8
000 Kataster
  6
Continuous
 62
     7
370
    13
100
AcDbLine
 10
-5.846107264048339
 20
3.871717153978664
 30
0.0
 11
-5.830107309048339
 21
3.871717153978664
 31
0.0
  0
LINE
  5
E0
330
1F
100
AcDbEntity
  8
000 Kataster
  6
Continuous
 62
     7
370
    13
100
AcDbLine
 10
-5.846107264048339
 20
3.867717153978664
 30
0.0
 11
-5.830107309048339
 21
3.867717153978664
 31
0.0
  0
LINE
  5
E1
330
1F
100
AcDbEntity
  8
000 Kataster
  6
Continuous
 62
     7
370
    13
100
AcDbLine
 10
-5.846107264048339
 20
3.916746492406125
 30
0.0
 11
-5.846107264048339
 21
3.867717152978664
 31
0.0
  0
LINE
  5
E2
330
1F
100
AcDbEntity
  8
000 Kataster
  6
Continuous
 62
     7
370
    13
100
AcDbLine
 10
-5.830107309048339
 20
3.916746492406125
 30
0.0
 11
-5.830107309048339
 21
3.867717152978664
 31
0.0
  0
LINE
  5
E3
330
1F
100
AcDbEntity
  8
000 Kataster
  6
Continuous
 62
     7
370
    13
100
AcDbLine
 10
-5.826107309048339
 20
3.867717152978664
 30
0.0
 11
-5.830107309048339
 21
3.867717152978664
 31
0.0
  0
LINE
  5
E4
330
1F
100
AcDbEntity
  8
000 Kataster
  6
Continuous
 62
     7
370
    13
100
AcDbLine
 10
-5.846107264048339
 20
3.867717153978664
 30
0.0
 11
-5.850107264048338
 21
3.867717153978664
 31
0.0
  0
LINE
  5
E5
330
1F
100
AcDbEntity
  8
000 Kataster
  6
Continuous
 62
     7
370
    25
100
AcDbLine
 10
-5.828107301194111
 20
3.814717153978664
 30
0.0
 11
-5.828107301194111
 21
3.811717153978664
 31
0.0
  0
LINE
  5
E6
330
1F
100
AcDbEntity
  8
000 Kataster
  6
Continuous
 62
     7
370
    13
100
AcDbLine
 10
-5.919143337413002
 20
3.779565909759763
 30
0.0
 11
-5.919104692473914
 21
3.794703319124519
 31
0.0
  0
LINE
  5
E7
330
1F
100
AcDbEntity
  8
000 Kataster
  6
Continuous
 62
     7
370
    13
100
AcDbLine
 10
-5.917504714051979
 20
3.794695009530872
 30
0.0
 11
-5.917528638366093
 21
3.782391996566248
 31
0.0
  0
LINE
  5
E8
330
1F
100
AcDbEntity
  8
000 Kataster
  6
Continuous
 62
     7
370
    25
100
AcDbLine
 10
-5.802607264256801
 20
3.807717153978664
 30
0.0
 11
-5.818607301191511
 21
3.807717153978664
 31
0.0
  0
LINE
  5
E9
330
1F
100
AcDbEntity
  8
000 Kataster
  6
Continuous
 62
     7
370
    13
100
AcDbLine
 10
-5.855307301193792
 20
3.813721566695977
 30
0.0
 11
-5.855307301193792
 21
3.813417153978644
 31
0.0
  0
LINE
  5
EA
330
1F
100
AcDbEntity
  8
000 Kataster
  6
Continuous
 62
     7
370
    13
100
AcDbLine
 10
-5.855107301193812
 20
3.813217153978664
 30
0.0
 11
-5.853021444036873
 21
3.813217153978664
 31
0.0
  0
LINE
  5
EB
330
1F
100
AcDbEntity
  8
000 Kataster
  6
Continuous
 62
     7
370
    13
100
AcDbLine
 10
-5.851874288492242
 20
3.812767153978709
 30
0.0
 11
-5.85204031389601
 21
3.812479589544036
 31
0.0
  0
LINE
  5
EC
330
1F
100
AcDbEntity
  8
000 Kataster
  6
Continuous
 62
     7
370
    13
100
AcDbLine
 10
-5.852107301194112
 20
3.812229589544061
 30
0.0
 11
-5.85210730119411
 21
3.811284141276965
 31
0.0
  0
LINE
  5
ED
330
1F
100
AcDbEntity
  8
000 Kataster
  6
Continuous
 62
     7
370
    13
100
AcDbLine
 10
-5.851973326597909
 20
3.810784141277015
 30
0.0
 11
-5.851491275790387
 21
3.80994920478656
 31
0.0
  0
LINE
  5
EE
330
1F
100
AcDbEntity
  8
000 Kataster
  6
Continuous
 62
     7
370
    13
100
AcDbLine
 10
-5.851357301194186
 20
3.80944920478661
 30
0.0
 11
-5.851357301194186
 21
3.807201276897541
 31
0.0
  0
LINE
  5
EF
330
1F
100
AcDbEntity
  8
000 Kataster
  6
Continuous
 62
     7
370
    13
100
AcDbLine
 10
-5.85210730119411
 20
3.806233031061087
 30
0.0
 11
-5.85210730119411
 21
3.804985103171918
 31
0.0
  0
LINE
  5
F0
330
1F
100
AcDbEntity
  8
000 Kataster
  6
Continuous
 62
     7
370
    13
100
AcDbLine
 10
-5.851973326597909
 20
3.804485103171968
 30
0.0
 11
-5.851241275790413
 21
3.803217153979664
 31
0.0
  0
LINE
  5
F1
330
1F
100
AcDbEntity
  8
000 Kataster
  6
Continuous
 62
     7
370
    13
100
AcDbLine
 10
-5.850375250386715
 20
3.802717153979714
 30
0.0
 11
-5.849419736759678
 21
3.802717153979714
 31
0.0
  0
LINE
  5
F2
330
1F
100
AcDbEntity
  8
000 Kataster
  6
Continuous
 62
     7
370
    13
100
AcDbLine
 10
-5.848553711355979
 20
3.803217153979664
 30
0.0
 11
-5.847947493573391
 21
3.804267153979559
 31
0.0
  0
LINE
  5
F3
330
1F
100
AcDbEntity
  8
000 Kataster
  6
Continuous
 62
     7
370
    13
100
AcDbLine
 10
-5.848259395647796
 20
3.804712596305419
 30
0.0
 11
-5.848498216843467
 21
3.804670485685056
 31
0.0
  0
LINE
  5
F4
330
1F
100
AcDbEntity
  8
000 Kataster
  6
Continuous
 62
     7
370
    13
100
AcDbLine
 10
-5.84901805363414
 20
3.805412889561488
 30
0.0
 11
-5.847947493573391
 21
3.807267153979259
 31
0.0
  0
LINE
  5
F5
330
1F
100
AcDbEntity
  8
000 Kataster
  6
Continuous
 62
     7
370
    13
100
AcDbLine
 10
-5.848259395647796
 20
3.807712596305119
 30
0.0
 11
-5.848498216843467
 21
3.807670485684756
 31
0.0
  0
LINE
  5
F6
330
1F
100
AcDbEntity
  8
000 Kataster
  6
Continuous
 62
     7
370
    13
100
AcDbLine
 10
-5.84901805363414
 20
3.808412889561188
 30
0.0
 11
-5.847947493573391
 21
3.810267153978959
 31
0.0
  0
LINE
  5
F7
330
1F
100
AcDbEntity
  8
000 Kataster
  6
Continuous
 62
     7
370
    13
100
AcDbLine
 10
-5.848259395647796
 20
3.810712596304819
 30
0.0
 11
-5.848498216843467
 21
3.810670485684456
 31
0.0
  0
LINE
  5
F8
330
1F
100
AcDbEntity
  8
000 Kataster
  6
Continuous
 62
     7
370
    13
100
AcDbLine
 10
-5.84901805363414
 20
3.811412889560888
 30
0.0
 11
-5.848474288492582
 21
3.812354718413452
 31
0.0
  0
LINE
  5
F9
330
1F
100
AcDbEntity
  8
000 Kataster
  6
Continuous
 62
     7
370
    13
100
AcDbLine
 10
-5.848407301194481
 20
3.812604718413427
 30
0.0
 11
-5.848407301194481
 21
3.813717153978614
 31
0.0
  0
LINE
  5
FA
330
1F
100
AcDbEntity
  8
000 Kataster
  6
Continuous
 62
     7
370
    13
100
AcDbLine
 10
-5.84890730119443
 20
3.814217153978564
 30
0.0
 11
-5.850043330960052
 21
3.814217153978564
 31
0.0
  0
LINE
  5
FB
330
1F
100
AcDbEntity
  8
000 Kataster
  6
Continuous
 62
     7
370
    13
100
AcDbLine
 10
-5.850686118569673
 20
3.814451109535422
 30
0.0
 11
-5.851550088803853
 21
3.81517606664027
 31
0.0
  0
LINE
  5
FC
330
1F
100
AcDbEntity
  8
000 Kataster
  6
Continuous
 62
     7
370
    13
100
AcDbLine
 10
-5.862107301193111
 20
3.816542464803589
 30
0.0
 11
-5.862107301193111
 21
3.815498408590515
 31
0.0
  0
LINE
  5
FD
330
1F
100
AcDbEntity
  8
000 Kataster
  6
Continuous
 62
     7
370
    13
100
AcDbLine
 10
-5.862114897316603
 20
3.815411584501691
 30
0.0
 11
-5.863444707246298
 21
3.807869857623865
 31
0.0
  0
LINE
  5
FE
330
1F
100
AcDbEntity
  8
000 Kataster
  6
Continuous
 62
     7
370
    13
100
AcDbLine
 10
-5.865414322752127
 20
3.806217153979364
 30
0.0
 11
-5.868398933334904
 21
3.806217153979364
 31
0.0
  0
LINE
  5
FF
330
1F
100
AcDbEntity
  8
000 Kataster
  6
Continuous
 62
     7
370
    13
100
AcDbLine
 10
-5.868586236631593
 20
3.806180745906651
 30
0.0
 11
-5.877794604488249
 21
3.802460323795424
 31
0.0
  0
LINE
  5
100
330
1F
100
AcDbEntity
  8
000 Kataster
  6
Continuous
 62
     7
370
    13
100
AcDbLine
 10
-5.878107301191511
 20
3.801996731868187
 30
0.0
 11
-5.878107301191511
 21
3.801217153979884
 31
0.0
  0
LINE
  5
101
330
1F
100
AcDbEntity
  8
000 Kataster
  6
Continuous
 62
     7
370
    13
100
AcDbLine
 10
-5.87760730119151
 20
3.800717153979885
 30
0.0
 11
-5.876101740298383
 21
3.800717153979884
 31
0.0
  0
LINE
  5
102
330
1F
100
AcDbEntity
  8
000 Kataster
  6
Continuous
 62
     7
370
    13
100
AcDbLine
 10
-5.8753033117641
 20
3.801849069278359
 30
0.0
 11
-5.868294666167916
 21
3.804680745906801
 31
0.0
  0
LINE
  5
103
330
1F
100
AcDbEntity
  8
000 Kataster
  6
Continuous
 62
     7
370
    13
100
AcDbLine
 10
-5.868107362871227
 20
3.804717153979514
 30
0.0
 11
-5.864808268787455
 21
3.804717153979514
 31
0.0
  0
LINE
  5
104
330
1F
100
AcDbEntity
  8
000 Kataster
  6
Continuous
 62
     7
370
    13
100
AcDbLine
 10
-5.863661115914866
 20
3.8050788498909
 30
0.0
 11
-5.860820512975064
 21
3.807067861482411
 31
0.0
  0
LINE
  5
105
330
1F
100
AcDbEntity
  8
000 Kataster
  6
Continuous
 62
     7
370
    13
100
AcDbLine
 10
-5.86060730119326
 20
3.807477437504514
 30
0.0
 11
-5.86060730119326
 21
3.808717153979114
 31
0.0
  0
LINE
  5
106
330
1F
100
AcDbEntity
  8
000 Kataster
  6
Continuous
 62
     7
370
    13
100
AcDbLine
 10
-5.861107301193211
 20
3.809217153979064
 30
0.0
 11
-5.8612073011932
 21
3.809217153979064
 31
0.0
  0
LINE
  5
107
330
1F
100
AcDbEntity
  8
000 Kataster
  6
Continuous
 62
     7
370
    13
100
AcDbLine
 10
-5.861601224294366
 20
3.809686613250084
 30
0.0
 11
-5.860614897316754
 21
3.815280351506415
 31
0.0
  0
LINE
  5
108
330
1F
100
AcDbEntity
  8
000 Kataster
  6
Continuous
 62
     7
370
    13
100
AcDbLine
 10
-5.86060730119326
 20
3.81536717559524
 30
0.0
 11
-5.86060730119326
 21
3.816673484251783
 31
0.0
  0
LINE
  5
109
330
1F
100
AcDbEntity
  8
000 Kataster
  6
Continuous
 62
     7
370
    25
100
AcDbLine
 10
-5.802589626166595
 20
3.875969727160607
 30
0.0
 11
-5.820307264256801
 21
3.880717153978664
 31
0.0
  0
LINE
  5
10A
330
1F
100
AcDbEntity
  8
000 Kataster
  6
Continuous
 62
     7
370
    25
100
AcDbLine
 10
-5.855907264048339
 20
3.880717153978664
 30
0.0
 11
-5.850107264048338
 21
3.882717153978664
 31
0.0
  0
LINE
  5
10B
330
1F
100
AcDbEntity
  8
000 Kataster
  6
Continuous
 62
     7
370
    25
100
AcDbLine
 10
-5.850107264048338
 20
3.882717153978664
 30
0.0
 11
-5.850107264048338
 21
3.873717153978664
 31
0.0
  0
LINE
  5
10C
330
1F
100
AcDbEntity
  8
000 Kataster
  6
Continuous
 62
     7
370
    25
100
AcDbLine
 10
-5.8261072642568
 20
3.873717153978664
 30
0.0
 11
-5.8261072642568
 21
3.882717153978664
 31
0.0
  0
LINE
  5
10D
330
1F
100
AcDbEntity
  8
000 Kataster
  6
Continuous
 62
     7
370
    25
100
AcDbLine
 10
-5.8261072642568
 20
3.882717153978664
 30
0.0
 11
-5.820307264256801
 21
3.880717153978664
 31
0.0
  0
LINE
  5
10E
330
1F
100
AcDbEntity
  8
000 Kataster
  6
Continuous
 62
     7
370
    13
100
AcDbLine
 10
-5.87660730119166
 20
3.818538665117263
 30
0.0
 11
-5.87660730119166
 21
3.835546783044189
 31
0.0
  0
LINE
  5
10F
330
1F
100
AcDbEntity
  8
000 Kataster
  6
Continuous
 62
     7
370
    13
100
AcDbLine
 10
-5.878107301191511
 20
3.835865318174561
 30
0.0
 11
-5.878107301191511
 21
3.815217153978464
 31
0.0
  0
LINE
  5
110
330
1F
100
AcDbEntity
  8
000 Kataster
  6
Continuous
 62
     7
370
    13
100
AcDbLine
 10
-5.957279912133126
 20
4.167365471935974
 30
0.0
 11
-5.957279912133126
 21
3.777478403627407
 31
0.0
  0
LINE
  5
111
330
1F
100
AcDbEntity
  8
000 Kataster
  6
Continuous
 62
     7
370
    13
100
AcDbLine
 10
-5.946788739127108
 20
4.167365471935974
 30
0.0
 11
-5.946788739127108
 21
3.777478403627407
 31
0.0
  0
LINE
  5
112
330
1F
100
AcDbEntity
  8
000 Kataster
  6
Continuous
 62
     7
370
    13
100
AcDbLine
 10
-5.943171912595892
 20
4.167365471935974
 30
0.0
 11
-5.943171912595892
 21
3.777478403627407
 31
0.0
  0
LINE
  5
113
330
1F
100
AcDbEntity
  8
000 Kataster
  6
Continuous
 62
     7
370
    13
100
AcDbLine
 10
-5.871224819560118
 20
3.806268026825926
 30
0.0
 11
-5.869311583967059
 21
3.807136683498664
 31
0.0
  0
LINE
  5
114
330
1F
100
AcDbEntity
  8
000 Kataster
  6
Continuous
 62
     7
370
    13
100
AcDbLine
 10
-5.86855739923437
 20
3.806191378144399
 30
0.0
 11
-5.87093853415471
 21
3.805566591008131
 31
0.0
  0
LINE
  5
115
330
1F
100
AcDbEntity
  8
000 Kataster
  6
Continuous
 62
     7
370
    13
100
AcDbLine
 10
-5.864045908569707
 20
3.808151704731329
 30
0.0
 11
-5.866017871341191
 21
3.808192466240051
 31
0.0
  0
LINE
  5
116
330
1F
100
AcDbEntity
  8
000 Kataster
  6
Continuous
 62
     7
370
    13
100
AcDbLine
 10
-5.866332057971833
 20
3.806775286507913
 30
0.0
 11
-5.863950923051494
 21
3.807400073644181
 31
0.0
  0
LINE
  5
117
330
1F
100
AcDbEntity
  8
000 Kataster
  6
Continuous
 62
     7
370
    13
100
AcDbLine
 10
-5.867807511342892
 20
3.807865938657283
 30
0.0
 11
-5.867454467466811
 21
3.807247047925769
 31
0.0
  0
LINE
  5
118
330
1F
100
AcDbEntity
  8
000 Kataster
  6
Continuous
 62
     7
370
    13
100
AcDbLine
 10
-5.86409345699892
 20
3.809185436982934
 30
0.0
 11
-5.865893568577881
 21
3.809176087984512
 31
0.0
  0
LINE
  5
119
330
1F
100
AcDbEntity
  8
000 Kataster
  6
Continuous
 62
     7
370
    13
100
AcDbLine
 10
-5.866379606401047
 20
3.81056185520635
 30
0.0
 11
-5.863998471480707
 21
3.809937068070082
 31
0.0
  0
ARC
  5
11A
330
1F
100
AcDbEntity
  8
000 Kataster
  6
Continuous
 62
     7
370
    25
100
AcDbCircle
 10
-5.86310730119151
 20
3.841217153978663
 30
0.0
 40
0.0014999999999996
100
AcDbArc
 50
180.0
 51
270.0
  0
ARC
  5
11B
330
1F
100
AcDbEntity
  8
000 Kataster
  6
Continuous
 62
     7
370
    25
100
AcDbCircle
 10
-5.851456310709542
 20
3.841217153978664
 30
0.0
 40
0.0015000000000001
100
AcDbArc
 50
194.9999999999954
 51
270.0
  0
ARC
  5
11C
330
1F
100
AcDbEntity
  8
000 Kataster
  6
Continuous
 62
     7
370
    25
100
AcDbCircle
 10
-5.857616564747387
 20
3.843217153978664
 30
0.0
 40
0.0015000000000001
100
AcDbArc
 50
90.0
 51
165.0000000000046
  0
ARC
  5
11D
330
1F
100
AcDbEntity
  8
000 Kataster
  6
Continuous
 62
     7
370
    25
100
AcDbCircle
 10
-5.865607264048338
 20
3.873435524897154
 30
0.0
 40
0.0024999999999999
100
AcDbArc
 50
115.0000000000095
 51
180.0
  0
ARC
  5
11E
330
1F
100
AcDbEntity
  8
000 Kataster
  6
Continuous
 62
     7
370
    13
100
AcDbCircle
 10
-5.870107301192311
 20
3.837640626740725
 30
0.0
 40
0.0039999999996012
100
AcDbArc
 50
333.9999999999925
 51
0.0
  0
ARC
  5
11F
330
1F
100
AcDbEntity
  8
000 Kataster
  6
Continuous
 62
     7
370
    13
100
AcDbCircle
 10
-5.85310730119401
 20
3.826717153977314
 30
0.0
 40
0.0009999999999
100
AcDbArc
 50
0.0
 51
90.0
  0
ARC
  5
120
330
1F
100
AcDbEntity
  8
000 Kataster
  6
Continuous
 62
     7
370
    13
100
AcDbCircle
 10
-5.868107301192511
 20
3.839277244309056
 30
0.0
 40
0.00049999999995
100
AcDbArc
 50
0.0
 51
115.0000000000152
  0
ARC
  5
121
330
1F
100
AcDbEntity
  8
000 Kataster
  6
Continuous
 62
     7
370
    25
100
AcDbCircle
 10
-5.861258291673479
 20
3.841217153978664
 30
0.0
 40
0.0014999999999996
100
AcDbArc
 50
270.0
 51
345.0000000000045
  0
ARC
  5
122
330
1F
100
AcDbEntity
  8
000 Kataster
  6
Continuous
 62
     7
370
    25
100
AcDbCircle
 10
-5.848407301194111
 20
3.822020369487557
 30
0.0
 40
0.0005000000000002
100
AcDbArc
 50
338.1927318411059
 51
0.0
  0
ARC
  5
123
330
1F
100
AcDbEntity
  8
000 Kataster
  6
Continuous
 62
     7
370
    13
100
AcDbCircle
 10
-5.868107301192511
 20
3.842035689106186
 30
0.0
 40
0.00049999999995
100
AcDbArc
 50
295.0000000000151
 51
0.0
  0
ARC
  5
124
330
1F
100
AcDbEntity
  8
000 Kataster
  6
Continuous
 62
     7
370
    13
100
AcDbCircle
 10
-5.868107301192511
 20
3.837178890358519
 30
0.0
 40
0.0004999999999495
100
AcDbArc
 50
334.0000000000028
 51
0.0
  0
ARC
  5
125
330
1F
100
AcDbEntity
  8
000 Kataster
  6
Continuous
 62
     7
370
    25
100
AcDbCircle
 10
-5.849107301191511
 20
3.837717153978664
 30
0.0
 40
0.0020000000000002
100
AcDbArc
 50
0.0
 51
90.0
  0
ARC
  5
126
330
1F
100
AcDbEntity
  8
000 Kataster
  6
Continuous
 62
     7
370
    25
100
AcDbCircle
 10
-5.866107301420898
 20
3.854189630189595
 30
0.0
 40
0.0020000000000002
100
AcDbArc
 50
179.9999018982844
 51
254.999999999998
  0
ARC
  5
127
330
1F
100
AcDbEntity
  8
000 Kataster
  6
Continuous
 62
     7
370
    13
100
AcDbCircle
 10
-5.854107301193912
 20
3.819691636261374
 30
0.0
 40
0.00049999999995
100
AcDbArc
 50
273.000000000175
 51
0.0
  0
ARC
  5
128
330
1F
100
AcDbEntity
  8
000 Kataster
  6
Continuous
 62
     7
370
    13
100
AcDbCircle
 10
-5.854607301193861
 20
3.826902741259931
 30
0.0
 40
0.00049999999995
100
AcDbArc
 50
180.0
 51
255.0000000000304
  0
ARC
  5
129
330
1F
100
AcDbEntity
  8
000 Kataster
  6
Continuous
 62
     7
370
    13
100
AcDbCircle
 10
-5.876107301191711
 20
3.818538665117263
 30
0.0
 40
0.00049999999995
100
AcDbArc
 50
180.0
 51
272.9999999999717
  0
ARC
  5
12A
330
1F
100
AcDbEntity
  8
000 Kataster
  6
Continuous
 62
     7
370
    13
100
AcDbCircle
 10
-5.876107301191711
 20
3.835546783044189
 30
0.0
 40
0.00049999999995
100
AcDbArc
 50
114.9999999999721
 51
180.0
  0
ARC
  5
12B
330
1F
100
AcDbEntity
  8
000 Kataster
  6
Continuous
 62
     7
370
    13
100
AcDbCircle
 10
-5.87660730119166
 20
3.835865318174561
 30
0.0
 40
0.0014999999998495
100
AcDbArc
 50
115.000000000048
 51
180.0
  0
ARC
  5
12C
330
1F
100
AcDbEntity
  8
000 Kataster
  6
Continuous
 62
     7
370
    13
100
AcDbCircle
 10
-5.866857301192635
 20
3.844967153975489
 30
0.0
 40
0.000749999999925
100
AcDbArc
 50
0.0
 51
180.0
  0
ARC
  5
12D
330
1F
100
AcDbEntity
  8
000 Kataster
  6
Continuous
 62
     7
370
    13
100
AcDbCircle
 10
-5.854607301193861
 20
3.827217153977264
 30
0.0
 40
0.00049999999995
100
AcDbArc
 50
90.0
 51
180.0
  0
ARC
  5
12E
330
1F
100
AcDbEntity
  8
000 Kataster
  6
Continuous
 62
     7
370
    25
100
AcDbCircle
 10
-5.82210730119151
 20
3.825717153978664
 30
0.0
 40
0.0020000000000002
100
AcDbArc
 50
0.0
 51
90.0
  0
ARC
  5
12F
330
1F
100
AcDbEntity
  8
000 Kataster
  6
Continuous
 62
     7
370
    25
100
AcDbCircle
 10
-5.866607301191511
 20
3.850182500002706
 30
0.0
 40
0.0020000000000002
100
AcDbArc
 50
0.0
 51
74.99999999999798
  0
ARC
  5
130
330
1F
100
AcDbEntity
  8
000 Kataster
  6
Continuous
 62
     7
370
    13
100
AcDbCircle
 10
-5.868206102954289
 20
3.834124851686193
 30
0.0
 40
0.000749999999925
100
AcDbArc
 50
154.0000000000341
 51
334.000000000034
  0
ARC
  5
131
330
1F
100
AcDbEntity
  8
000 Kataster
  6
Continuous
 62
     7
370
    13
100
AcDbCircle
 10
-5.85190730119413
 20
3.82379999669008
 30
0.0
 40
0.00019999999998
100
AcDbArc
 50
180.0
 51
224.9999999998201
  0
ARC
  5
132
330
1F
100
AcDbEntity
  8
000 Kataster
  6
Continuous
 62
     7
370
    25
100
AcDbCircle
 10
-5.855098037635635
 20
3.843217153978664
 30
0.0
 40
0.0015000000000001
100
AcDbArc
 50
14.99999999999543
 51
90.0
  0
ARC
  5
133
330
1F
100
AcDbEntity
  8
000 Kataster
  6
Continuous
 62
     7
370
    25
100
AcDbCircle
 10
-5.8031072642568
 20
3.874037875508029
 30
0.0
 40
0.0020000000000002
100
AcDbArc
 50
0.0
 51
74.99999999999798
  0
ARC
  5
134
330
1F
100
AcDbEntity
  8
000 Kataster
  6
Continuous
 62
     7
370
    25
100
AcDbCircle
 10
-5.8031072642568
 20
3.864717153978664
 30
0.0
 40
0.0019999999999998
100
AcDbArc
 50
270.0
 51
0.0
  0
ARC
  5
135
330
1F
100
AcDbEntity
  8
000 Kataster
  6
Continuous
 62
     7
370
    25
100
AcDbCircle
 10
-5.802607264256801
 20
3.860217153978664
 30
0.0
 40
0.0024999999999999
100
AcDbArc
 50
0.0
 51
90.0
  0
ARC
  5
136
330
1F
100
AcDbEntity
  8
000 Kataster
  6
Continuous
 62
     7
370
    25
100
AcDbCircle
 10
-5.802607264256801
 20
3.810217153978664
 30
0.0
 40
0.0024999999999999
100
AcDbArc
 50
270.0
 51
0.0
  0
ARC
  5
137
330
1F
100
AcDbEntity
  8
000 Kataster
  6
Continuous
 62
     7
370
    25
100
AcDbCircle
 10
-5.822607301194111
 20
3.814217153978664
 30
0.0
 40
0.0015000000000001
100
AcDbArc
 50
0.0
 51
90.0
  0
ARC
  5
138
330
1F
100
AcDbEntity
  8
000 Kataster
  6
Continuous
 62
     7
370
    13
100
AcDbCircle
 10
-5.860107301193311
 20
3.816673484251783
 30
0.0
 40
0.00049999999995
100
AcDbArc
 50
92.99999999997175
 51
180.0
  0
ARC
  5
139
330
1F
100
AcDbEntity
  8
000 Kataster
  6
Continuous
 62
     7
370
    25
100
AcDbCircle
 10
-5.837107301194111
 20
3.814717153978664
 30
0.0
 40
0.0010000000000003
100
AcDbArc
 50
0.0
 51
90.0
  0
ARC
  5
13A
330
1F
100
AcDbEntity
  8
000 Kataster
  6
Continuous
 62
     7
370
    25
100
AcDbCircle
 10
-5.840107301194111
 20
3.817717153978665
 30
0.0
 40
0.0020000000000002
100
AcDbArc
 50
180.0
 51
270.0
  0
ARC
  5
13B
330
1F
100
AcDbEntity
  8
000 Kataster
  6
Continuous
 62
     7
370
    25
100
AcDbCircle
 10
-5.84360730119411
 20
3.822217153978664
 30
0.0
 40
0.0015000000000001
100
AcDbArc
 50
0.0
 51
90.0
  0
ARC
  5
13C
330
1F
100
AcDbEntity
  8
000 Kataster
  6
Continuous
 62
     7
370
    25
100
AcDbCircle
 10
-5.87710730119411
 20
3.798717153978664
 30
0.0
 40
0.0020000000000002
100
AcDbArc
 50
90.0
 51
180.0
  0
ARC
  5
13D
330
1F
100
AcDbEntity
  8
000 Kataster
  6
Continuous
 62
     7
370
    13
100
AcDbCircle
 10
-5.877107301191611
 20
3.815217153978464
 30
0.0
 40
0.00049999999995
100
AcDbArc
 50
270.0
 51
0.0
  0
ARC
  5
13E
330
1F
100
AcDbEntity
  8
000 Kataster
  6
Continuous
 62
     7
370
    13
100
AcDbCircle
 10
-5.883053619354806
 20
3.804443756692
 30
0.0
 40
0.0005000000000002
100
AcDbArc
 50
299.7024332589822
 51
104.7024332587846
  0
ARC
  5
13F
330
1F
100
AcDbEntity
  8
000 Kataster
  6
Continuous
 62
     7
370
    13
100
AcDbCircle
 10
-5.915735587253934
 20
3.781049342328742
 30
0.0
 40
0.0002
100
AcDbArc
 50
299.702433258793
 51
359.7024332589385
  0
ARC
  5
140
330
1F
100
AcDbEntity
  8
000 Kataster
  6
Continuous
 62
     7
370
    13
100
AcDbCircle
 10
-5.85860747607032
 20
3.817453047397921
 30
0.0
 40
0.0001999999999804
100
AcDbArc
 50
272.9999999998647
 51
318.0000000002623
  0
ARC
  5
141
330
1F
100
AcDbEntity
  8
000 Kataster
  6
Continuous
 62
     7
370
    13
100
AcDbCircle
 10
-5.858137195255484
 20
3.817377556536476
 30
0.0
 40
0.0001999999999795
100
AcDbArc
 50
47.99999999992186
 51
137.9999999999219
  0
ARC
  5
142
330
1F
100
AcDbEntity
  8
000 Kataster
  6
Continuous
 62
     7
370
    13
100
AcDbCircle
 10
-5.915904735630047
 20
3.794686699937225
 30
0.0
 40
0.0032000000000001
100
AcDbArc
 50
104.7024332588957
 51
179.7024332589088
  0
ARC
  5
143
330
1F
100
AcDbEntity
  8
000 Kataster
  6
Continuous
 62
     7
370
    13
100
AcDbCircle
 10
-5.915904735630047
 20
3.794686699937225
 30
0.0
 40
0.0015999999999998
100
AcDbArc
 50
104.7024332588649
 51
179.7024332589087
  0
ARC
  5
144
330
1F
100
AcDbEntity
  8
000 Kataster
  6
Continuous
 62
     7
370
    13
100
AcDbCircle
 10
-5.880452186958282
 20
3.804712807219829
 30
0.0
 40
0.0004999999999997
100
AcDbArc
 50
104.7024332589815
 51
179.7024332588897
  0
ARC
  5
145
330
1F
100
AcDbEntity
  8
000 Kataster
  6
Continuous
 62
     7
370
    13
100
AcDbCircle
 10
-5.915928303518941
 20
3.782452315197149
 30
0.0
 40
0.0003999999999995
100
AcDbArc
 50
359.7024332589398
 51
134.7024332589269
  0
ARC
  5
146
330
1F
100
AcDbEntity
  8
000 Kataster
  6
Continuous
 62
     7
370
    13
100
AcDbCircle
 10
-5.917128643760611
 20
3.782389919167836
 30
0.0
 40
0.0004
100
AcDbArc
 50
179.7024332589398
 51
314.7024332589269
  0
ARC
  5
147
330
1F
100
AcDbEntity
  8
000 Kataster
  6
Continuous
 62
     7
370
    13
100
AcDbCircle
 10
-5.91874334280752
 20
3.779563832361352
 30
0.0
 40
0.0003999999999995
100
AcDbArc
 50
179.7024332588126
 51
299.702433258919
  0
ARC
  5
148
330
1F
100
AcDbEntity
  8
000 Kataster
  6
Continuous
 62
     7
370
    13
100
AcDbCircle
 10
-5.87760730119156
 20
3.815217153978464
 30
0.0
 40
0.00049999999995
100
AcDbArc
 50
180.0
 51
270.0
  0
ARC
  5
149
330
1F
100
AcDbEntity
  8
000 Kataster
  6
Continuous
 62
     7
370
    13
100
AcDbCircle
 10
-5.876107301191711
 20
3.815834959783339
 30
0.0
 40
0.00049999999995
100
AcDbArc
 50
92.99999999997175
 51
180.0
  0
ARC
  5
14A
330
1F
100
AcDbEntity
  8
000 Kataster
  6
Continuous
 62
     7
370
    13
100
AcDbCircle
 10
-5.884180172841003
 20
3.802785619321912
 30
0.0
 40
0.0003820732366786
100
AcDbArc
 50
119.7024332589239
 51
284.7024332587687
  0
ARC
  5
14B
330
1F
100
AcDbEntity
  8
000 Kataster
  6
Continuous
 62
     7
370
    13
100
AcDbCircle
 10
-5.854107301193912
 20
3.825733490483423
 30
0.0
 40
0.00049999999995
100
AcDbArc
 50
0.0
 51
74.99999999983379
  0
ARC
  5
14C
330
1F
100
AcDbEntity
  8
000 Kataster
  6
Continuous
 62
     7
370
    13
100
AcDbCircle
 10
-5.881955867129266
 20
3.804008100430175
 30
0.0
 40
0.0009999999999999
100
AcDbArc
 50
284.7024332589945
 51
359.7024332589406
  0
ARC
  5
14D
330
1F
100
AcDbEntity
  8
000 Kataster
  6
Continuous
 62
     7
370
    25
100
AcDbCircle
 10
-5.827107301194111
 20
3.814717153978664
 30
0.0
 40
0.0009999999999999
100
AcDbArc
 50
90.0
 51
180.0
  0
ARC
  5
14E
330
1F
100
AcDbEntity
  8
000 Kataster
  6
Continuous
 62
     7
370
    25
100
AcDbCircle
 10
-5.818607301191511
 20
3.809217153978664
 30
0.0
 40
0.0015000000000001
100
AcDbArc
 50
180.0
 51
270.0
  0
ARC
  5
14F
330
1F
100
AcDbEntity
  8
000 Kataster
  6
Continuous
 62
     7
370
    13
100
AcDbCircle
 10
-5.857677381631895
 20
3.817501791581962
 30
0.0
 40
0.00019999999998
100
AcDbArc
 50
227.9999999999218
 51
272.9999999998781
  0
ARC
  5
150
330
1F
100
AcDbEntity
  8
000 Kataster
  6
Continuous
 62
     7
370
    13
100
AcDbCircle
 10
-5.85641049109408
 20
3.817568186501644
 30
0.0
 40
0.00019999999998
100
AcDbArc
 50
272.9999999998647
 51
317.9999999999218
  0
ARC
  5
151
330
1F
100
AcDbEntity
  8
000 Kataster
  6
Continuous
 62
     7
370
    13
100
AcDbCircle
 10
-5.855940210279243
 20
3.817492695640198
 30
0.0
 40
0.0001999999999804
100
AcDbArc
 50
48.00000000009211
 51
137.9999999999219
  0
ARC
  5
152
330
1F
100
AcDbEntity
  8
000 Kataster
  6
Continuous
 62
     7
370
    13
100
AcDbCircle
 10
-5.855480396655654
 20
3.817616930685685
 30
0.0
 40
0.00019999999998
100
AcDbArc
 50
228.0000000000921
 51
272.9999999998647
  0
ARC
  5
153
330
1F
100
AcDbEntity
  8
000 Kataster
  6
Continuous
 62
     7
370
    13
100
AcDbCircle
 10
-5.85390730119393
 20
3.816998412483306
 30
0.0
 40
0.00049999999995
100
AcDbArc
 50
0.0
 51
93.00000000017504
  0
ARC
  5
154
330
1F
100
AcDbEntity
  8
000 Kataster
  6
Continuous
 62
     7
370
    13
100
AcDbCircle
 10
-5.853907301193932
 20
3.814997997149448
 30
0.0
 40
0.00049999999995
100
AcDbArc
 50
285.0000000001399
 51
0.0
  0
ARC
  5
155
330
1F
100
AcDbEntity
  8
000 Kataster
  6
Continuous
 62
     7
370
    13
100
AcDbCircle
 10
-5.854807301193841
 20
3.813721566695977
 30
0.0
 40
0.00049999999995
100
AcDbArc
 50
104.9999999999433
 51
180.0
  0
ARC
  5
156
330
1F
100
AcDbEntity
  8
000 Kataster
  6
Continuous
 62
     7
370
    13
100
AcDbCircle
 10
-5.855107301193812
 20
3.813417153978644
 30
0.0
 40
0.00019999999998
100
AcDbArc
 50
180.0
 51
270.0
  0
ARC
  5
157
330
1F
100
AcDbEntity
  8
000 Kataster
  6
Continuous
 62
     7
370
    13
100
AcDbCircle
 10
-5.853021444036873
 20
3.813717153978614
 30
0.0
 40
0.00049999999995
100
AcDbArc
 50
270.0
 51
315.5729959991032
  0
ARC
  5
158
330
1F
100
AcDbEntity
  8
000 Kataster
  6
Continuous
 62
     7
370
    13
100
AcDbCircle
 10
-5.85230730119409
 20
3.813017153978684
 30
0.0
 40
0.00049999999995
100
AcDbArc
 50
329.9999999998869
 51
135.5729959993184
  0
ARC
  5
159
330
1F
100
AcDbEntity
  8
000 Kataster
  6
Continuous
 62
     7
370
    13
100
AcDbCircle
 10
-5.851607301194161
 20
3.812229589544061
 30
0.0
 40
0.0004999999999495
100
AcDbArc
 50
149.9999999999887
 51
180.0
  0
ARC
  5
15A
330
1F
100
AcDbEntity
  8
000 Kataster
  6
Continuous
 62
     7
370
    13
100
AcDbCircle
 10
-5.85110730119421
 20
3.811284141276965
 30
0.0
 40
0.0009999999999
100
AcDbArc
 50
180.0
 51
209.9999999999672
  0
ARC
  5
15B
330
1F
100
AcDbEntity
  8
000 Kataster
  6
Continuous
 62
     7
370
    13
100
AcDbCircle
 10
-5.852357301194086
 20
3.80944920478661
 30
0.0
 40
0.0009999999999
100
AcDbArc
 50
0.0
 51
29.99999999996718
  0
ARC
  5
15C
330
1F
100
AcDbEntity
  8
000 Kataster
  6
Continuous
 62
     7
370
    13
100
AcDbCircle
 10
-5.851857301194135
 20
3.807201276897541
 30
0.0
 40
0.0004999999999495
100
AcDbArc
 50
284.4775121858251
 51
0.0
  0
ARC
  5
15D
330
1F
100
AcDbEntity
  8
000 Kataster
  6
Continuous
 62
     7
370
    13
100
AcDbCircle
 10
-5.851607301194161
 20
3.806233031061087
 30
0.0
 40
0.00049999999995
100
AcDbArc
 50
104.4775121859968
 51
180.0
  0
ARC
  5
15E
330
1F
100
AcDbEntity
  8
000 Kataster
  6
Continuous
 62
     7
370
    13
100
AcDbCircle
 10
-5.85110730119421
 20
3.804985103171918
 30
0.0
 40
0.0009999999999
100
AcDbArc
 50
180.0
 51
209.9999999999672
  0
ARC
  5
15F
330
1F
100
AcDbEntity
  8
000 Kataster
  6
Continuous
 62
     7
370
    13
100
AcDbCircle
 10
-5.850375250386715
 20
3.803717153979614
 30
0.0
 40
0.0009999999999004
100
AcDbArc
 50
210.000000000018
 51
270.0
  0
ARC
  5
160
330
1F
100
AcDbEntity
  8
000 Kataster
  6
Continuous
 62
     7
370
    13
100
AcDbCircle
 10
-5.849419736759678
 20
3.803717153979614
 30
0.0
 40
0.0009999999999
100
AcDbArc
 50
270.0
 51
330.0000000000328
  0
ARC
  5
161
330
1F
100
AcDbEntity
  8
000 Kataster
  6
Continuous
 62
     7
370
    13
100
AcDbCircle
 10
-5.848207301194501
 20
3.804417153979544
 30
0.0
 40
0.0002999999999695
100
AcDbArc
 50
330.0000000000723
 51
100.0000000000494
  0
ARC
  5
162
330
1F
100
AcDbEntity
  8
000 Kataster
  6
Continuous
 62
     7
370
    13
100
AcDbCircle
 10
-5.84858504093229
 20
3.805162889561513
 30
0.0
 40
0.00049999999995
100
AcDbArc
 50
150.0000000000769
 51
279.999999999843
  0
ARC
  5
163
330
1F
100
AcDbEntity
  8
000 Kataster
  6
Continuous
 62
     7
370
    13
100
AcDbCircle
 10
-5.848207301194501
 20
3.807417153979245
 30
0.0
 40
0.00029999999997
100
AcDbArc
 50
329.9999999999254
 51
100.0000000000494
  0
ARC
  5
164
330
1F
100
AcDbEntity
  8
000 Kataster
  6
Continuous
 62
     7
370
    13
100
AcDbCircle
 10
-5.84858504093229
 20
3.808162889561213
 30
0.0
 40
0.00049999999995
100
AcDbArc
 50
150.0000000000769
 51
279.9999999998606
  0
ARC
  5
165
330
1F
100
AcDbEntity
  8
000 Kataster
  6
Continuous
 62
     7
370
    13
100
AcDbCircle
 10
-5.848207301194501
 20
3.810417153978944
 30
0.0
 40
0.00029999999997
100
AcDbArc
 50
329.9999999999254
 51
100.0000000000494
  0
ARC
  5
166
330
1F
100
AcDbEntity
  8
000 Kataster
  6
Continuous
 62
     7
370
    13
100
AcDbCircle
 10
-5.84858504093229
 20
3.811162889560913
 30
0.0
 40
0.00049999999995
100
AcDbArc
 50
150.0000000000769
 51
279.9999999998606
  0
ARC
  5
167
330
1F
100
AcDbEntity
  8
000 Kataster
  6
Continuous
 62
     7
370
    13
100
AcDbCircle
 10
-5.84890730119443
 20
3.812604718413427
 30
0.0
 40
0.0004999999999495
100
AcDbArc
 50
329.9999999999751
 51
0.0
  0
ARC
  5
168
330
1F
100
AcDbEntity
  8
000 Kataster
  6
Continuous
 62
     7
370
    13
100
AcDbCircle
 10
-5.84890730119443
 20
3.813717153978614
 30
0.0
 40
0.00049999999995
100
AcDbArc
 50
0.0
 51
90.0
  0
ARC
  5
169
330
1F
100
AcDbEntity
  8
000 Kataster
  6
Continuous
 62
     7
370
    13
100
AcDbCircle
 10
-5.850043330960052
 20
3.815217153978464
 30
0.0
 40
0.0009999999999004
100
AcDbArc
 50
230.0000000000597
 51
270.0
  0
ARC
  5
16A
330
1F
100
AcDbEntity
  8
000 Kataster
  6
Continuous
 62
     7
370
    13
100
AcDbCircle
 10
-5.85090730119423
 20
3.815942111083312
 30
0.0
 40
0.0009999999999
100
AcDbArc
 50
180.0
 51
229.9999999999491
  0
ARC
  5
16B
330
1F
100
AcDbEntity
  8
000 Kataster
  6
Continuous
 62
     7
370
    13
100
AcDbCircle
 10
-5.86260730119306
 20
3.816542464803589
 30
0.0
 40
0.00049999999995
100
AcDbArc
 50
0.0
 51
92.99999999997175
  0
ARC
  5
16C
330
1F
100
AcDbEntity
  8
000 Kataster
  6
Continuous
 62
     7
370
    13
100
AcDbCircle
 10
-5.86260730119306
 20
3.815498408590516
 30
0.0
 40
0.00049999999995
100
AcDbArc
 50
349.9999999999566
 51
0.0
  0
ARC
  5
16D
330
1F
100
AcDbEntity
  8
000 Kataster
  6
Continuous
 62
     7
370
    13
100
AcDbCircle
 10
-5.865414322752127
 20
3.808217153979164
 30
0.0
 40
0.0019999999998004
100
AcDbArc
 50
270.0
 51
349.9999999999816
  0
ARC
  5
16E
330
1F
100
AcDbEntity
  8
000 Kataster
  6
Continuous
 62
     7
370
    13
100
AcDbCircle
 10
-5.868398933334904
 20
3.805717153979414
 30
0.0
 40
0.00049999999995
100
AcDbArc
 50
90.0
 51
112.0000000000333
  0
ARC
  5
16F
330
1F
100
AcDbEntity
  8
000 Kataster
  6
Continuous
 62
     7
370
    13
100
AcDbCircle
 10
-5.87760730119156
 20
3.801996731868187
 30
0.0
 40
0.00049999999995
100
AcDbArc
 50
112.0000000000333
 51
180.0
  0
ARC
  5
170
330
1F
100
AcDbEntity
  8
000 Kataster
  6
Continuous
 62
     7
370
    13
100
AcDbCircle
 10
-5.87760730119151
 20
3.801217153979884
 30
0.0
 40
0.0004999999999997
100
AcDbArc
 50
180.0
 51
270.0
  0
ARC
  5
171
330
1F
100
AcDbEntity
  8
000 Kataster
  6
Continuous
 62
     7
370
    13
100
AcDbCircle
 10
-5.876101740298383
 20
3.801217153979884
 30
0.0
 40
0.0005000000000006
100
AcDbArc
 50
270.0
 51
9.690350608028066
  0
ARC
  5
172
330
1F
100
AcDbEntity
  8
000 Kataster
  6
Continuous
 62
     7
370
    13
100
AcDbCircle
 10
-5.87511600846741
 20
3.801385477351123
 30
0.0
 40
0.0004999999999495
100
AcDbArc
 50
112.0000000000714
 51
189.6903506080845
  0
ARC
  5
173
330
1F
100
AcDbEntity
  8
000 Kataster
  6
Continuous
 62
     7
370
    13
100
AcDbCircle
 10
-5.868107362871227
 20
3.804217153979565
 30
0.0
 40
0.0004999999999495
100
AcDbArc
 50
90.0
 51
112.0000000000714
  0
ARC
  5
174
330
1F
100
AcDbEntity
  8
000 Kataster
  6
Continuous
 62
     7
370
    13
100
AcDbCircle
 10
-5.864808268787455
 20
3.806717153979314
 30
0.0
 40
0.0019999999997999
100
AcDbArc
 50
270.0
 51
305.0000000000394
  0
ARC
  5
175
330
1F
100
AcDbEntity
  8
000 Kataster
  6
Continuous
 62
     7
370
    13
100
AcDbCircle
 10
-5.861107301193211
 20
3.807477437504514
 30
0.0
 40
0.00049999999995
100
AcDbArc
 50
305.0000000000957
 51
0.0
  0
ARC
  5
176
330
1F
100
AcDbEntity
  8
000 Kataster
  6
Continuous
 62
     7
370
    13
100
AcDbCircle
 10
-5.861107301193211
 20
3.808717153979114
 30
0.0
 40
0.00049999999995
100
AcDbArc
 50
0.0
 51
90.0
  0
ARC
  5
177
330
1F
100
AcDbEntity
  8
000 Kataster
  6
Continuous
 62
     7
370
    13
100
AcDbCircle
 10
-5.8612073011932
 20
3.809617153979024
 30
0.0
 40
0.00039999999996
100
AcDbArc
 50
170.0000000000907
 51
270.0
  0
ARC
  5
178
330
1F
100
AcDbEntity
  8
000 Kataster
  6
Continuous
 62
     7
370
    13
100
AcDbCircle
 10
-5.861107301193211
 20
3.81536717559524
 30
0.0
 40
0.0004999999999504
100
AcDbArc
 50
349.9999999999566
 51
0.0
  0
ARC
  5
179
330
1F
100
AcDbEntity
  8
000 Kataster
  6
Continuous
 62
     7
370
    13
100
AcDbCircle
 10
-5.869559331745739
 20
3.807570988734827
 30
0.0
 40
0.0005000000000002
100
AcDbArc
 50
299.7024332589822
 51
104.7024332587846
  0
ARC
  5
17A
330
1F
100
AcDbEntity
  8
000 Kataster
  6
Continuous
 62
     7
370
    13
100
AcDbCircle
 10
-5.871035503968758
 20
3.805936154011351
 30
0.0
 40
0.0003820732366786
100
AcDbArc
 50
119.7024332589239
 51
284.7024332587687
  0
ARC
  5
17B
330
1F
100
AcDbEntity
  8
000 Kataster
  6
Continuous
 62
     7
370
    13
100
AcDbCircle
 10
-5.868811198257021
 20
3.807158635119614
 30
0.0
 40
0.0009999999999999
100
AcDbArc
 50
284.7024332589945
 51
359.7024332589406
  0
ARC
  5
17C
330
1F
100
AcDbEntity
  8
000 Kataster
  6
Continuous
 62
     7
370
    13
100
AcDbCircle
 10
-5.864047892865544
 20
3.807769636647401
 30
0.0
 40
0.0003820732366786
100
AcDbArc
 50
284.7024332590432
 51
89.70243325887043
  0
ARC
  5
17D
330
1F
100
AcDbEntity
  8
000 Kataster
  6
Continuous
 62
     7
370
    13
100
AcDbCircle
 10
-5.866585856994481
 20
3.807742543483128
 30
0.0
 40
0.0009999999999999
100
AcDbArc
 50
209.7024332588907
 51
284.7024332588403
  0
ARC
  5
17E
330
1F
100
AcDbEntity
  8
000 Kataster
  6
Continuous
 62
     7
370
    13
100
AcDbCircle
 10
-5.865890971829865
 20
3.808676094727658
 30
0.0
 40
0.0005000000000002
100
AcDbArc
 50
90.29756674111029
 51
255.29756674092
  0
ARC
  5
17F
330
1F
100
AcDbEntity
  8
000 Kataster
  6
Continuous
 62
     7
370
    13
100
AcDbCircle
 10
-5.864095441294757
 20
3.809567505066862
 30
0.0
 40
0.0003820732366786
100
AcDbArc
 50
270.2975667411296
 51
75.2975667409568
  0
ARC
  5
180
330
1F
100
AcDbEntity
  8
000 Kataster
  6
Continuous
 62
     7
370
    13
100
AcDbCircle
 10
-5.866633405423695
 20
3.809594598231136
 30
0.0
 40
0.0009999999999999
100
AcDbArc
 50
75.2975667411597
 51
127.465852091642
  0
ARC
  5
181
330
1F
100
AcDbEntity
  8
000 Kataster
  6
Continuous
 62
     7
370
    13
100
AcDbCircle
 10
-5.867883012675284
 20
3.811263184275721
 30
0.0
 40
0.0010847521938103
100
AcDbArc
 50
231.2430790228751
 51
306.2430790227677
  0
LINE
  5
182
330
1F
100
AcDbEntity
  8
000 Kataster
  6
Continuous
 62
     7
370
    13
100
AcDbLine
 10
-6.063103939523739
 20
3.672805223748931
 30
0.0
 11
-6.063103939523739
 21
3.68880090758545
 31
0.0
  0
LINE
  5
183
330
1F
100
AcDbEntity
  8
000 Kataster
  6
Continuous
 62
     7
370
    13
100
AcDbLine
 10
-5.638103939523738
 20
3.68880090758545
 30
0.0
 11
-6.063103939523739
 21
3.68880090758545
 31
0.0
  0
LINE
  5
184
330
1F
100
AcDbEntity
  8
000 Kataster
  6
Continuous
 62
     7
370
    13
100
AcDbLine
 10
-6.063103939523739
 20
2.676805223748929
 30
0.0
 11
-6.063103939523739
 21
3.672805223748931
 31
0.0
  0
LINE
  5
185
330
1F
100
AcDbEntity
  8
000 Kataster
  6
Continuous
 62
     7
370
    13
100
AcDbLine
 10
-5.878107301191511
 20
3.91682733734703
 30
0.0
 11
-5.878107301191511
 21
4.167365471935974
 31
0.0
  0
LINE
  5
186
330
1F
100
AcDbEntity
  8
000 Kataster
  6
Continuous
 62
     7
370
    13
100
AcDbLine
 10
-5.868107265752705
 20
3.91682733734703
 30
0.0
 11
-5.868107265752705
 21
4.167365471935974
 31
0.0
  0
LINE
  5
187
330
1F
100
AcDbEntity
  8
000 Kataster
  6
Continuous
 62
     7
370
    13
100
AcDbLine
 10
-5.850107264048338
 20
3.91682733734703
 30
0.0
 11
-5.850107264048338
 21
4.167365471935974
 31
0.0
  0
LINE
  5
188
330
1F
100
AcDbEntity
  8
000 Kataster
  6
Continuous
 62
     7
370
    13
100
AcDbLine
 10
-5.846107264048339
 20
3.91682733734703
 30
0.0
 11
-5.846107264048339
 21
4.167365471935974
 31
0.0
  0
LINE
  5
189
330
1F
100
AcDbEntity
  8
000 Kataster
  6
Continuous
 62
     7
370
    13
100
AcDbLine
 10
-5.830107309048339
 20
3.91682733734703
 30
0.0
 11
-5.830107309048339
 21
4.167365471935974
 31
0.0
  0
LINE
  5
18A
330
1F
100
AcDbEntity
  8
000 Kataster
  6
Continuous
 62
     7
370
    13
100
AcDbLine
 10
-5.826107309048339
 20
3.91682733734703
 30
0.0
 11
-5.826107309048339
 21
4.167365471935974
 31
0.0
  0
LINE
  5
18B
330
1F
100
AcDbEntity
  8
000 Kataster
  6
Continuous
 62
     7
370
    13
100
AcDbLine
 10
-5.801107264256801
 20
3.91682733734703
 30
0.0
 11
-5.801107264256801
 21
4.167365471935974
 31
0.0
  0
LINE
  5
18C
330
1F
100
AcDbEntity
  8
000 Kataster
  6
Continuous
 62
     7
370
    35
100
AcDbLine
 10
-5.615493191216089
 20
3.698205768028306
 30
0.0
 11
-5.821107301194111
 21
3.698205768028305
 31
0.0
  0
LINE
  5
18D
330
1F
100
AcDbEntity
  8
000 Kataster
  6
Continuous
 62
     7
370
    13
100
AcDbLine
 10
-5.946788739127108
 20
4.167365471935974
 30
0.0
 11
-5.946788739127108
 21
3.802840610177546
 31
0.0
  0
LINE
  5
18E
330
1F
100
AcDbEntity
  8
000 Kataster
  6
Continuous
 62
     7
370
    13
100
AcDbLine
 10
-5.953788739127107
 20
4.167365471935974
 30
0.0
 11
-5.953788739127107
 21
3.777478403627407
 31
0.0
  0
LINE
  5
190
330
1F
100
AcDbEntity
  8
000 Kataster
  6
STRICHLINIE__LANG
 62
     7
370
    13
100
AcDbLine
 10
-6.063103939523737
 20
4.167365471935974
 30
0.0
 11
-6.063103939523737
 21
3.78995492205412
 31
0.0
  0
LINE
  5
191
330
1F
100
AcDbEntity
  8
000 Kataster
  6
Continuous
 62
     7
370
    13
100
AcDbLine
 10
-5.946788739127108
 20
4.167365471935974
 30
0.0
 11
-5.946788739127108
 21
3.802840610177546
 31
0.0
  0
LINE
  5
192
330
1F
100
AcDbEntity
  8
000 Kataster
  6
Continuous
 62
     7
370
    13
100
AcDbLine
 10
-5.953788739127107
 20
4.167365471935974
 30
0.0
 11
-5.953788739127107
 21
3.802840610177546
 31
0.0
  0
LINE
  5
193
330
1F
100
AcDbEntity
  8
000 Kataster
  6
Continuous
 62
     7
370
    13
100
AcDbLine
 10
-6.082694306705978
 20
3.68979312306813
 30
0.0
 11
-6.077170096639579
 21
3.695317333134529
 31
0.0
  0
LINE
  5
194
330
1F
100
AcDbEntity
  8
000 Kataster
  6
Continuous
 62
     7
370
    13
100
AcDbLine
 10
-6.084170096639578
 20
3.691954016049916
 30
0.0
 11
-6.084170096639578
 21
3.696707610882185
 31
0.0
  0
LINE
  5
196
330
1F
100
AcDbEntity
  8
000 Kataster
  6
Strich 2_1mm
 62
    12
420
 13959168
370
    13
100
AcDbLine
 10
-6.082573075209371
 20
2.299623888062122
 30
0.0
 11
-6.082573075209371
 21
3.688971557934629
 31
0.0
  0
LINE
  5
197
330
1F
100
AcDbEntity
  8
000 Kataster
  6
Continuous
 62
     7
370
    25
100
AcDbLine
 10
-6.118170096639579
 20
3.696793123068129
 30
0.0
 11
-6.118170096639579
 21
3.70679312306813
 31
0.0
  0
LINE
  5
198
330
1F
100
AcDbEntity
  8
000 Kataster
  6
Continuous
 62
     7
370
    25
100
AcDbLine
 10
-6.118170096639579
 20
3.70679312306813
 30
0.0
 11
-6.108170096639579
 21
3.70679312306813
 31
0.0
  0
LINE
  5
199
330
1F
100
AcDbEntity
  8
000 Kataster
  6
Continuous
 62
     7
370
    25
100
AcDbLine
 10
-6.108170096639579
 20
3.70679312306813
 30
0.0
 11
-6.108170096639579
 21
3.696793123068129
 31
0.0
  0
LINE
  5
19A
330
1F
100
AcDbEntity
  8
000 Kataster
  6
Continuous
 62
     7
370
    25
100
AcDbLine
 10
-6.13317009663958
 20
3.696793123068129
 30
0.0
 11
-6.118170096639579
 21
3.696793123068129
 31
0.0
  0
LINE
  5
19B
330
1F
100
AcDbEntity
  8
000 Kataster
  6
Continuous
 62
     7
370
    25
100
AcDbLine
 10
-5.889107301194111
 20
3.78679312306813
 30
0.0
 11
-5.909107301194111
 21
3.78679312306813
 31
0.0
  0
LINE
  5
19C
330
1F
100
AcDbEntity
  8
000 Kataster
  6
Continuous
 62
     7
370
    25
100
AcDbLine
 10
-5.909107301194111
 20
3.781468908304559
 30
0.0
 11
-5.909107301194111
 21
3.786793127054559
 31
0.0
  0
LINE
  5
19D
330
1F
100
AcDbEntity
  8
000 Kataster
  6
Continuous
 62
     7
370
    25
100
AcDbLine
 10
-5.889107301194111
 20
3.696793123068129
 30
0.0
 11
-5.889107301194111
 21
3.783205768028306
 31
0.0
  0
LINE
  5
19E
330
1F
100
AcDbEntity
  8
000 Kataster
  6
Continuous
 62
     7
370
    13
100
AcDbLine
 10
-6.13317009663958
 20
3.756793127054558
 30
0.0
 11
-6.103170096639579
 21
3.783205768028306
 31
0.0
  0
LINE
  5
19F
330
1F
100
AcDbEntity
  8
000 Kataster
  6
Continuous
 62
     7
370
    25
100
AcDbLine
 10
-6.13317009663958
 20
3.696793123068129
 30
0.0
 11
-6.13317009663958
 21
3.75679312306813
 31
0.0
  0
LINE
  5
1A0
330
1F
100
AcDbEntity
  8
000 Kataster
  6
Continuous
 62
     7
370
    25
100
AcDbLine
 10
-6.063170096639579
 20
3.696793127054558
 30
0.0
 11
-6.063170096639579
 21
3.751468420023308
 31
0.0
  0
LINE
  5
1A1
330
1F
100
AcDbEntity
  8
000 Kataster
  6
Continuous
 62
     7
370
    25
100
AcDbLine
 10
-5.889107301194111
 20
3.768112705081081
 30
0.0
 11
-6.063170096639579
 21
3.751468420023308
 31
0.0
  0
LINE
  5
1A2
330
1F
100
AcDbEntity
  8
000 Kataster
  6
Continuous
 62
     7
370
    13
100
AcDbLine
 10
-5.943171912595892
 20
3.777478403627407
 30
0.0
 11
-5.957279912133126
 21
3.777478403627407
 31
0.0
  0
LINE
  5
1A3
330
1F
100
AcDbEntity
  8
000 Kataster
  6
Continuous
 62
     7
370
    13
100
AcDbLine
 10
-5.919289918381611
 20
3.783205768028306
 30
0.0
 11
-5.943171912595892
 21
3.783205768028306
 31
0.0
  0
LINE
  5
1A4
330
1F
100
AcDbEntity
  8
000 Kataster
  6
Continuous
 62
     7
370
    13
100
AcDbLine
 10
-5.957279912133126
 20
3.783205768028306
 30
0.0
 11
-6.103170096639579
 21
3.783205768028306
 31
0.0
  0
LINE
  5
1A6
330
1F
100
AcDbEntity
  8
000 Kataster
  6
Dachwasserlinie
 62
     7
370
    13
100
AcDbLine
 10
-5.943171912595892
 20
3.783205768028306
 30
0.0
 11
-5.957279912133126
 21
3.783205768028306
 31
0.0
  0
LINE
  5
1A7
330
1F
100
AcDbEntity
  8
000 Kataster
  6
Continuous
 62
     7
370
    13
100
AcDbLine
 10
-5.879107301194111
 20
3.782322430116468
 30
0.0
 11
-5.889107301194111
 21
3.782322430116468
 31
0.0
  0
LINE
  5
1A8
330
1F
100
AcDbEntity
  8
000 Kataster
  6
Continuous
 62
     7
370
    13
100
AcDbLine
 10
-5.889107301194111
 20
3.768112701094653
 30
0.0
 11
-5.879107301194111
 21
3.768112701094653
 31
0.0
  0
LINE
  5
1A9
330
1F
100
AcDbEntity
  8
000 Kataster
  6
Continuous
 62
     7
370
    25
100
AcDbLine
 10
-5.889107301194111
 20
3.774002640722339
 30
0.0
 11
-5.889107301194111
 21
3.764525346054828
 31
0.0
  0
LINE
  5
1AA
330
1F
100
AcDbEntity
  8
000 Kataster
  6
Continuous
 62
     7
370
    25
100
AcDbLine
 10
-5.889107301194111
 20
3.768112701094653
 30
0.0
 11
-5.889107301194111
 21
3.78679312306813
 31
0.0
  0
LINE
  5
1AB
330
1F
100
AcDbEntity
  8
000 Kataster
  6
Continuous
 62
     7
370
    25
100
AcDbLine
 10
-5.879107301194111
 20
3.702202698370703
 30
0.0
 11
-5.879107301194111
 21
3.791748248497055
 31
0.0
  0
LINE
  5
1AC
330
1F
100
AcDbEntity
  8
000 Kataster
  6
Continuous
 62
     7
370
    25
100
AcDbLine
 10
-5.91377234025661
 20
3.776480138773308
 30
0.0
 11
-6.13317009663958
 21
3.756793127054558
 31
0.0
  0
LINE
  5
1AD
330
1F
100
AcDbEntity
  8
000 Kataster
  6
Continuous
 62
     7
370
    25
100
AcDbLine
 10
-6.108170096639579
 20
3.696793123068129
 30
0.0
 11
-5.889107301194111
 21
3.696793123068129
 31
0.0
  0
LINE
  5
1AE
330
1F
100
AcDbEntity
  8
000 Kataster
  6
Continuous
 62
     7
370
    13
100
AcDbLine
 10
-6.086655110041899
 20
3.783205768028306
 30
0.0
 11
-6.086655110041899
 21
4.040859792834172
 31
0.0
  0
LINE
  5
1AF
330
1F
100
AcDbEntity
  8
000 Kataster
  6
Continuous
 62
     7
370
    13
100
AcDbLine
 10
-6.077170096639579
 20
3.695317333134529
 30
0.0
 11
-6.077170096639579
 21
3.696793123068129
 31
0.0
  0
LINE
  5
1B0
330
1F
100
AcDbEntity
  8
000 Kataster
  6
Continuous
 62
     7
370
    13
100
AcDbLine
 10
-6.082694306705978
 20
3.68979312306813
 30
0.0
 11
-6.084170096639578
 21
3.68979312306813
 31
0.0
  0
LINE
  5
1B1
330
1F
100
AcDbEntity
  8
000 Kataster
  6
Continuous
 62
     7
370
    35
100
AcDbLine
 10
-5.576103939523735
 20
3.723205768028305
 30
0.0
 11
-5.821107301194111
 21
3.723205768028305
 31
0.0
  0
LINE
  5
1B2
330
1F
100
AcDbEntity
  8
000 Kataster
  6
Continuous
 62
     7
370
    13
100
AcDbLine
 10
-5.867811211743313
 20
3.807153441623585
 30
0.0
 11
-5.867807511342892
 21
3.807865938657283
 31
0.0
  0
LINE
  5
1B3
330
1F
100
AcDbEntity
  8
000 Kataster
  6
Continuous
 62
     7
370
    25
100
AcDbLine
 10
-5.821107301194111
 20
3.702202698370703
 30
0.0
 11
-5.879107301194111
 21
3.702202698370703
 31
0.0
  0
LINE
  5
1B4
330
1F
100
AcDbEntity
  8
000 Kataster
  6
Continuous
 62
     7
370
    35
100
AcDbLine
 10
-5.821107301194111
 20
3.698205768028305
 30
0.0
 11
-5.821107301194111
 21
3.723205768028305
 31
0.0
  0
ARC
  5
1B5
330
1F
100
AcDbEntity
  8
000 Kataster
  6
Continuous
 62
     7
370
    25
100
AcDbCircle
 10
-5.914107301194111
 20
3.781468908304559
 30
0.0
 40
0.0049999999999999
100
AcDbArc
 50
273.8412717517086
 51
359.9999826913298
  0
ARC
  5
1B6
330
1F
100
AcDbEntity
  8
000 Kataster
  6
Continuous
 62
     7
370
    13
100
AcDbCircle
 10
-5.887990907803706
 20
3.795606302528005
 30
0.0
 40
0.0088836066095981
100
AcDbArc
 50
262.7806123790268
 51
0.0
  0
ARC
  5
1B7
330
1F
100
AcDbEntity
  8
000 Kataster
  6
Continuous
 62
     7
370
    13
100
AcDbCircle
 10
-5.865890971829865
 20
3.808676094727658
 30
0.0
 40
0.0004999999999998
100
AcDbArc
 50
90.29756674111029
 51
255.2975667409071
  0
HATCH
  5
1B8
330
1F
100
AcDbEntity
  8
000 Kataster
  6
Continuous
 62
   251
420
  6250335
370
    18
100
AcDbHatch
 10
0.0
 20
0.0
 30
0.0
210
0.0
220
0.0
230
1.0
  2
_1_Backstein_1_0_mm_0002
 70
     0
 71
     1
 91
        1
 92
        3
 72
     0
 73
     1
 93
        5
 10
-6.063103939523739
 20
2.692800907585449
 10
-5.638103939523738
 20
2.692800907585449
 10
-5.638103939523738
 20
3.68880090758545
 10
-5.856839992306103
 20
3.68880090758545
 10
-6.063103939523739
 20
3.68880090758545
 97
        1
330
1B9
 75
     0
 76
     2
 52
0.0
 41
1.0
 77
     0
 78
     1
 53
44.99999783714449
 43
0.0
 44
0.0
 45
-0.0056568540359521
 46
0.0056568544630327
 79
     0
 98
        0
  0
LWPOLYLINE
  5
1B9
102
{ACAD_REACTORS
330
1B8
102
}
330
1F
100
AcDbEntity
  8
000 Kataster
  6
Continuous
 62
     7
370
    60
100
AcDbPolyline
 90
        5
 70
   129
 43
0.0
 10
-6.063103939523739
 20
2.692800907585449
 10
-5.638103939523738
 20
2.692800907585449
 10
-5.638103939523738
 20
3.68880090758545
 10
-5.856839992306103
 20
3.68880090758545
 10
-6.063103939523739
 20
3.68880090758545
  0
HATCH
  5
1BA
330
1F
100
AcDbEntity
  8
000 Kataster
  6
Continuous
 62
    31
420
 16106877
370
    20
100
AcDbHatch
 10
0.0
 20
0.0
 30
0.0
210
0.0
220
0.0
230
1.0
  2
SOLID
 70
     1
 71
     1
 91
        1
 92
        3
 72
     0
 73
     1
 93
        4
 10
-3.597976398628397
 20
2.601267121494137
 10
-3.621027584137561
 20
2.601267121494137
 10
-3.621027584137561
 20
1.305201842386917
 10
-3.597976398628397
 20
1.305201842386917
 97
        1
330
1BB
 75
     0
 76
     1
 98
        0
  0
LWPOLYLINE
  5
1BB
102
{ACAD_REACTORS
330
1BA
102
}
330
1F
100
AcDbEntity
  8
000 Kataster
  6
Continuous
 62
     7
370
     9
100
AcDbPolyline
 90
        4
 70
   129
 43
0.0
 10
-3.597976398628397
 20
2.601267121494137
 10
-3.621027584137561
 20
2.601267121494137
 10
-3.621027584137561
 20
1.305201842386917
 10
-3.597976398628397
 20
1.305201842386917
  0
LINE
  5
1BC
330
1F
100
AcDbEntity
  8
000 Kataster
  6
Continuous
 62
     7
370
     9
100
AcDbLine
 10
-3.621027584137561
 20
2.601267121494137
 30
0.0
 11
-3.621027584137561
 21
1.305201842386917
 31
0.0
  0
HATCH
  5
1BD
330
1F
100
AcDbEntity
  8
0
  6
Continuous
 62
    42
420
 15244032
370
    35
100
AcDbHatch
 10
0.0
 20
0.0
 30
0.0
210
0.0
220
0.0
230
1.0
  2
SOLID
 70
     1
 71
     1
 91
        1
 92
        3
 72
     0
 73
     1
 93
        4
 10
-3.172976400563179
 20
2.602521200455884
 10
-3.16297640056319
 20
2.602521200455892
 10
-3.16297640056319
 20
1.56511362358263
 10
-3.172976400563179
 20
1.56511362358263
 97
        1
330
1BE
 75
     0
 76
     1
 98
        0
  0
LWPOLYLINE
  5
1BE
102
{ACAD_REACTORS
330
1BD
102
}
330
1F
100
AcDbEntity
  8
0
  6
Continuous
 62
     7
370
     9
100
AcDbPolyline
 90
        4
 70
   129
 43
0.0
 10
-3.172976400563179
 20
2.602521200455884
 10
-3.16297640056319
 20
2.602521200455892
 10
-3.16297640056319
 20
1.56511362358263
 10
-3.172976400563179
 20
1.56511362358263
  0
LINE
  5
1BF
330
1F
100
AcDbEntity
  8
0
  6
Continuous
 62
     7
370
     9
100
AcDbLine
 10
-3.16297641365526
 20
2.60252121041133
 30
0.0
 11
-3.16297641365526
 21
1.565113636435918
 31
0.0
  0
HATCH
  5
1C0
330
1F
100
AcDbEntity
  8
0
  6
Continuous
 62
     7
370
     9
100
AcDbHatch
 10
0.0
 20
0.0
 30
0.0
210
0.0
220
0.0
230
1.0
  2
_1_Backstein_3_0_mm_0001
 70
     0
 71
     1
 91
        1
 92
        3
 72
     0
 73
     1
 93
        5
 10
-3.59797640056318
 20
1.586120656176508
 10
-3.172976400563179
 20
1.586120656176508
 10
-3.172976400563179
 20
2.58212065617651
 10
-3.391712453345544
 20
2.58212065617651
 10
-3.59797640056318
 20
2.58212065617651
 97
        1
330
1C1
 75
     0
 76
     2
 52
0.0
 41
1.0
 77
     0
 78
     1
 53
44.9999978371445
 43
-3.404579689442428
 44
2.138021843898354
 45
-0.0169705621078562
 46
0.016970563389098
 79
     0
 98
        0
  0
LWPOLYLINE
  5
1C1
102
{ACAD_REACTORS
330
1C0
102
}
330
1F
100
AcDbEntity
  8
0
  6
Continuous
 62
     7
370
     9
100
AcDbPolyline
 90
        5
 70
   129
 43
0.0
 10
-3.59797640056318
 20
1.586120656176508
 10
-3.172976400563179
 20
1.586120656176508
 10
-3.172976400563179
 20
2.58212065617651
 10
-3.391712453345544
 20
2.58212065617651
 10
-3.59797640056318
 20
2.58212065617651
  0
LINE
  5
1C2
330
1F
100
AcDbEntity
  8
000 Kataster
  6
Continuous
 62
     7
370
     9
100
AcDbLine
 10
-3.172976401986557
 20
1.586120662601039
 30
0.0
 11
-3.172976401986557
 21
2.582120654399958
 31
0.0
  0
LINE
  5
1C3
330
1F
100
AcDbEntity
  8
000 Kataster
  6
Continuous
 62
     7
370
     9
100
AcDbLine
 10
-3.172976401986557
 20
2.582120654399958
 30
0.0
 11
-3.391712457035752
 21
2.582120654399958
 31
0.0
  0
LINE
  5
1C4
330
1F
100
AcDbEntity
  8
000 Kataster
  6
Continuous
 62
     7
370
     9
100
AcDbLine
 10
-3.391712457035752
 20
2.582120654399958
 30
0.0
 11
-3.597976398628397
 21
2.582120654399958
 31
0.0
  0
LINE
  5
1C5
330
1F
100
AcDbEntity
  8
000 Kataster
  6
Continuous
 62
     7
370
     9
100
AcDbLine
 10
-3.597976398628397
 20
2.582120654399958
 30
0.0
 11
-3.597976398628397
 21
1.586120662601039
 31
0.0
  0
HATCH
  5
1C6
330
1F
100
AcDbEntity
  8
0
  6
Continuous
 62
     7
370
     9
100
AcDbHatch
 10
0.0
 20
0.0
 30
0.0
210
0.0
220
0.0
230
1.0
  2
__Mörtel__0001
 70
     0
 71
     0
 91
        1
 92
        3
 72
     0
 73
     1
 93
        4
 10
-3.172976400563179
 20
2.58212065617651
 10
-3.172976400563179
 20
2.602521200455884
 10
-3.597766664245601
 20
2.602521200455885
 10
-3.597766664245601
 20
2.58212065617651
 97
        0
 75
     0
 76
     2
 52
0.0
 41
1.0
 77
     0
 78
     2
 53
44.99999999999999
 43
-3.38537153240439
 44
2.612320928316197
 45
-0.0063639610306789
 46
0.0063639610306789
 79
     4
 49
0.0
 49
-0.006
 49
0.0
 49
-0.009
 53
110.0
 43
-3.36537153240439
 44
2.612320928316197
 45
0.0084572335870732
 46
0.003078181289931
 79
     4
 49
0.0
 49
-0.0044
 49
0.0
 49
-0.0076
 98
        0
  0
LINE
  5
1C7
330
1F
100
AcDbEntity
  8
0
  6
Continuous
 62
     7
370
     9
100
AcDbLine
 10
-3.172976401986557
 20
2.582120654399958
 30
0.0
 11
-3.172976401986557
 21
2.60252121041133
 31
0.0
  0
LINE
  5
1C8
330
1F
100
AcDbEntity
  8
0
  6
Continuous
 62
     7
370
     9
100
AcDbLine
 10
-3.172976401986557
 20
2.60252121041133
 30
0.0
 11
-3.597766651768707
 21
2.60252121041133
 31
0.0
  0
LINE
  5
1C9
330
1F
100
AcDbEntity
  8
0
  6
Continuous
 62
     7
370
     9
100
AcDbLine
 10
-3.597766651768707
 20
2.60252121041133
 30
0.0
 11
-3.597766651768707
 21
2.582120654399958
 31
0.0
  0
LINE
  5
1CA
330
1F
100
AcDbEntity
  8
0
  6
Continuous
 62
     7
370
     9
100
AcDbLine
 10
-3.597766651768707
 20
2.582120654399958
 30
0.0
 11
-3.172976401986557
 21
2.582120654399958
 31
0.0
  0
HATCH
  5
1CB
330
1F
100
AcDbEntity
  8
0
  6
Continuous
 62
     7
370
     9
100
AcDbHatch
 10
0.0
 20
0.0
 30
0.0
210
0.0
220
0.0
230
1.0
  2
__Holz__massiv_0001
 70
     0
 71
     0
 91
        1
 92
        3
 72
     0
 73
     1
 93
        9
 10
-3.160976400563175
 20
2.637521200455884
 10
-3.360979762233551
 20
2.637521200455884
 10
-3.360979762233551
 20
2.627521200455884
 10
-3.355979762233552
 20
2.627521200455884
 10
-3.355979762233552
 20
2.612521200455884
 10
-3.15036565225553
 20
2.612521200455884
 10
-3.15036565225553
 20
2.602521200455885
 10
-3.110976400563176
 20
2.602521200455885
 10
-3.110976400563176
 20
2.637521200455884
 97
        0
 75
     0
 76
     2
 52
0.0
 41
1.0
 77
     0
 78
     1
 53
65.0
 43
-3.404579689442428
 44
2.138021843898354
 45
-0.0072504622962932
 46
0.0033809460939256
 79
     0
 98
        0
  0
LINE
  5
1CC
330
1F
100
AcDbEntity
  8
000 Kataster
  6
Continuous
 62
     7
370
     9
100
AcDbLine
 10
-3.597976398628397
 20
1.386493385231835
 30
0.0
 11
-3.598042570779112
 21
2.60252121041133
 31
0.0
  0
LINE
  5
1CD
330
1F
100
AcDbEntity
  8
000 Kataster
  6
Continuous
 62
     7
370
     9
100
AcDbLine
 10
-3.621027584137561
 20
2.167818845311296
 30
0.0
 11
-3.621027584137561
 21
2.601267120089225
 31
0.0
  0
LINE
  5
1CE
330
1F
100
AcDbEntity
  8
0
  6
Continuous
 62
     7
370
     9
100
AcDbLine
 10
-3.423979754058936
 20
2.60252121041133
 30
0.0
 11
-3.423979754058936
 21
2.613506068893915
 31
0.0
  0
LINE
  5
1CF
330
1F
100
AcDbEntity
  8
0
  6
Continuous
 62
     7
370
     9
100
AcDbLine
 10
-3.423979754058936
 20
2.613506068893915
 30
0.0
 11
-3.455057303395716
 21
2.613506068893915
 31
0.0
  0
LINE
  5
1D0
330
1F
100
AcDbEntity
  8
0
  6
Continuous
 62
     7
370
     9
100
AcDbLine
 10
-3.455057303395716
 20
2.613506068893915
 30
0.0
 11
-3.455057303395716
 21
2.604521208077589
 31
0.0
  0
LINE
  5
1D1
330
1F
100
AcDbEntity
  8
0
  6
Continuous
 62
     7
370
     9
100
AcDbLine
 10
-3.455057303395716
 20
2.604521208077589
 30
0.0
 11
-3.598042570779112
 21
2.604521208077589
 31
0.0
  0
LINE
  5
1D2
330
1F
100
AcDbEntity
  8
0
  6
Continuous
 62
     7
370
     9
100
AcDbLine
 10
-3.598042570779112
 20
2.604521208077589
 30
0.0
 11
-3.598042570779112
 21
2.657196491757738
 31
0.0
  0
LINE
  5
1D3
330
1F
100
AcDbEntity
  8
0
  6
Continuous
 62
     7
370
     9
100
AcDbLine
 10
-3.598042570779112
 20
2.657196491757738
 30
0.0
 11
-3.423979754058936
 21
2.673840771982761
 31
0.0
  0
LINE
  5
1D4
330
1F
100
AcDbEntity
  8
0
  6
Continuous
 62
     7
370
     9
100
AcDbLine
 10
-3.423979754058936
 20
2.673840771982761
 30
0.0
 11
-3.423979754058936
 21
2.692521189832154
 31
0.0
  0
LINE
  5
1D5
330
1F
100
AcDbEntity
  8
0
  6
Continuous
 62
     7
370
     9
100
AcDbLine
 10
-3.423979754058936
 20
2.692521189832154
 30
0.0
 11
-3.443979758867914
 21
2.692521189832154
 31
0.0
  0
LINE
  5
1D6
330
1F
100
AcDbEntity
  8
0
  6
Continuous
 62
     7
370
     9
100
AcDbLine
 10
-3.443979758867914
 20
2.692521189832154
 30
0.0
 11
-3.443979758867914
 21
2.687196991532939
 31
0.0
  0
LINE
  5
1D7
330
1F
100
AcDbEntity
  8
0
  6
Continuous
 62
     7
370
     9
100
AcDbLine
 10
-3.443979758867914
 20
2.687196991532939
 30
0.0
 11
-3.443986485853887
 21
2.686937819621503
 31
0.0
  0
LINE
  5
1D8
330
1F
100
AcDbEntity
  8
0
  6
Continuous
 62
     7
370
     9
100
AcDbLine
 10
-3.443986485853887
 20
2.686937819621503
 30
0.0
 11
-3.444006638665418
 21
2.686679379516073
 31
0.0
  0
LINE
  5
1D9
330
1F
100
AcDbEntity
  8
0
  6
Continuous
 62
     7
370
     9
100
AcDbLine
 10
-3.444006638665418
 20
2.686679379516073
 30
0.0
 11
-3.444040132863356
 21
2.686422318583498
 31
0.0
  0
LINE
  5
1DA
330
1F
100
AcDbEntity
  8
0
  6
Continuous
 62
     7
370
     9
100
AcDbLine
 10
-3.444040132863356
 20
2.686422318583498
 30
0.0
 11
-3.444086940301315
 21
2.6861673404834
 31
0.0
  0
LINE
  5
1DB
330
1F
100
AcDbEntity
  8
0
  6
Continuous
 62
     7
370
     9
100
AcDbLine
 10
-3.444086940301315
 20
2.6861673404834
 30
0.0
 11
-3.444146863954599
 21
2.685915120729015
 31
0.0
  0
LINE
  5
1DC
330
1F
100
AcDbEntity
  8
0
  6
Continuous
 62
     7
370
     9
100
AcDbLine
 10
-3.444146863954599
 20
2.685915120729015
 30
0.0
 11
-3.444219819384056
 21
2.685666334833578
 31
0.0
  0
LINE
  5
1DD
330
1F
100
AcDbEntity
  8
0
  6
Continuous
 62
     7
370
     9
100
AcDbLine
 10
-3.444219819384056
 20
2.685666334833578
 30
0.0
 11
-3.444305553272223
 21
2.68542168645671
 31
0.0
  0
LINE
  5
1DE
330
1F
100
AcDbEntity
  8
0
  6
Continuous
 62
     7
370
     9
100
AcDbLine
 10
-3.444305553272223
 20
2.68542168645671
 30
0.0
 11
-3.444403840448019
 21
2.685181822965261
 31
0.0
  0
LINE
  5
1DF
330
1F
100
AcDbEntity
  8
0
  6
Continuous
 62
     7
370
     9
100
AcDbLine
 10
-3.444403840448019
 20
2.685181822965261
 30
0.0
 11
-3.444514427593982
 21
2.684947363579699
 31
0.0
  0
LINE
  5
1E0
330
1F
100
AcDbEntity
  8
0
  6
Continuous
 62
     7
370
     9
100
AcDbLine
 10
-3.444514427593982
 20
2.684947363579699
 30
0.0
 11
-3.444637033246265
 21
2.684718927520487
 31
0.0
  0
LINE
  5
1E1
330
1F
100
AcDbEntity
  8
0
  6
Continuous
 62
     7
370
     9
100
AcDbLine
 10
-3.444637033246265
 20
2.684718927520487
 30
0.0
 11
-3.444771319648249
 21
2.684497190300864
 31
0.0
  0
LINE
  5
1E2
330
1F
100
AcDbEntity
  8
0
  6
Continuous
 62
     7
370
     9
100
AcDbLine
 10
-3.444771319648249
 20
2.684497190300864
 30
0.0
 11
-3.444916892750545
 21
2.684282686702139
 31
0.0
  0
LINE
  5
1E3
330
1F
100
AcDbEntity
  8
0
  6
Continuous
 62
     7
370
     9
100
AcDbLine
 10
-3.444916892750545
 20
2.684282686702139
 30
0.0
 11
-3.445073414796537
 21
2.68407603594478
 31
0.0
  0
LINE
  5
1E4
330
1F
100
AcDbEntity
  8
0
  6
Continuous
 62
     7
370
     9
100
AcDbLine
 10
-3.445073414796537
 20
2.68407603594478
 30
0.0
 11
-3.445240407297683
 21
2.683877744663713
 31
0.0
  0
LINE
  5
1E5
330
1F
100
AcDbEntity
  8
0
  6
Continuous
 62
     7
370
     9
100
AcDbLine
 10
-3.445240407297683
 20
2.683877744663713
 30
0.0
 11
-3.445417476204595
 21
2.683688403933019
 31
0.0
  0
LINE
  5
1E6
330
1F
100
AcDbEntity
  8
0
  6
Continuous
 62
     7
370
     9
100
AcDbLine
 10
-3.445417476204595
 20
2.683688403933019
 30
0.0
 11
-3.445604114882346
 21
2.68350849224124
 31
0.0
  0
LINE
  5
1E7
330
1F
100
AcDbEntity
  8
0
  6
Continuous
 62
     7
370
     9
100
AcDbLine
 10
-3.445604114882346
 20
2.68350849224124
 30
0.0
 11
-3.445799844842394
 21
2.683338488076918
 31
0.0
  0
LINE
  5
1E8
330
1F
100
AcDbEntity
  8
0
  6
Continuous
 62
     7
370
     9
100
AcDbLine
 10
-3.445799844842394
 20
2.683338488076918
 30
0.0
 11
-3.446004103157044
 21
2.683178841782211
 31
0.0
  0
LINE
  5
1E9
330
1F
100
AcDbEntity
  8
0
  6
Continuous
 62
     7
370
     9
100
AcDbLine
 10
-3.446004103157044
 20
2.683178841782211
 30
0.0
 11
-3.446216355044982
 21
2.68303003184566
 31
0.0
  0
LINE
  5
1EA
330
1F
100
AcDbEntity
  8
0
  6
Continuous
 62
     7
370
     9
100
AcDbLine
 10
-3.446216355044982
 20
2.68303003184566
 30
0.0
 11
-3.446436037578514
 21
2.682892396023883
 31
0.0
  0
LINE
  5
1EB
330
1F
100
AcDbEntity
  8
0
  6
Continuous
 62
     7
370
     9
100
AcDbLine
 10
-3.446436037578514
 20
2.682892396023883
 30
0.0
 11
-3.446662559683557
 21
2.682766328366267
 31
0.0
  0
LINE
  5
1EC
330
1F
100
AcDbEntity
  8
0
  6
Continuous
 62
     7
370
     9
100
AcDbLine
 10
-3.446662559683557
 20
2.682766328366267
 30
0.0
 11
-3.446895330286031
 21
2.682652194775816
 31
0.0
  0
LINE
  5
1ED
330
1F
100
AcDbEntity
  8
0
  6
Continuous
 62
     7
370
     9
100
AcDbLine
 10
-3.446895330286031
 20
2.682652194775816
 30
0.0
 11
-3.447133673872699
 21
2.682550248569993
 31
0.0
  0
LINE
  5
1EE
330
1F
100
AcDbEntity
  8
0
  6
Continuous
 62
     7
370
     9
100
AcDbLine
 10
-3.447133673872699
 20
2.682550248569993
 30
0.0
 11
-3.447376999369481
 21
2.682460827505415
 31
0.0
  0
LINE
  5
1EF
330
1F
100
AcDbEntity
  8
0
  6
Continuous
 62
     7
370
     9
100
AcDbLine
 10
-3.447376999369481
 20
2.682460827505415
 30
0.0
 11
-3.44762463126314
 21
2.682384128606777
 31
0.0
  0
LINE
  5
1F0
330
1F
100
AcDbEntity
  8
0
  6
Continuous
 62
     7
370
     9
100
AcDbLine
 10
-3.44762463126314
 20
2.682384128606777
 30
0.0
 11
-3.447875922186826
 21
2.682320348898771
 31
0.0
  0
LINE
  5
1F1
330
1F
100
AcDbEntity
  8
0
  6
Continuous
 62
     7
370
     9
100
AcDbLine
 10
-3.447875922186826
 20
2.682320348898771
 30
0.0
 11
-3.448130168480919
 21
2.682269685406093
 31
0.0
  0
LINE
  5
1F2
330
1F
100
AcDbEntity
  8
0
  6
Continuous
 62
     7
370
     9
100
AcDbLine
 10
-3.448130168480919
 20
2.682269685406093
 30
0.0
 11
-3.448386666485797
 21
2.682232278860665
 31
0.0
  0
LINE
  5
1F3
330
1F
100
AcDbEntity
  8
0
  6
Continuous
 62
     7
370
     9
100
AcDbLine
 10
-3.448386666485797
 20
2.682232278860665
 30
0.0
 11
-3.448644937712919
 21
2.682208213701642
 31
0.0
  0
LINE
  5
1F4
330
1F
100
AcDbEntity
  8
0
  6
Continuous
 62
     7
370
     9
100
AcDbLine
 10
-3.448644937712919
 20
2.682208213701642
 30
0.0
 11
-3.668042545390958
 21
2.66252119669188
 31
0.0
  0
LINE
  5
1F5
330
1F
100
AcDbEntity
  8
0
  6
Continuous
 62
     7
370
     9
100
AcDbLine
 10
-3.668042545390958
 20
2.66252119669188
 30
0.0
 11
-3.668042545390958
 21
2.60252121041133
 31
0.0
  0
LINE
  5
1F6
330
1F
100
AcDbEntity
  8
0
  6
Continuous
 62
     7
370
     9
100
AcDbLine
 10
-3.668042545390958
 20
2.60252121041133
 30
0.0
 11
-3.653042548820821
 21
2.60252121041133
 31
0.0
  0
LINE
  5
1F7
330
1F
100
AcDbEntity
  8
0
  6
Continuous
 62
     7
370
     9
100
AcDbLine
 10
-3.653042548820821
 20
2.60252121041133
 30
0.0
 11
-3.653042548820821
 21
2.612521198742627
 31
0.0
  0
LINE
  5
1F8
330
1F
100
AcDbEntity
  8
0
  6
Continuous
 62
     7
370
     9
100
AcDbLine
 10
-3.653042548820821
 20
2.612521198742627
 30
0.0
 11
-3.643042560489524
 21
2.612521198742627
 31
0.0
  0
LINE
  5
1F9
330
1F
100
AcDbEntity
  8
0
  6
Continuous
 62
     7
370
     9
100
AcDbLine
 10
-3.643042560489524
 20
2.612521198742627
 30
0.0
 11
-3.643042560489524
 21
2.60252121041133
 31
0.0
  0
LINE
  5
1FA
330
1F
100
AcDbEntity
  8
0
  6
Continuous
 62
     7
370
     9
100
AcDbLine
 10
-3.643042560489524
 20
2.60252121041133
 30
0.0
 11
-3.423979754058936
 21
2.60252121041133
 31
0.0
  0
HATCH
  5
1FB
330
1F
100
AcDbEntity
  8
0
  6
Continuous
 62
     7
370
     9
100
AcDbHatch
 10
0.0
 20
0.0
 30
0.0
210
0.0
220
0.0
230
1.0
  2
__Steinwolle_IIII_1_5_0001
 70
     0
 71
     0
 91
        1
 92
        3
 72
     0
 73
     1
 93
        6
 10
-3.425979762233552
 20
2.673723661409859
 10
-3.598042557679021
 20
2.657246847817604
 10
-3.598042557679021
 20
2.604521200455884
 10
-3.455057293905048
 20
2.604521200455884
 10
-3.455057293905048
 20
2.613506069960985
 10
-3.425979762233552
 20
2.613506069960985
 97
        0
 75
     0
 76
     2
 52
0.0
 41
1.0
 77
     0
 78
     1
 53
90.0
 43
-3.404579689442428
 44
2.138021843898354
 45
-0.01
 46
0.0
 79
     0
 98
        0
  0
HATCH
  5
1FC
330
1F
100
AcDbEntity
  8
0
  6
Continuous
 62
     7
370
     9
100
AcDbHatch
 10
0.0
 20
0.0
 30
0.0
210
0.0
220
0.0
230
1.0
  2
Vertikal_1_0mm_0001
 70
     0
 71
     0
 91
        1
 92
        3
 72
     0
 73
     1
 93
        4
 10
-3.413979762233552
 20
2.602521200455884
 10
-3.355979762233552
 20
2.602521200455884
 10
-3.355979762233552
 20
2.612521200455884
 10
-3.413979762233552
 20
2.612521200455884
 97
        0
 75
     0
 76
     2
 52
0.0
 41
1.0
 77
     0
 78
     1
 53
90.0000000000002
 43
-3.404579689442428
 44
2.138021843898354
 45
-0.02
 46
0.0
 79
     0
 98
        0
  0
LINE
  5
1FD
330
1F
100
AcDbEntity
  8
0
  6
Continuous
 62
     7
370
     9
100
AcDbLine
 10
-3.413979765727639
 20
2.60252121041133
 30
0.0
 11
-3.355979748966964
 21
2.60252121041133
 31
0.0
  0
LINE
  5
1FE
330
1F
100
AcDbEntity
  8
0
  6
Continuous
 62
     7
370
     9
100
AcDbLine
 10
-3.355979748966964
 20
2.60252121041133
 30
0.0
 11
-3.355979748966964
 21
2.612521198742627
 31
0.0
  0
LINE
  5
1FF
330
1F
100
AcDbEntity
  8
0
  6
Continuous
 62
     7
370
     9
100
AcDbLine
 10
-3.355979748966964
 20
2.612521198742627
 30
0.0
 11
-3.413979765727639
 21
2.612521198742627
 31
0.0
  0
LINE
  5
200
330
1F
100
AcDbEntity
  8
0
  6
Continuous
 62
     7
370
     9
100
AcDbLine
 10
-3.413979765727639
 20
2.612521198742627
 30
0.0
 11
-3.413979765727639
 21
2.60252121041133
 31
0.0
  0
LINE
  5
201
330
1F
100
AcDbEntity
  8
0
  6
Continuous
 62
     7
370
     9
100
AcDbLine
 10
-3.355979748966964
 20
2.723532595164603
 30
0.0
 11
-3.355979748966964
 21
2.637521211790445
 31
0.0
  0
LINE
  5
202
330
1F
100
AcDbEntity
  8
0
  6
Continuous
 62
     7
370
     9
100
AcDbLine
 10
-3.386779774949405
 20
2.725257546358387
 30
0.0
 11
-3.386779774949405
 21
2.73274974809486
 31
0.0
  0
LINE
  5
203
330
1F
100
AcDbEntity
  8
0
  6
Continuous
 62
     7
370
     9
100
AcDbLine
 10
-3.382779751470501
 20
2.728325474157542
 30
0.0
 11
-3.38447711920716
 21
2.727275557710932
 31
0.0
  0
LINE
  5
204
330
1F
100
AcDbEntity
  8
0
  6
Continuous
 62
     7
370
     9
100
AcDbLine
 10
-3.402479772110052
 20
2.748592672597631
 30
0.0
 11
-3.402479772110052
 21
2.746494331462806
 31
0.0
  0
LINE
  5
205
330
1F
100
AcDbEntity
  8
0
  6
Continuous
 62
     7
370
     9
100
AcDbLine
 10
-3.386779774949405
 20
2.73518635248247
 30
0.0
 11
-3.386779774949405
 21
2.726782573780784
 31
0.0
  0
LINE
  5
206
330
1F
100
AcDbEntity
  8
0
  6
Continuous
 62
     7
370
     9
100
AcDbLine
 10
-3.36097972905942
 20
2.772032587827566
 30
0.0
 11
-3.346479724869252
 21
2.772032587827566
 31
0.0
  0
LINE
  5
207
330
1F
100
AcDbEntity
  8
0
  6
Continuous
 62
     7
370
     9
100
AcDbLine
 10
-3.411479775681411
 20
2.72453257992454
 30
0.0
 11
-3.411479775681411
 21
2.725150393071372
 31
0.0
  0
LINE
  5
208
330
1F
100
AcDbEntity
  8
0
  6
Continuous
 62
     7
370
     9
100
AcDbLine
 10
-3.402479772110052
 20
2.754282576874831
 30
0.0
 11
-3.402479772110052
 21
2.751351130895674
 31
0.0
  0
LINE
  5
209
330
1F
100
AcDbEntity
  8
0
  6
Continuous
 62
     7
370
     9
100
AcDbLine
 10
-3.399479761537471
 20
2.750532577732296
 30
0.0
 11
-3.399479761537471
 21
2.75949793310394
 31
0.0
  0
LINE
  5
20A
330
1F
100
AcDbEntity
  8
0
  6
Continuous
 62
     7
370
     9
100
AcDbLine
 10
-3.382972582352913
 20
2.737585747349346
 30
0.0
 11
-3.383206985445707
 21
2.743648534932661
 31
0.0
  0
LINE
  5
20B
330
1F
100
AcDbEntity
  8
0
  6
Continuous
 62
     7
370
     9
100
AcDbLine
 10
-3.396130763939488
 20
2.749032572446006
 30
0.0
 11
-3.39797975625118
 21
2.749032572446006
 31
0.0
  0
LINE
  5
20C
330
1F
100
AcDbEntity
  8
0
  6
Continuous
 62
     7
370
     9
100
AcDbLine
 10
-3.388513310790559
 20
2.74009038154907
 30
0.0
 11
-3.388722635454476
 21
2.739703790953547
 31
0.0
  0
LINE
  5
20D
330
1F
100
AcDbEntity
  8
0
  6
Continuous
 62
     7
370
     9
100
AcDbLine
 10
-3.393937907244432
 20
2.752920826630783
 30
0.0
 11
-3.394681872488033
 21
2.750144354646454
 31
0.0
  0
LINE
  5
20E
330
1F
100
AcDbEntity
  8
0
  6
Continuous
 62
     7
370
     9
100
AcDbLine
 10
-3.388054215107736
 20
2.737632582933689
 30
0.0
 11
-3.38797011370989
 21
2.737632582933689
 31
0.0
  0
LINE
  5
20F
330
1F
100
AcDbEntity
  8
0
  6
Continuous
 62
     7
370
     9
100
AcDbLine
 10
-3.389970505425537
 20
2.754032580684846
 30
0.0
 11
-3.392489015792977
 21
2.754032580684846
 31
0.0
  0
LINE
  5
210
330
1F
100
AcDbEntity
  8
0
  6
Continuous
 62
     7
370
     9
100
AcDbLine
 10
-3.384572648037244
 20
2.725825484111315
 30
0.0
 11
-3.382779751470501
 21
2.727618380678058
 31
0.0
  0
LINE
  5
211
330
1F
100
AcDbEntity
  8
0
  6
Continuous
 62
     7
370
     9
100
AcDbLine
 10
-3.382779751470501
 20
2.727618380678058
 30
0.0
 11
-3.382779751470501
 21
2.728325474157542
 31
0.0
  0
LINE
  5
212
330
1F
100
AcDbEntity
  8
0
  6
Continuous
 62
     7
370
     9
100
AcDbLine
 10
-3.388722635454476
 20
2.739703790953547
 30
0.0
 11
-3.389758084659289
 21
2.737562442142714
 31
0.0
  0
LINE
  5
213
330
1F
100
AcDbEntity
  8
0
  6
Continuous
 62
     7
370
     9
100
AcDbLine
 10
-3.382779751470501
 20
2.731335814453354
 30
0.0
 11
-3.382779751470501
 21
2.731790969642302
 31
0.0
  0
LINE
  5
214
330
1F
100
AcDbEntity
  8
0
  6
Continuous
 62
     7
370
     9
100
AcDbLine
 10
-3.386554378699755
 20
2.739358012616015
 30
0.0
 11
-3.385079592574264
 21
2.742587078468274
 31
0.0
  0
LINE
  5
215
330
1F
100
AcDbEntity
  8
0
  6
Continuous
 62
     7
370
     9
100
AcDbLine
 10
-3.387777648730481
 20
2.750144354646454
 30
0.0
 11
-3.388521613974081
 21
2.752920826630783
 31
0.0
  0
LINE
  5
216
330
1F
100
AcDbEntity
  8
0
  6
Continuous
 62
     7
370
     9
100
AcDbLine
 10
-3.383979772587365
 20
2.749032572446006
 30
0.0
 11
-3.386328785425411
 21
2.749032572446006
 31
0.0
  0
LINE
  5
217
330
1F
100
AcDbEntity
  8
0
  6
Continuous
 62
     7
370
     9
100
AcDbLine
 10
-3.36097972905942
 20
2.772032587827566
 30
0.0
 11
-3.36097972905942
 21
2.792032592636543
 31
0.0
  0
LINE
  5
218
330
1F
100
AcDbEntity
  8
0
  6
Continuous
 62
     7
370
     9
100
AcDbLine
 10
-3.388479760299852
 20
2.735048913685387
 30
0.0
 11
-3.388479760299852
 21
2.72900706701238
 31
0.0
  0
LINE
  5
219
330
1F
100
AcDbEntity
  8
0
  6
Continuous
 62
     7
370
     9
100
AcDbLine
 10
-3.386979755013561
 20
2.733115425926461
 30
0.0
 11
-3.386979755013561
 21
2.736032573542128
 31
0.0
  0
LINE
  5
21A
330
1F
100
AcDbEntity
  8
0
  6
Continuous
 62
     7
370
     9
100
AcDbLine
 10
-3.388953604688322
 20
2.728507750145647
 30
0.0
 11
-3.410953607163559
 21
2.727354789784205
 31
0.0
  0
LINE
  5
21B
330
1F
100
AcDbEntity
  8
0
  6
Continuous
 62
     7
370
     9
100
AcDbLine
 10
-3.403573906527217
 20
2.719085550801965
 30
0.0
 11
-3.403549165854959
 21
2.72385084633778
 31
0.0
  0
LINE
  5
21C
330
1F
100
AcDbEntity
  8
0
  6
Continuous
 62
     7
370
     9
100
AcDbLine
 10
-3.395005921816482
 20
2.726488218888321
 30
0.0
 11
-3.393469466961848
 21
2.726568745695295
 31
0.0
  0
LINE
  5
21D
330
1F
100
AcDbEntity
  8
0
  6
Continuous
 62
     7
370
     9
100
AcDbLine
 10
-3.403549165854959
 20
2.72385084633778
 30
0.0
 11
-3.401549196335084
 21
2.723840460321781
 31
0.0
  0
LINE
  5
21E
330
1F
100
AcDbEntity
  8
0
  6
Continuous
 62
     7
370
     9
100
AcDbLine
 10
-3.389609162137198
 20
2.735735206986489
 30
0.0
 11
-3.388850363748796
 21
2.735531877502539
 31
0.0
  0
LINE
  5
21F
330
1F
100
AcDbEntity
  8
0
  6
Continuous
 62
     7
370
     9
100
AcDbLine
 10
-3.389979765586142
 20
2.736532594068481
 30
0.0
 11
-3.389979765586142
 21
2.736218170803641
 31
0.0
  0
LINE
  5
220
330
1F
100
AcDbEntity
  8
0
  6
Continuous
 62
     7
370
     9
100
AcDbLine
 10
-3.384205675471942
 20
2.743595788607506
 30
0.0
 11
-3.383781115403295
 21
2.737561907361402
 31
0.0
  0
LINE
  5
221
330
1F
100
AcDbEntity
  8
0
  6
Continuous
 62
     7
370
     9
100
AcDbLine
 10
-3.387979767919884
 20
2.73703258644845
 30
0.0
 11
-3.389479773206174
 21
2.73703258644845
 31
0.0
  0
LINE
  5
222
330
1F
100
AcDbEntity
  8
0
  6
Continuous
 62
     7
370
     9
100
AcDbLine
 10
-3.402530351163576
 20
2.746275127417816
 30
0.0
 11
-3.403752664217218
 21
2.743769057752466
 31
0.0
  0
LINE
  5
223
330
1F
100
AcDbEntity
  8
0
  6
Continuous
 62
     7
370
     9
100
AcDbLine
 10
-3.357479754253255
 20
2.725032600450894
 30
0.0
 11
-3.361979770112128
 21
2.725032600450894
 31
0.0
  0
LINE
  5
224
330
1F
100
AcDbEntity
  8
0
  6
Continuous
 62
     7
370
     9
100
AcDbLine
 10
-3.384322117065948
 20
2.73523375099451
 30
0.0
 11
-3.38472790349592
 21
2.737175316765879
 31
0.0
  0
LINE
  5
225
330
1F
100
AcDbEntity
  8
0
  6
Continuous
 62
     7
370
     9
100
AcDbLine
 10
-3.385867353592647
 20
2.744264068222321
 30
0.0
 11
-3.388513310790559
 21
2.74009038154907
 31
0.0
  0
LINE
  5
226
330
1F
100
AcDbEntity
  8
0
  6
Continuous
 62
     7
370
     9
100
AcDbLine
 10
-3.402768441432781
 20
2.750897974100049
 30
0.0
 11
-3.41211368856036
 21
2.746540210070064
 31
0.0
  0
LINE
  5
227
330
1F
100
AcDbEntity
  8
0
  6
Continuous
 62
     7
370
     9
100
AcDbLine
 10
-3.382149019133037
 20
2.734351755879744
 30
0.0
 11
-3.383672048162111
 21
2.734608563494855
 31
0.0
  0
LINE
  5
228
330
1F
100
AcDbEntity
  8
0
  6
Continuous
 62
     7
370
     9
100
AcDbLine
 10
-3.356979761873287
 20
2.73703258644845
 30
0.0
 11
-3.380479769634815
 21
2.73703258644845
 31
0.0
  0
LINE
  5
229
330
1F
100
AcDbEntity
  8
0
  6
Continuous
 62
     7
370
     9
100
AcDbLine
 10
-3.384979729200917
 20
2.792032592636543
 30
0.0
 11
-3.384979729200917
 21
2.772032587827566
 31
0.0
  0
LINE
  5
22A
330
1F
100
AcDbEntity
  8
0
  6
Continuous
 62
     7
370
     9
100
AcDbLine
 10
-3.411191078212298
 20
2.745315363841788
 30
0.0
 11
-3.403191059400876
 21
2.749045829393257
 31
0.0
  0
LINE
  5
22B
330
1F
100
AcDbEntity
  8
0
  6
Continuous
 62
     7
370
     9
100
AcDbLine
 10
-3.402404480530655
 20
2.743111501910267
 30
0.0
 11
-3.401384596276649
 21
2.745202581277809
 31
0.0
  0
LINE
  5
22C
330
1F
100
AcDbEntity
  8
0
  6
Continuous
 62
     7
370
     9
100
AcDbLine
 10
-3.386838347576218
 20
2.732891155532204
 30
0.0
 11
-3.386921182386748
 21
2.732974018489118
 31
0.0
  0
LINE
  5
22D
330
1F
100
AcDbEntity
  8
0
  6
Continuous
 62
     7
370
     9
100
AcDbLine
 10
-3.450400765490851
 20
2.685677959290509
 30
0.0
 11
-3.45040805540452
 21
2.684276044155322
 31
0.0
  0
LINE
  5
22E
330
1F
100
AcDbEntity
  8
0
  6
Continuous
 62
     7
370
     9
100
AcDbLine
 10
-3.384979729200917
 20
2.772032587827566
 30
0.0
 11
-3.36097972905942
 21
2.772032587827566
 31
0.0
  0
LINE
  5
22F
330
1F
100
AcDbEntity
  8
0
  6
Continuous
 62
     7
370
     9
100
AcDbLine
 10
-3.451719733229971
 20
2.685333334954755
 30
0.0
 11
-3.45108213317461
 21
2.685964348756068
 31
0.0
  0
LINE
  5
230
330
1F
100
AcDbEntity
  8
0
  6
Continuous
 62
     7
370
     9
100
AcDbLine
 10
-3.389061095731955
 20
2.737190825423916
 30
0.0
 11
-3.389010263360967
 21
2.737257841966176
 31
0.0
  0
LINE
  5
231
330
1F
100
AcDbEntity
  8
0
  6
Continuous
 62
     7
370
     9
100
AcDbLine
 10
-3.400979766823761
 20
2.746956072905802
 30
0.0
 11
-3.400979766823761
 21
2.754282576874831
 31
0.0
  0
LINE
  5
232
330
1F
100
AcDbEntity
  8
0
  6
Continuous
 62
     7
370
     9
100
AcDbLine
 10
-3.450508960194105
 20
2.684103337938057
 30
0.0
 11
-3.453417607601557
 21
2.682444108552831
 31
0.0
  0
LINE
  5
233
330
1F
100
AcDbEntity
  8
0
  6
Continuous
 62
     7
370
     9
100
AcDbLine
 10
-3.419241957541092
 20
2.710289805545255
 30
0.0
 11
-3.417678341425105
 21
2.711181764480248
 31
0.0
  0
LINE
  5
234
330
1F
100
AcDbEntity
  8
0
  6
Continuous
 62
     7
370
     9
100
AcDbLine
 10
-3.416574524651561
 20
2.710213134793002
 30
0.0
 11
-3.418955652514688
 21
2.709588369489119
 31
0.0
  0
LINE
  5
235
330
1F
100
AcDbEntity
  8
0
  6
Continuous
 62
     7
370
     9
100
AcDbLine
 10
-3.415824648667147
 20
2.711887703957955
 30
0.0
 11
-3.415828335843559
 21
2.711175206372585
 31
0.0
  0
LINE
  5
236
330
1F
100
AcDbEntity
  8
0
  6
Continuous
 62
     7
370
     9
100
AcDbLine
 10
-3.404558692239351
 20
2.715226934760405
 30
0.0
 11
-3.415451540189954
 21
2.712368753820939
 31
0.0
  0
LINE
  5
237
330
1F
100
AcDbEntity
  8
0
  6
Continuous
 62
     7
370
     9
100
AcDbLine
 10
-3.451589359175477
 20
2.704954236106573
 30
0.0
 11
-3.404973738829928
 21
2.717185726119285
 31
0.0
  0
LINE
  5
238
330
1F
100
AcDbEntity
  8
0
  6
Continuous
 62
     7
370
     9
100
AcDbLine
 10
-3.418052969807079
 20
2.71209970252843
 30
0.0
 11
-3.451183263135273
 21
2.703406607137164
 31
0.0
  0
LINE
  5
239
330
1F
100
AcDbEntity
  8
0
  6
Continuous
 62
     7
370
     9
100
AcDbLine
 10
-3.381979774921105
 20
2.738532591734741
 30
0.0
 11
-3.381979774921105
 21
2.747032574779746
 31
0.0
  0
LINE
  5
23A
330
1F
100
AcDbEntity
  8
0
  6
Continuous
 62
     7
370
     9
100
AcDbLine
 10
-3.395479766204952
 20
2.716792858879947
 30
0.0
 11
-3.395479766204952
 21
2.718032594545794
 31
0.0
  0
LINE
  5
23B
330
1F
100
AcDbEntity
  8
0
  6
Continuous
 62
     7
370
     9
100
AcDbLine
 10
-3.364979780684709
 20
2.781032591398925
 30
0.0
 11
-3.364979780684709
 21
2.789032582063962
 31
0.0
  0
LINE
  5
23C
330
1F
100
AcDbEntity
  8
0
  6
Continuous
 62
     7
370
     9
100
AcDbLine
 10
-3.380979733868399
 20
2.789032582063962
 30
0.0
 11
-3.380979733868399
 21
2.781032591398925
 31
0.0
  0
LINE
  5
23D
330
1F
100
AcDbEntity
  8
0
  6
Continuous
 62
     7
370
     9
100
AcDbLine
 10
-3.364979780684709
 20
2.777032596066406
 30
0.0
 11
-3.364979780684709
 21
2.781032591398925
 31
0.0
  0
LINE
  5
23E
330
1F
100
AcDbEntity
  8
0
  6
Continuous
 62
     7
370
     9
100
AcDbLine
 10
-3.39333129635876
 20
2.726634664528548
 30
0.0
 11
-3.393158280531262
 21
2.726826819897724
 31
0.0
  0
LINE
  5
23F
330
1F
100
AcDbEntity
  8
0
  6
Continuous
 62
     7
370
     9
100
AcDbLine
 10
-3.380979733868399
 20
2.781032591398925
 30
0.0
 11
-3.380979733868399
 21
2.777032596066406
 31
0.0
  0
LINE
  5
240
330
1F
100
AcDbEntity
  8
0
  6
Continuous
 62
     7
370
     9
100
AcDbLine
 10
-3.401536277144452
 20
2.785016740316789
 30
0.0
 11
-3.390779713989153
 21
2.790032594970284
 31
0.0
  0
LINE
  5
241
330
1F
100
AcDbEntity
  8
0
  6
Continuous
 62
     7
370
     9
100
AcDbLine
 10
-3.390779713989153
 20
2.790032594970284
 30
0.0
 11
-3.384979729200917
 21
2.792032592636543
 31
0.0
  0
LINE
  5
242
330
1F
100
AcDbEntity
  8
0
  6
Continuous
 62
     7
370
     9
100
AcDbLine
 10
-3.362979754872065
 20
2.72103257697199
 30
0.0
 11
-3.370979773683486
 21
2.72103257697199
 31
0.0
  0
LINE
  5
243
330
1F
100
AcDbEntity
  8
0
  6
Continuous
 62
     7
370
     9
100
AcDbLine
 10
-3.370979773683486
 20
2.72103257697199
 30
0.0
 11
-3.370979773683486
 21
2.724032587544572
 31
0.0
  0
LINE
  5
244
330
1F
100
AcDbEntity
  8
0
  6
Continuous
 62
     7
370
     9
100
AcDbLine
 10
-3.402979764490021
 20
2.763505077618204
 30
0.0
 11
-3.402979736343636
 21
2.78275095633866
 31
0.0
  0
LINE
  5
245
330
1F
100
AcDbEntity
  8
0
  6
Continuous
 62
     7
370
     9
100
AcDbLine
 10
-3.371979758443424
 20
2.725032600450894
 30
0.0
 11
-3.374979769016005
 21
2.725032600450894
 31
0.0
  0
LINE
  5
246
330
1F
100
AcDbEntity
  8
0
  6
Continuous
 62
     7
370
     9
100
AcDbLine
 10
-3.392875831559579
 20
2.72684162489614
 30
0.0
 11
-3.392683676190402
 21
2.726668609068642
 31
0.0
  0
LINE
  5
247
330
1F
100
AcDbEntity
  8
0
  6
Continuous
 62
     7
370
     9
100
AcDbLine
 10
-3.392539369675423
 20
2.726617495233806
 30
0.0
 11
-3.391272472748224
 21
2.7266838925556
 31
0.0
  0
LINE
  5
248
330
1F
100
AcDbEntity
  8
0
  6
Continuous
 62
     7
370
     9
100
AcDbLine
 10
-3.338979726584183
 20
2.772032587827566
 30
0.0
 11
-3.337479721297893
 21
2.772032587827566
 31
0.0
  0
LINE
  5
249
330
1F
100
AcDbEntity
  8
0
  6
Continuous
 62
     7
370
     9
100
AcDbLine
 10
-3.354979764207028
 20
2.718532586925763
 30
0.0
 11
-3.354979764207028
 21
2.73503258878219
 31
0.0
  0
LINE
  5
24A
330
1F
100
AcDbEntity
  8
0
  6
Continuous
 62
     7
370
     9
100
AcDbLine
 10
-3.401549196335084
 20
2.723840460321781
 30
0.0
 11
-3.401553953074119
 21
2.719075164785966
 31
0.0
  0
LINE
  5
24B
330
1F
100
AcDbEntity
  8
0
  6
Continuous
 62
     7
370
     9
100
AcDbLine
 10
-3.36017972436364
 20
2.772032587827566
 30
0.0
 11
-3.337979713677861
 21
2.772032587827566
 31
0.0
  0
LINE
  5
24C
330
1F
100
AcDbEntity
  8
0
  6
Continuous
 62
     7
370
     9
100
AcDbLine
 10
-3.36097972905942
 20
2.792032592636543
 30
0.0
 11
-3.355179716124799
 21
2.790032594970284
 31
0.0
  0
LINE
  5
24D
330
1F
100
AcDbEntity
  8
0
  6
Continuous
 62
     7
370
     9
100
AcDbLine
 10
-3.335979716011602
 20
2.774032585493825
 30
0.0
 11
-3.335979716011602
 21
2.783353317120225
 31
0.0
  0
LINE
  5
24E
330
1F
100
AcDbEntity
  8
0
  6
Continuous
 62
     7
370
     9
100
AcDbLine
 10
-3.39113433029152
 20
2.726749783242467
 30
0.0
 11
-3.390961286317637
 21
2.726941966758028
 31
0.0
  0
LINE
  5
24F
330
1F
100
AcDbEntity
  8
0
  6
Continuous
 62
     7
370
     9
100
AcDbLine
 10
-3.334979731251664
 20
2.769532597781337
 30
0.0
 11
-3.334979731251664
 21
2.719532599832085
 31
0.0
  0
LINE
  5
250
330
1F
100
AcDbEntity
  8
0
  6
Continuous
 62
     7
370
     9
100
AcDbLine
 10
-3.4019621319468
 20
2.761429788372547
 30
0.0
 11
-3.40249739174695
 21
2.761573222349597
 31
0.0
  0
LINE
  5
251
330
1F
100
AcDbEntity
  8
0
  6
Continuous
 62
     7
370
     9
100
AcDbLine
 10
-3.376979766682265
 20
2.727032598117153
 30
0.0
 11
-3.376979766682265
 21
2.73153258582964
 31
0.0
  0
LINE
  5
252
330
1F
100
AcDbEntity
  8
0
  6
Continuous
 62
     7
370
     9
100
AcDbLine
 10
-3.395479766204952
 20
2.722532582258281
 30
0.0
 11
-3.395479766204952
 21
2.713532578686922
 31
0.0
  0
LINE
  5
253
330
1F
100
AcDbEntity
  8
0
  6
Continuous
 62
     7
370
     9
100
AcDbLine
 10
-3.413979765727639
 20
2.60252121041133
 30
0.0
 11
-3.413979765727639
 21
2.708032578068113
 31
0.0
  0
LINE
  5
254
330
1F
100
AcDbEntity
  8
0
  6
Continuous
 62
     7
370
     9
100
AcDbLine
 10
-3.40217975979424
 20
2.713532578686922
 30
0.0
 11
-3.409685528088197
 21
2.710032575734372
 31
0.0
  0
LINE
  5
255
330
1F
100
AcDbEntity
  8
0
  6
Continuous
 62
     7
370
     9
100
AcDbLine
 10
-3.378479771968555
 20
2.733032591115931
 30
0.0
 11
-3.382279759090532
 21
2.733032591115931
 31
0.0
  0
LINE
  5
256
330
1F
100
AcDbEntity
  8
0
  6
Continuous
 62
     7
370
     9
100
AcDbLine
 10
-3.386979755013561
 20
2.711032588640694
 30
0.0
 11
-3.386979755013561
 21
2.722532582258281
 31
0.0
  0
LINE
  5
257
330
1F
100
AcDbEntity
  8
0
  6
Continuous
 62
     7
370
     9
100
AcDbLine
 10
-3.382779751470501
 20
2.732532598735963
 30
0.0
 11
-3.382779751470501
 21
2.711032588640694
 31
0.0
  0
LINE
  5
258
330
1F
100
AcDbEntity
  8
0
  6
Continuous
 62
     7
370
     9
100
AcDbLine
 10
-3.390678837345954
 20
2.726956743610059
 30
0.0
 11
-3.390486681976777
 21
2.726783727782562
 31
0.0
  0
LINE
  5
259
330
1F
100
AcDbEntity
  8
0
  6
Continuous
 62
     7
370
     9
100
AcDbLine
 10
-3.412479760441348
 20
2.724032587544572
 30
0.0
 11
-3.41197976806138
 21
2.724032587544572
 31
0.0
  0
LINE
  5
25A
330
1F
100
AcDbEntity
  8
0
  6
Continuous
 62
     7
370
     9
100
AcDbLine
 10
-3.390342403608183
 20
2.726732642094111
 30
0.0
 11
-3.388805920607163
 21
2.726813168901085
 31
0.0
  0
LINE
  5
25B
330
1F
100
AcDbEntity
  8
0
  6
Continuous
 62
     7
370
     9
100
AcDbLine
 10
-3.388279752089311
 20
2.726313852034352
 30
0.0
 11
-3.388279752089311
 21
2.724313432172321
 31
0.0
  0
LINE
  5
25C
330
1F
100
AcDbEntity
  8
0
  6
Continuous
 62
     7
370
     9
100
AcDbLine
 10
-3.411005931292942
 20
2.725649709938105
 30
0.0
 11
-3.397505940009095
 21
2.726357225613362
 31
0.0
  0
LINE
  5
25D
330
1F
100
AcDbEntity
  8
0
  6
Continuous
 62
     7
370
     9
100
AcDbLine
 10
-3.388650355538255
 20
2.723830468355169
 30
0.0
 11
-3.38980917034774
 21
2.723519957437818
 31
0.0
  0
LINE
  5
25E
330
1F
100
AcDbEntity
  8
0
  6
Continuous
 62
     7
370
     9
100
AcDbLine
 10
-3.409685528088197
 20
2.710032575734372
 30
0.0
 11
-3.41197976806138
 21
2.710032575734372
 31
0.0
  0
LINE
  5
25F
330
1F
100
AcDbEntity
  8
0
  6
Continuous
 62
     7
370
     9
100
AcDbLine
 10
-3.382779751470501
 20
2.711032588640694
 30
0.0
 11
-3.386979755013561
 21
2.711032588640694
 31
0.0
  0
LINE
  5
260
330
1F
100
AcDbEntity
  8
0
  6
Continuous
 62
     7
370
     9
100
AcDbLine
 10
-3.386979755013561
 20
2.722532582258281
 30
0.0
 11
-3.395479766204952
 21
2.722532582258281
 31
0.0
  0
LINE
  5
261
330
1F
100
AcDbEntity
  8
0
  6
Continuous
 62
     7
370
     9
100
AcDbLine
 10
-3.412979752821317
 20
2.826061937788706
 30
0.0
 11
-3.412979752821317
 21
2.750956152677475
 31
0.0
  0
LINE
  5
262
330
1F
100
AcDbEntity
  8
0
  6
Continuous
 62
     7
370
     9
100
AcDbLine
 10
-3.402979736343636
 20
2.826061937788706
 30
0.0
 11
-3.402979736343636
 21
2.786322394815887
 31
0.0
  0
LINE
  5
263
330
1F
100
AcDbEntity
  8
0
  6
Continuous
 62
     7
370
     9
100
AcDbLine
 10
-3.384979729200917
 20
2.826061937788706
 30
0.0
 11
-3.384979729200917
 21
2.792032592636543
 31
0.0
  0
LINE
  5
264
330
1F
100
AcDbEntity
  8
0
  6
Continuous
 62
     7
370
     9
100
AcDbLine
 10
-3.395479766204952
 20
2.713532578686922
 30
0.0
 11
-3.40217975979424
 21
2.713532578686922
 31
0.0
  0
LINE
  5
265
330
1F
100
AcDbEntity
  8
0
  6
Continuous
 62
     7
370
     9
100
AcDbLine
 10
-3.355979748966964
 20
2.612521198742627
 30
0.0
 11
-3.413979765727639
 21
2.612521198742627
 31
0.0
  0
LINE
  5
266
330
1F
100
AcDbEntity
  8
0
  6
Continuous
 62
     7
370
     9
100
AcDbLine
 10
-3.360979757205805
 20
2.826061937788706
 30
0.0
 11
-3.360979757205805
 21
2.792032592636543
 31
0.0
  0
LINE
  5
267
330
1F
100
AcDbEntity
  8
0
  6
Continuous
 62
     7
370
     9
100
AcDbLine
 10
-3.335979716011602
 20
2.826061937788706
 30
0.0
 11
-3.335979716011602
 21
2.786322394815887
 31
0.0
  0
LINE
  5
268
330
1F
100
AcDbEntity
  8
0
  6
Continuous
 62
     7
370
     9
100
AcDbLine
 10
-3.364979780684709
 20
2.789032582063962
 30
0.0
 11
-3.380979733868399
 21
2.789032582063962
 31
0.0
  0
LINE
  5
269
330
1F
100
AcDbEntity
  8
0
  6
Continuous
 62
     7
370
     9
100
AcDbLine
 10
-3.364979780684709
 20
2.781032591398925
 30
0.0
 11
-3.380979733868399
 21
2.781032591398925
 31
0.0
  0
LINE
  5
26A
330
1F
100
AcDbEntity
  8
0
  6
Continuous
 62
     7
370
     9
100
AcDbLine
 10
-3.380979733868399
 20
2.781032591398925
 30
0.0
 11
-3.364979780684709
 21
2.781032591398925
 31
0.0
  0
LINE
  5
26B
330
1F
100
AcDbEntity
  8
0
  6
Continuous
 62
     7
370
     9
100
AcDbLine
 10
-3.380979733868399
 20
2.777032596066406
 30
0.0
 11
-3.364979780684709
 21
2.777032596066406
 31
0.0
  0
LINE
  5
26C
330
1F
100
AcDbEntity
  8
0
  6
Continuous
 62
     7
370
     9
100
AcDbLine
 10
-3.380979733868399
 20
2.826061937788706
 30
0.0
 11
-3.380979733868399
 21
2.777032596066406
 31
0.0
  0
LINE
  5
26D
330
1F
100
AcDbEntity
  8
0
  6
Continuous
 62
     7
370
     9
100
AcDbLine
 10
-3.364979780684709
 20
2.826061937788706
 30
0.0
 11
-3.364979780684709
 21
2.777032596066406
 31
0.0
  0
LINE
  5
26E
330
1F
100
AcDbEntity
  8
0
  6
Continuous
 62
     7
370
     9
100
AcDbLine
 10
-3.360979757205805
 20
2.777032596066406
 30
0.0
 11
-3.364979780684709
 21
2.777032596066406
 31
0.0
  0
LINE
  5
26F
330
1F
100
AcDbEntity
  8
0
  6
Continuous
 62
     7
370
     9
100
AcDbLine
 10
-3.380979733868399
 20
2.777032596066406
 30
0.0
 11
-3.384979729200917
 21
2.777032596066406
 31
0.0
  0
LINE
  5
270
330
1F
100
AcDbEntity
  8
0
  6
Continuous
 62
     7
370
     9
100
AcDbLine
 10
-3.362979754872065
 20
2.724032587544572
 30
0.0
 11
-3.362979754872065
 21
2.72103257697199
 31
0.0
  0
LINE
  5
271
330
1F
100
AcDbEntity
  8
0
  6
Continuous
 62
     7
370
     9
100
AcDbLine
 10
-3.454015802718167
 20
2.682793630359544
 30
0.0
 11
-3.453977157731807
 21
2.701875612681185
 31
0.0
  0
LINE
  5
272
330
1F
100
AcDbEntity
  8
0
  6
Continuous
 62
     7
370
     9
100
AcDbLine
 10
-3.45237717648663
 20
2.701867309497663
 30
0.0
 11
-3.452401100913729
 21
2.685619724420314
 31
0.0
  0
LINE
  5
273
330
1F
100
AcDbEntity
  8
0
  6
Continuous
 62
     7
370
     9
100
AcDbLine
 10
-3.337479721297893
 20
2.717032581639472
 30
0.0
 11
-3.353479758920736
 21
2.717032581639472
 31
0.0
  0
LINE
  5
274
330
1F
100
AcDbEntity
  8
0
  6
Continuous
 62
     7
370
     9
100
AcDbLine
 10
-3.390179773796684
 20
2.723036993620667
 30
0.0
 11
-3.390179773796684
 21
2.722732590468823
 31
0.0
  0
LINE
  5
275
330
1F
100
AcDbEntity
  8
0
  6
Continuous
 62
     7
370
     9
100
AcDbLine
 10
-3.389979765586142
 20
2.722532582258281
 30
0.0
 11
-3.387893893299793
 21
2.722532582258281
 31
0.0
  0
LINE
  5
276
330
1F
100
AcDbEntity
  8
0
  6
Continuous
 62
     7
370
     9
100
AcDbLine
 10
-3.386746759240009
 20
2.722082577857756
 30
0.0
 11
-3.386912766617686
 21
2.72179503439042
 31
0.0
  0
LINE
  5
277
330
1F
100
AcDbEntity
  8
0
  6
Continuous
 62
     7
370
     9
100
AcDbLine
 10
-3.386979755013561
 20
2.72154501005405
 30
0.0
 11
-3.386979755013561
 21
2.720599572987897
 31
0.0
  0
LINE
  5
278
330
1F
100
AcDbEntity
  8
0
  6
Continuous
 62
     7
370
     9
100
AcDbLine
 10
-3.386845778221812
 20
2.720099580607928
 30
0.0
 11
-3.386363743235359
 21
2.719264646248584
 31
0.0
  0
LINE
  5
279
330
1F
100
AcDbEntity
  8
0
  6
Continuous
 62
     7
370
     9
100
AcDbLine
 10
-3.386229766443608
 20
2.718764625722231
 30
0.0
 11
-3.386229766443608
 21
2.716516714698464
 31
0.0
  0
LINE
  5
27A
330
1F
100
AcDbEntity
  8
0
  6
Continuous
 62
     7
370
     9
100
AcDbLine
 10
-3.386979755013561
 20
2.715548450914221
 30
0.0
 11
-3.386979755013561
 21
2.714300524650391
 31
0.0
  0
LINE
  5
27B
330
1F
100
AcDbEntity
  8
0
  6
Continuous
 62
     7
370
     9
100
AcDbLine
 10
-3.386845778221812
 20
2.713800532270422
 30
0.0
 11
-3.386113747045374
 21
2.712532593926984
 31
0.0
  0
LINE
  5
27C
330
1F
100
AcDbEntity
  8
0
  6
Continuous
 62
     7
370
     9
100
AcDbLine
 10
-3.385247710930802
 20
2.712032573400631
 30
0.0
 11
-3.384292197458883
 21
2.712032573400631
 31
0.0
  0
LINE
  5
27D
330
1F
100
AcDbEntity
  8
0
  6
Continuous
 62
     7
370
     9
100
AcDbLine
 10
-3.383426161344311
 20
2.712532593926984
 30
0.0
 11
-3.382819944508027
 21
2.71358259481275
 31
0.0
  0
LINE
  5
27E
330
1F
100
AcDbEntity
  8
0
  6
Continuous
 62
     7
370
     9
100
AcDbLine
 10
-3.383131862744618
 20
2.714028039498934
 30
0.0
 11
-3.383370684819828
 21
2.713985904360857
 31
0.0
  0
LINE
  5
27F
330
1F
100
AcDbEntity
  8
0
  6
Continuous
 62
     7
370
     9
100
AcDbLine
 10
-3.383890520401096
 20
2.714728321553292
 30
0.0
 11
-3.382819944508027
 21
2.716582577238946
 31
0.0
  0
LINE
  5
280
330
1F
100
AcDbEntity
  8
0
  6
Continuous
 62
     7
370
     9
100
AcDbLine
 10
-3.383131862744618
 20
2.717028021925131
 30
0.0
 11
-3.383370684819828
 21
2.716985914933438
 31
0.0
  0
LINE
  5
281
330
1F
100
AcDbEntity
  8
0
  6
Continuous
 62
     7
370
     9
100
AcDbLine
 10
-3.383890520401096
 20
2.717728332125874
 30
0.0
 11
-3.382819944508027
 21
2.719582587811527
 31
0.0
  0
LINE
  5
282
330
1F
100
AcDbEntity
  8
0
  6
Continuous
 62
     7
370
     9
100
AcDbLine
 10
-3.383131862744618
 20
2.720028032497712
 30
0.0
 11
-3.383370684819828
 21
2.719985925506019
 31
0.0
  0
LINE
  5
283
330
1F
100
AcDbEntity
  8
0
  6
Continuous
 62
     7
370
     9
100
AcDbLine
 10
-3.383890520401096
 20
2.72072831455207
 30
0.0
 11
-3.38334676039273
 21
2.721670148880967
 31
0.0
  0
LINE
  5
284
330
1F
100
AcDbEntity
  8
0
  6
Continuous
 62
     7
370
     9
100
AcDbLine
 10
-3.383279771996855
 20
2.721920145070951
 30
0.0
 11
-3.383279771996855
 21
2.72303257463825
 31
0.0
  0
LINE
  5
285
330
1F
100
AcDbEntity
  8
0
  6
Continuous
 62
     7
370
     9
100
AcDbLine
 10
-3.383779764376824
 20
2.723532595164603
 30
0.0
 11
-3.384915780614603
 21
2.723532595164603
 31
0.0
  0
LINE
  5
286
330
1F
100
AcDbEntity
  8
0
  6
Continuous
 62
     7
370
     9
100
AcDbLine
 10
-3.385558587751156
 20
2.723766547915239
 30
0.0
 11
-3.386422541033251
 21
2.724491486202701
 31
0.0
  0
LINE
  5
287
330
1F
100
AcDbEntity
  8
0
  6
Continuous
 62
     7
370
     9
100
AcDbLine
 10
-3.396979771491242
 20
2.725857908746629
 30
0.0
 11
-3.396979771491242
 21
2.724813846748062
 31
0.0
  0
LINE
  5
288
330
1F
100
AcDbEntity
  8
0
  6
Continuous
 62
     7
370
     9
100
AcDbLine
 10
-3.396987371015144
 20
2.724727015150887
 30
0.0
 11
-3.39831717511242
 21
2.717185303923513
 31
0.0
  0
LINE
  5
289
330
1F
100
AcDbEntity
  8
0
  6
Continuous
 62
     7
370
     9
100
AcDbLine
 10
-3.400286774683072
 20
2.715532576353181
 30
0.0
 11
-3.403271389183156
 21
2.715532576353181
 31
0.0
  0
LINE
  5
28A
330
1F
100
AcDbEntity
  8
0
  6
Continuous
 62
     7
370
     9
100
AcDbLine
 10
-3.403458703374143
 20
2.715496183077607
 30
0.0
 11
-3.412667074632336
 21
2.71177576578552
 31
0.0
  0
LINE
  5
28B
330
1F
100
AcDbEntity
  8
0
  6
Continuous
 62
     7
370
     9
100
AcDbLine
 10
-3.412979752821317
 20
2.711312166681125
 30
0.0
 11
-3.412979752821317
 21
2.710532596260725
 31
0.0
  0
LINE
  5
28C
330
1F
100
AcDbEntity
  8
0
  6
Continuous
 62
     7
370
     9
100
AcDbLine
 10
-3.412479760441348
 20
2.710032575734372
 30
0.0
 11
-3.410974210317248
 21
2.710032575734372
 31
0.0
  0
LINE
  5
28D
330
1F
100
AcDbEntity
  8
0
  6
Continuous
 62
     7
370
     9
100
AcDbLine
 10
-3.410175781819017
 20
2.711164510746352
 30
0.0
 11
-3.403167134973777
 21
2.713996177791317
 31
0.0
  0
LINE
  5
28E
330
1F
100
AcDbEntity
  8
0
  6
Continuous
 62
     7
370
     9
100
AcDbLine
 10
-3.40297982078279
 20
2.714032599213275
 30
0.0
 11
-3.399680726725096
 21
2.714032599213275
 31
0.0
  0
LINE
  5
28F
330
1F
100
AcDbEntity
  8
0
  6
Continuous
 62
     7
370
     9
100
AcDbLine
 10
-3.398533564518927
 20
2.714394280258231
 30
0.0
 11
-3.395692975069974
 21
2.71638330083441
 31
0.0
  0
LINE
  5
290
330
1F
100
AcDbEntity
  8
0
  6
Continuous
 62
     7
370
     9
100
AcDbLine
 10
-3.395479766204952
 20
2.716792858879947
 30
0.0
 11
-3.395479766204952
 21
2.718032594545794
 31
0.0
  0
LINE
  5
291
330
1F
100
AcDbEntity
  8
0
  6
Continuous
 62
     7
370
     9
100
AcDbLine
 10
-3.395979758584921
 20
2.718532586925763
 30
0.0
 11
-3.396079762690191
 21
2.718532586925763
 31
0.0
  0
LINE
  5
292
330
1F
100
AcDbEntity
  8
0
  6
Continuous
 62
     7
370
     9
100
AcDbLine
 10
-3.396473671345768
 20
2.7190020404782
 30
0.0
 11
-3.395487365728854
 21
2.72459579670485
 31
0.0
  0
LINE
  5
293
330
1F
100
AcDbEntity
  8
0
  6
Continuous
 62
     7
370
     9
100
AcDbLine
 10
-3.395479766204952
 20
2.724682600155639
 30
0.0
 11
-3.395479766204952
 21
2.725988930167973
 31
0.0
  0
LINE
  5
294
330
1F
100
AcDbEntity
  8
0
  6
Continuous
 62
     7
370
     9
100
AcDbLine
 10
-3.33746207351461
 20
2.785285172388831
 30
0.0
 11
-3.355179716124799
 21
2.790032594970284
 31
0.0
  0
LINE
  5
295
330
1F
100
AcDbEntity
  8
0
  6
Continuous
 62
     7
370
     9
100
AcDbLine
 10
-3.390779713989153
 20
2.790032594970284
 30
0.0
 11
-3.384979729200917
 21
2.792032592636543
 31
0.0
  0
LINE
  5
296
330
1F
100
AcDbEntity
  8
0
  6
Continuous
 62
     7
370
     9
100
AcDbLine
 10
-3.384979729200917
 20
2.792032592636543
 30
0.0
 11
-3.384979729200917
 21
2.783032589065184
 31
0.0
  0
LINE
  5
297
330
1F
100
AcDbEntity
  8
0
  6
Continuous
 62
     7
370
     9
100
AcDbLine
 10
-3.36097972905942
 20
2.783032589065184
 30
0.0
 11
-3.36097972905942
 21
2.792032592636543
 31
0.0
  0
LINE
  5
298
330
1F
100
AcDbEntity
  8
0
  6
Continuous
 62
     7
370
     9
100
AcDbLine
 10
-3.36097972905942
 20
2.792032592636543
 30
0.0
 11
-3.355179716124799
 21
2.790032594970284
 31
0.0
  0
LINE
  5
299
330
1F
100
AcDbEntity
  8
0
  6
Continuous
 62
     7
370
     9
100
AcDbLine
 10
-3.411479775681411
 20
2.727854106650938
 30
0.0
 11
-3.411479775681411
 21
2.744862207046163
 31
0.0
  0
LINE
  5
29A
330
1F
100
AcDbEntity
  8
0
  6
Continuous
 62
     7
370
     9
100
AcDbLine
 10
-3.412979752821317
 20
2.745180739683187
 30
0.0
 11
-3.412979752821317
 21
2.72453257992454
 31
0.0
  0
LINE
  5
29B
330
1F
100
AcDbEntity
  8
0
  6
Continuous
 62
     7
370
     9
100
AcDbLine
 10
-3.360979757205805
 20
2.627521195312764
 30
0.0
 11
-3.360979757205805
 21
2.637521211790445
 31
0.0
  0
LINE
  5
29C
330
1F
100
AcDbEntity
  8
0
  6
Continuous
 62
     7
370
     9
100
AcDbLine
 10
-3.355979748966964
 20
2.627521195312764
 30
0.0
 11
-3.360979757205805
 21
2.627521195312764
 31
0.0
  0
LINE
  5
29D
330
1F
100
AcDbEntity
  8
0
  6
Continuous
 62
     7
370
     9
100
AcDbLine
 10
-3.355979748966964
 20
2.627521195312764
 30
0.0
 11
-3.355979748966964
 21
2.612521198742627
 31
0.0
  0
ARC
  5
29E
330
1F
100
AcDbEntity
  8
0
  6
Continuous
 62
     7
370
     9
100
AcDbCircle
 10
-3.380479762230951
 20
2.738532586406242
 30
0.0
 40
0.0015000000000001
100
AcDbArc
 50
180.0
 51
270.0
  0
ARC
  5
29F
330
1F
100
AcDbEntity
  8
0
  6
Continuous
 62
     7
370
     9
100
AcDbCircle
 10
-3.397979762230952
 20
2.750532586406242
 30
0.0
 40
0.0014999999999996
100
AcDbArc
 50
180.0
 51
270.0
  0
ARC
  5
2A0
330
1F
100
AcDbEntity
  8
0
  6
Continuous
 62
     7
370
     9
100
AcDbCircle
 10
-3.386328771748984
 20
2.750532586406243
 30
0.0
 40
0.0015000000000001
100
AcDbArc
 50
194.9999999999954
 51
270.0
  0
ARC
  5
2A1
330
1F
100
AcDbEntity
  8
0
  6
Continuous
 62
     7
370
     9
100
AcDbCircle
 10
-3.38342104306758
 20
2.737622897292256
 30
0.0
 40
0.0004499999999998
100
AcDbArc
 50
320.9749517812072
 51
355.2639121197032
  0
ARC
  5
2A2
330
1F
100
AcDbEntity
  8
0
  6
Continuous
 62
     7
370
     9
100
AcDbCircle
 10
-3.392489025786828
 20
2.752532586406243
 30
0.0
 40
0.0015000000000001
100
AcDbArc
 50
90.0
 51
165.0000000000046
  0
ARC
  5
2A3
330
1F
100
AcDbEntity
  8
0
  6
Continuous
 62
     7
370
     9
100
AcDbCircle
 10
-3.400479725087779
 20
2.782750957324733
 30
0.0
 40
0.0024999999999999
100
AcDbArc
 50
115.0000000000095
 51
180.0
  0
ARC
  5
2A4
330
1F
100
AcDbEntity
  8
0
  6
Continuous
 62
     7
370
     9
100
AcDbCircle
 10
-3.404979762231752
 20
2.746956059168304
 30
0.0
 40
0.0039999999996012
100
AcDbArc
 50
333.9999999999925
 51
0.0
  0
ARC
  5
2A5
330
1F
100
AcDbEntity
  8
0
  6
Continuous
 62
     7
370
     9
100
AcDbCircle
 10
-3.382307696517175
 20
2.732617913554393
 30
0.0
 40
0.0017410774494908
100
AcDbArc
 50
30.07575060551644
 51
84.77082444932509
  0
ARC
  5
2A6
330
1F
100
AcDbEntity
  8
0
  6
Continuous
 62
     7
370
     9
100
AcDbCircle
 10
-3.387979762233451
 20
2.736032586404893
 30
0.0
 40
0.0009999999999
100
AcDbArc
 50
0.0
 51
90.0
  0
ARC
  5
2A7
330
1F
100
AcDbEntity
  8
0
  6
Continuous
 62
     7
370
     9
100
AcDbCircle
 10
-3.402979762231952
 20
2.748592676736635
 30
0.0
 40
0.00049999999995
100
AcDbArc
 50
0.0
 51
115.0000000000152
  0
ARC
  5
2A8
330
1F
100
AcDbEntity
  8
0
  6
Continuous
 62
     7
370
     9
100
AcDbCircle
 10
-3.396130752712921
 20
2.750532586406243
 30
0.0
 40
0.0014999999999996
100
AcDbArc
 50
270.0
 51
345.0000000000045
  0
ARC
  5
2A9
330
1F
100
AcDbEntity
  8
0
  6
Continuous
 62
     7
370
     9
100
AcDbCircle
 10
-3.383279762233553
 20
2.731335801915136
 30
0.0
 40
0.0005000000000002
100
AcDbArc
 50
338.1927318411059
 51
0.0
  0
ARC
  5
2AA
330
1F
100
AcDbEntity
  8
0
  6
Continuous
 62
     7
370
     9
100
AcDbCircle
 10
-3.385787050664007
 20
2.739131755238911
 30
0.0
 40
0.0008000000000004
100
AcDbArc
 50
163.5705009950131
 51
259.7537983503738
  0
ARC
  5
2AB
330
1F
100
AcDbEntity
  8
0
  6
Continuous
 62
     7
370
     9
100
AcDbCircle
 10
-3.389379762233553
 20
2.737432586406243
 30
0.0
 40
0.0004000000000004
100
AcDbArc
 50
161.0557140319735
 51
180.0
  0
ARC
  5
2AC
330
1F
100
AcDbEntity
  8
0
  6
Continuous
 62
     7
370
     9
100
AcDbCircle
 10
-3.386196170775545
 20
2.736868434507257
 30
0.0
 40
0.0015000000000001
100
AcDbArc
 50
11.8050172136759
 51
79.75379835036998
  0
ARC
  5
2AD
330
1F
100
AcDbEntity
  8
0
  6
Continuous
 62
     7
370
     9
100
AcDbCircle
 10
-3.380981716493865
 20
2.73340469581657
 30
0.0
 40
0.0001999999999995
100
AcDbArc
 50
351.9838080268611
 51
25.38799893198675
  0
ARC
  5
2AE
330
1F
100
AcDbEntity
  8
0
  6
Continuous
 62
     7
370
     9
100
AcDbCircle
 10
-3.402979762231952
 20
2.751351121533764
 30
0.0
 40
0.00049999999995
100
AcDbArc
 50
295.0000000000151
 51
0.0
  0
ARC
  5
2AF
330
1F
100
AcDbEntity
  8
0
  6
Continuous
 62
     7
370
     9
100
AcDbCircle
 10
-3.402979762231952
 20
2.746494322786098
 30
0.0
 40
0.0004999999999495
100
AcDbArc
 50
334.0000000000028
 51
0.0
  0
ARC
  5
2B0
330
1F
100
AcDbEntity
  8
0
  6
Continuous
 62
     7
370
     9
100
AcDbCircle
 10
-3.383979762230952
 20
2.747032586406243
 30
0.0
 40
0.0020000000000002
100
AcDbArc
 50
0.0
 51
90.0
  0
ARC
  5
2B1
330
1F
100
AcDbEntity
  8
0
  6
Continuous
 62
     7
370
     9
100
AcDbCircle
 10
-3.40097976246034
 20
2.763505062617174
 30
0.0
 40
0.0020000000000002
100
AcDbArc
 50
179.9999018982844
 51
254.999999999998
  0
ARC
  5
2B2
330
1F
100
AcDbEntity
  8
0
  6
Continuous
 62
     7
370
     9
100
AcDbCircle
 10
-3.388979762233353
 20
2.729007068688953
 30
0.0
 40
0.00049999999995
100
AcDbArc
 50
273.000000000175
 51
0.0
  0
ARC
  5
2B3
330
1F
100
AcDbEntity
  8
0
  6
Continuous
 62
     7
370
     9
100
AcDbCircle
 10
-3.389479762233302
 20
2.73621817368751
 30
0.0
 40
0.00049999999995
100
AcDbArc
 50
180.0
 51
255.0000000000304
  0
ARC
  5
2B4
330
1F
100
AcDbEntity
  8
0
  6
Continuous
 62
     7
370
     9
100
AcDbCircle
 10
-3.410979762231152
 20
2.727854097544842
 30
0.0
 40
0.00049999999995
100
AcDbArc
 50
180.0
 51
272.9999999999717
  0
ARC
  5
2B5
330
1F
100
AcDbEntity
  8
0
  6
Continuous
 62
     7
370
     9
100
AcDbCircle
 10
-3.405573888387107
 20
2.719095949271924
 30
0.0
 40
0.0020000000000002
100
AcDbArc
 50
284.7024332589388
 51
359.7024332589154
  0
ARC
  5
2B6
330
1F
100
AcDbEntity
  8
0
  6
Continuous
 62
     7
370
     9
100
AcDbCircle
 10
-3.384399834469912
 20
2.744167260422254
 30
0.0
 40
0.0008484229692836
100
AcDbArc
 50
41.03001368164373
 51
82.63486550491989
  0
ARC
  5
2B7
330
1F
100
AcDbEntity
  8
0
  6
Continuous
 62
     7
370
     9
100
AcDbCircle
 10
-3.410979762231152
 20
2.744862215471767
 30
0.0
 40
0.00049999999995
100
AcDbArc
 50
114.9999999999721
 51
180.0
  0
ARC
  5
2B8
330
1F
100
AcDbEntity
  8
0
  6
Continuous
 62
     7
370
     9
100
AcDbCircle
 10
-3.388154904954133
 20
2.736482586406243
 30
0.0
 40
0.001154399496917
100
AcDbArc
 50
84.99620972921088
 51
137.812401393255
  0
ARC
  5
2B9
330
1F
100
AcDbEntity
  8
0
  6
Continuous
 62
     7
370
     9
100
AcDbCircle
 10
-3.405573888387107
 20
2.719095949271924
 30
0.0
 40
0.0040000000000009
100
AcDbArc
 50
284.7024332589388
 51
359.7024332589153
  0
ARC
  5
2BA
330
1F
100
AcDbEntity
  8
0
  6
Continuous
 62
     7
370
     9
100
AcDbCircle
 10
-3.411479762231101
 20
2.74518075060214
 30
0.0
 40
0.0014999999998495
100
AcDbArc
 50
115.000000000048
 51
180.0
  0
ARC
  5
2BB
330
1F
100
AcDbEntity
  8
0
  6
Continuous
 62
     7
370
     9
100
AcDbCircle
 10
-3.401729762232076
 20
2.754282586403068
 30
0.0
 40
0.000749999999925
100
AcDbArc
 50
0.0
 51
180.0
  0
ARC
  5
2BC
330
1F
100
AcDbEntity
  8
0
  6
Continuous
 62
     7
370
     9
100
AcDbCircle
 10
-3.383382199529342
 20
2.737591414288314
 30
0.0
 40
0.0004
100
AcDbArc
 50
184.2296213554273
 51
320.9749517812155
  0
ARC
  5
2BD
330
1F
100
AcDbEntity
  8
0
  6
Continuous
 62
     7
370
     9
100
AcDbCircle
 10
-3.38597319059266
 20
2.74303595649576
 30
0.0
 40
0.0009999999999999
100
AcDbArc
 50
333.3282102426721
 51
19.33474137861665
  0
ARC
  5
2BE
330
1F
100
AcDbEntity
  8
0
  6
Continuous
 62
     7
370
     9
100
AcDbCircle
 10
-3.384912444852931
 20
2.743627297769241
 30
0.0
 40
0.0002854041503357
100
AcDbArc
 50
177.2518918372147
 51
245.7666216588458
  0
ARC
  5
2BF
330
1F
100
AcDbEntity
  8
0
  6
Continuous
 62
     7
370
     9
100
AcDbCircle
 10
-3.389479762233302
 20
2.736532586404843
 30
0.0
 40
0.00049999999995
100
AcDbArc
 50
90.0
 51
180.0
  0
ARC
  5
2C0
330
1F
100
AcDbEntity
  8
0
  6
Continuous
 62
     7
370
     9
100
AcDbCircle
 10
-3.356979762230951
 20
2.735032586406243
 30
0.0
 40
0.0020000000000002
100
AcDbArc
 50
0.0
 51
90.0
  0
ARC
  5
2C1
330
1F
100
AcDbEntity
  8
0
  6
Continuous
 62
     7
370
     9
100
AcDbCircle
 10
-3.388290775705773
 20
2.735963820448158
 30
0.0
 40
0.0016992936535152
100
AcDbArc
 50
332.7730054060586
 51
79.12315981961524
  0
ARC
  5
2C2
330
1F
100
AcDbEntity
  8
0
  6
Continuous
 62
     7
370
     9
100
AcDbCircle
 10
-3.401479762230952
 20
2.759497932430285
 30
0.0
 40
0.0020000000000002
100
AcDbArc
 50
0.0
 51
74.99999999999798
  0
ARC
  5
2C3
330
1F
100
AcDbEntity
  8
0
  6
Continuous
 62
     7
370
     9
100
AcDbCircle
 10
-3.403078563993731
 20
2.743440284113772
 30
0.0
 40
0.000749999999925
100
AcDbArc
 50
154.0000000000341
 51
334.000000000034
  0
ARC
  5
2C4
330
1F
100
AcDbEntity
  8
0
  6
Continuous
 62
     7
370
     9
100
AcDbCircle
 10
-3.384557790037336
 20
2.743532586406243
 30
0.0
 40
0.0015000000000005
100
AcDbArc
 50
79.75770924759941
 51
150.8134232796508
  0
ARC
  5
2C5
330
1F
100
AcDbEntity
  8
0
  6
Continuous
 62
     7
370
     9
100
AcDbCircle
 10
-3.386779762233571
 20
2.733115429117659
 30
0.0
 40
0.00019999999998
100
AcDbArc
 50
180.0
 51
224.9999999998201
  0
ARC
  5
2C6
330
1F
100
AcDbEntity
  8
0
  6
Continuous
 62
     7
370
     9
100
AcDbCircle
 10
-3.389970498675076
 20
2.752532586406243
 30
0.0
 40
0.0015000000000001
100
AcDbArc
 50
14.99999999999543
 51
90.0
  0
ARC
  5
2C7
330
1F
100
AcDbEntity
  8
0
  6
Continuous
 62
     7
370
     9
100
AcDbCircle
 10
-3.337979725296242
 20
2.783353307935608
 30
0.0
 40
0.0020000000000002
100
AcDbArc
 50
0.0
 51
74.99999999999798
  0
ARC
  5
2C8
330
1F
100
AcDbEntity
  8
0
  6
Continuous
 62
     7
370
     9
100
AcDbCircle
 10
-3.337979725296242
 20
2.774032586406243
 30
0.0
 40
0.0019999999999998
100
AcDbArc
 50
270.0
 51
0.0
  0
ARC
  5
2C9
330
1F
100
AcDbEntity
  8
0
  6
Continuous
 62
     7
370
     9
100
AcDbCircle
 10
-3.337479725296243
 20
2.769532586406243
 30
0.0
 40
0.0024999999999999
100
AcDbArc
 50
0.0
 51
90.0
  0
ARC
  5
2CA
330
1F
100
AcDbEntity
  8
0
  6
Continuous
 62
     7
370
     9
100
AcDbCircle
 10
-3.337479725296243
 20
2.719532586406243
 30
0.0
 40
0.0024999999999999
100
AcDbArc
 50
270.0
 51
0.0
  0
ARC
  5
2CB
330
1F
100
AcDbEntity
  8
0
  6
Continuous
 62
     7
370
     9
100
AcDbCircle
 10
-3.357479762233552
 20
2.723532586406243
 30
0.0
 40
0.0015000000000001
100
AcDbArc
 50
0.0
 51
90.0
  0
ARC
  5
2CC
330
1F
100
AcDbEntity
  8
0
  6
Continuous
 62
     7
370
     9
100
AcDbCircle
 10
-3.394979762232753
 20
2.725988916679362
 30
0.0
 40
0.00049999999995
100
AcDbArc
 50
92.99999999997175
 51
180.0
  0
ARC
  5
2CD
330
1F
100
AcDbEntity
  8
0
  6
Continuous
 62
     7
370
     9
100
AcDbCircle
 10
-3.371979762233552
 20
2.724032586406243
 30
0.0
 40
0.0010000000000003
100
AcDbArc
 50
0.0
 51
90.0
  0
ARC
  5
2CE
330
1F
100
AcDbEntity
  8
0
  6
Continuous
 62
     7
370
     9
100
AcDbCircle
 10
-3.374979762233552
 20
2.727032586406243
 30
0.0
 40
0.0020000000000002
100
AcDbArc
 50
180.0
 51
270.0
  0
ARC
  5
2CF
330
1F
100
AcDbEntity
  8
0
  6
Continuous
 62
     7
370
     9
100
AcDbCircle
 10
-3.378479762233551
 20
2.731532586406243
 30
0.0
 40
0.0015000000000001
100
AcDbArc
 50
0.0
 51
90.0
  0
ARC
  5
2D0
330
1F
100
AcDbEntity
  8
0
  6
Continuous
 62
     7
370
     9
100
AcDbCircle
 10
-3.411979762233551
 20
2.708032586406243
 30
0.0
 40
0.0020000000000002
100
AcDbArc
 50
90.0
 51
180.0
  0
ARC
  5
2D1
330
1F
100
AcDbEntity
  8
0
  6
Continuous
 62
     7
370
     9
100
AcDbCircle
 10
-3.385529762233553
 20
2.726782586406243
 30
0.0
 40
0.0012500000000002
100
AcDbArc
 50
180.0
 51
270.0
  0
ARC
  5
2D2
330
1F
100
AcDbEntity
  8
0
  6
Continuous
 62
     7
370
     9
100
AcDbCircle
 10
-3.385404762233552
 20
2.72683436310154
 30
0.0
 40
0.0013077643382573
100
AcDbArc
 50
264.5151257526529
 51
309.5151257527208
  0
ARC
  5
2D3
330
1F
100
AcDbEntity
  8
0
  6
Continuous
 62
     7
370
     9
100
AcDbCircle
 10
-3.411979762231052
 20
2.724532586406043
 30
0.0
 40
0.00049999999995
100
AcDbArc
 50
270.0
 51
0.0
  0
ARC
  5
2D4
330
1F
100
AcDbEntity
  8
0
  6
Continuous
 62
     7
370
     9
100
AcDbCircle
 10
-3.417926080394247
 20
2.711616060840628
 30
0.0
 40
0.0005000000000002
100
AcDbArc
 50
299.7024332589822
 51
104.7024332587846
  0
ARC
  5
2D5
330
1F
100
AcDbEntity
  8
0
  6
Continuous
 62
     7
370
     9
100
AcDbCircle
 10
-3.450608048293375
 20
2.684277073161693
 30
0.0
 40
0.0002
100
AcDbArc
 50
299.702433258793
 51
359.7024332589385
  0
ARC
  5
2D6
330
1F
100
AcDbEntity
  8
0
  6
Continuous
 62
     7
370
     9
100
AcDbCircle
 10
-3.393479937109761
 20
2.7267684798255
 30
0.0
 40
0.0001999999999804
100
AcDbArc
 50
272.9999999998647
 51
318.0000000002623
  0
ARC
  5
2D7
330
1F
100
AcDbEntity
  8
0
  6
Continuous
 62
     7
370
     9
100
AcDbCircle
 10
-3.393009656294925
 20
2.726692988964055
 30
0.0
 40
0.0001999999999795
100
AcDbArc
 50
47.99999999992186
 51
137.9999999999219
  0
ARC
  5
2D8
330
1F
100
AcDbEntity
  8
0
  6
Continuous
 62
     7
370
     9
100
AcDbCircle
 10
-3.384582330550581
 20
2.727445649945844
 30
0.0
 40
0.0002
100
AcDbArc
 50
158.1927318409925
 51
301.7393372498489
  0
ARC
  5
2D9
330
1F
100
AcDbEntity
  8
0
  6
Continuous
 62
     7
370
     9
100
AcDbCircle
 10
-3.380078829330317
 20
2.727337972153531
 30
0.0
 40
0.0046927186143937
100
AcDbArc
 50
125.6747281639233
 51
177.7776188290651
  0
ARC
  5
2DA
330
1F
100
AcDbEntity
  8
0
  6
Continuous
 62
     7
370
     9
100
AcDbCircle
 10
-3.383539028899975
 20
2.735397423960034
 30
0.0
 40
0.0007999999999999
100
AcDbArc
 50
191.8050172136479
 51
260.4287592068486
  0
ARC
  5
2DB
330
1F
100
AcDbEntity
  8
0
  6
Continuous
 62
     7
370
     9
100
AcDbCircle
 10
-3.450777196669488
 20
2.701859004085854
 30
0.0
 40
0.0032000000000001
100
AcDbArc
 50
104.7024332588957
 51
179.7024332589088
  0
ARC
  5
2DC
330
1F
100
AcDbEntity
  8
0
  6
Continuous
 62
     7
370
     9
100
AcDbCircle
 10
-3.450777196669488
 20
2.701859004085854
 30
0.0
 40
0.0015999999999998
100
AcDbArc
 50
104.7024332588649
 51
179.7024332589087
  0
ARC
  5
2DD
330
1F
100
AcDbEntity
  8
0
  6
Continuous
 62
     7
370
     9
100
AcDbCircle
 10
-3.415324647997723
 20
2.711885111368458
 30
0.0
 40
0.0004999999999997
100
AcDbArc
 50
104.7024332589815
 51
179.7024332588897
  0
ARC
  5
2DE
330
1F
100
AcDbEntity
  8
0
  6
Continuous
 62
     7
370
     9
100
AcDbCircle
 10
-3.450800764558382
 20
2.685680046030099
 30
0.0
 40
0.0003999999999995
100
AcDbArc
 50
359.7024332589398
 51
134.7024332589269
  0
ARC
  5
2DF
330
1F
100
AcDbEntity
  8
0
  6
Continuous
 62
     7
370
     9
100
AcDbCircle
 10
-3.452001104800052
 20
2.685617650000787
 30
0.0
 40
0.0004
100
AcDbArc
 50
179.7024332589398
 51
314.7024332589269
  0
ARC
  5
2E0
330
1F
100
AcDbEntity
  8
0
  6
Continuous
 62
     7
370
     9
100
AcDbCircle
 10
-3.412479762231001
 20
2.724532586406043
 30
0.0
 40
0.00049999999995
100
AcDbArc
 50
180.0
 51
270.0
  0
ARC
  5
2E1
330
1F
100
AcDbEntity
  8
0
  6
Continuous
 62
     7
370
     9
100
AcDbCircle
 10
-3.410979762231152
 20
2.725150392210918
 30
0.0
 40
0.00049999999995
100
AcDbArc
 50
92.99999999997175
 51
180.0
  0
ARC
  5
2E2
330
1F
100
AcDbEntity
  8
0
  6
Continuous
 62
     7
370
     9
100
AcDbCircle
 10
-3.386979762233553
 20
2.732749743692747
 30
0.0
 40
0.0001999999999804
100
AcDbArc
 50
0.0
 51
44.99999999982008
  0
ARC
  5
2E3
330
1F
100
AcDbEntity
  8
0
  6
Continuous
 62
     7
370
     9
100
AcDbCircle
 10
-3.419052633880444
 20
2.709957923470541
 30
0.0
 40
0.0003820732366786
100
AcDbArc
 50
119.7024332589239
 51
284.7024332587687
  0
ARC
  5
2E4
330
1F
100
AcDbEntity
  8
0
  6
Continuous
 62
     7
370
     9
100
AcDbCircle
 10
-3.388979762233353
 20
2.735048922911002
 30
0.0
 40
0.00049999999995
100
AcDbArc
 50
0.0
 51
74.99999999983379
  0
ARC
  5
2E5
330
1F
100
AcDbEntity
  8
0
  6
Continuous
 62
     7
370
     9
100
AcDbCircle
 10
-3.389379762233553
 20
2.737432586406243
 30
0.0
 40
0.0004
100
AcDbArc
 50
180.0
 51
322.816191664001
  0
ARC
  5
2E6
330
1F
100
AcDbEntity
  8
0
  6
Continuous
 62
     7
370
     9
100
AcDbCircle
 10
-3.384704303309123
 20
2.743558905168107
 30
0.0
 40
0.0004999999999997
100
AcDbArc
 50
4.22962135535874
 51
170.5519839121524
  0
ARC
  5
2E7
330
1F
100
AcDbEntity
  8
0
  6
Continuous
 62
     7
370
     9
100
AcDbCircle
 10
-3.416828328168707
 20
2.711180404578803
 30
0.0
 40
0.0009999999999999
100
AcDbArc
 50
284.7024332589945
 51
359.7024332589406
  0
ARC
  5
2E8
330
1F
100
AcDbEntity
  8
0
  6
Continuous
 62
     7
370
     9
100
AcDbCircle
 10
-3.361979762233553
 20
2.724032586406243
 30
0.0
 40
0.0009999999999999
100
AcDbArc
 50
90.0
 51
180.0
  0
ARC
  5
2E9
330
1F
100
AcDbEntity
  8
0
  6
Continuous
 62
     7
370
     9
100
AcDbCircle
 10
-3.353479762230952
 20
2.718532586406243
 30
0.0
 40
0.0015000000000001
100
AcDbArc
 50
180.0
 51
270.0
  0
ARC
  5
2EA
330
1F
100
AcDbEntity
  8
0
  6
Continuous
 62
     7
370
     9
100
AcDbCircle
 10
-3.392549842671336
 20
2.726817224009541
 30
0.0
 40
0.00019999999998
100
AcDbArc
 50
227.9999999999218
 51
272.9999999998781
  0
ARC
  5
2EB
330
1F
100
AcDbEntity
  8
0
  6
Continuous
 62
     7
370
     9
100
AcDbCircle
 10
-3.391282952133521
 20
2.726883618929223
 30
0.0
 40
0.00019999999998
100
AcDbArc
 50
272.9999999998647
 51
317.9999999999218
  0
ARC
  5
2EC
330
1F
100
AcDbEntity
  8
0
  6
Continuous
 62
     7
370
     9
100
AcDbCircle
 10
-3.390812671318685
 20
2.726808128067777
 30
0.0
 40
0.0001999999999804
100
AcDbArc
 50
48.00000000009211
 51
137.9999999999219
  0
ARC
  5
2ED
330
1F
100
AcDbEntity
  8
0
  6
Continuous
 62
     7
370
     9
100
AcDbCircle
 10
-3.390352857695095
 20
2.726932363113264
 30
0.0
 40
0.00019999999998
100
AcDbArc
 50
228.0000000000921
 51
272.9999999998647
  0
ARC
  5
2EE
330
1F
100
AcDbEntity
  8
0
  6
Continuous
 62
     7
370
     9
100
AcDbCircle
 10
-3.388779762233371
 20
2.726313844910885
 30
0.0
 40
0.00049999999995
100
AcDbArc
 50
0.0
 51
93.00000000017504
  0
ARC
  5
2EF
330
1F
100
AcDbEntity
  8
0
  6
Continuous
 62
     7
370
     9
100
AcDbCircle
 10
-3.388779762233373
 20
2.724313429577027
 30
0.0
 40
0.00049999999995
100
AcDbArc
 50
285.0000000001399
 51
0.0
  0
ARC
  5
2F0
330
1F
100
AcDbEntity
  8
0
  6
Continuous
 62
     7
370
     9
100
AcDbCircle
 10
-3.389679762233282
 20
2.723036999123556
 30
0.0
 40
0.00049999999995
100
AcDbArc
 50
104.9999999999433
 51
180.0
  0
ARC
  5
2F1
330
1F
100
AcDbEntity
  8
0
  6
Continuous
 62
     7
370
     9
100
AcDbCircle
 10
-3.389979762233253
 20
2.722732586406223
 30
0.0
 40
0.00019999999998
100
AcDbArc
 50
180.0
 51
270.0
  0
ARC
  5
2F2
330
1F
100
AcDbEntity
  8
0
  6
Continuous
 62
     7
370
     9
100
AcDbCircle
 10
-3.387893905076314
 20
2.723032586406193
 30
0.0
 40
0.00049999999995
100
AcDbArc
 50
270.0
 51
315.5729959991032
  0
ARC
  5
2F3
330
1F
100
AcDbEntity
  8
0
  6
Continuous
 62
     7
370
     9
100
AcDbCircle
 10
-3.387179762233531
 20
2.722332586406263
 30
0.0
 40
0.00049999999995
100
AcDbArc
 50
329.9999999998869
 51
135.5729959993184
  0
ARC
  5
2F4
330
1F
100
AcDbEntity
  8
0
  6
Continuous
 62
     7
370
     9
100
AcDbCircle
 10
-3.386479762233602
 20
2.72154502197164
 30
0.0
 40
0.0004999999999495
100
AcDbArc
 50
149.9999999999887
 51
180.0
  0
ARC
  5
2F5
330
1F
100
AcDbEntity
  8
0
  6
Continuous
 62
     7
370
     9
100
AcDbCircle
 10
-3.385979762233651
 20
2.720599573704544
 30
0.0
 40
0.0009999999999
100
AcDbArc
 50
180.0
 51
209.9999999999672
  0
ARC
  5
2F6
330
1F
100
AcDbEntity
  8
0
  6
Continuous
 62
     7
370
     9
100
AcDbCircle
 10
-3.387229762233527
 20
2.718764637214189
 30
0.0
 40
0.0009999999999
100
AcDbArc
 50
0.0
 51
29.99999999996718
  0
ARC
  5
2F7
330
1F
100
AcDbEntity
  8
0
  6
Continuous
 62
     7
370
     9
100
AcDbCircle
 10
-3.386729762233577
 20
2.71651670932512
 30
0.0
 40
0.0004999999999495
100
AcDbArc
 50
284.4775121858251
 51
0.0
  0
ARC
  5
2F8
330
1F
100
AcDbEntity
  8
0
  6
Continuous
 62
     7
370
     9
100
AcDbCircle
 10
-3.386479762233602
 20
2.715548463488666
 30
0.0
 40
0.00049999999995
100
AcDbArc
 50
104.4775121859968
 51
180.0
  0
ARC
  5
2F9
330
1F
100
AcDbEntity
  8
0
  6
Continuous
 62
     7
370
     9
100
AcDbCircle
 10
-3.385979762233651
 20
2.714300535599497
 30
0.0
 40
0.0009999999999
100
AcDbArc
 50
180.0
 51
209.9999999999672
  0
ARC
  5
2FA
330
1F
100
AcDbEntity
  8
0
  6
Continuous
 62
     7
370
     9
100
AcDbCircle
 10
-3.385247711426157
 20
2.713032586407193
 30
0.0
 40
0.0009999999999004
100
AcDbArc
 50
210.000000000018
 51
270.0
  0
ARC
  5
2FB
330
1F
100
AcDbEntity
  8
0
  6
Continuous
 62
     7
370
     9
100
AcDbCircle
 10
-3.38429219779912
 20
2.713032586407193
 30
0.0
 40
0.0009999999999
100
AcDbArc
 50
270.0
 51
330.0000000000328
  0
ARC
  5
2FC
330
1F
100
AcDbEntity
  8
0
  6
Continuous
 62
     7
370
     9
100
AcDbCircle
 10
-3.383079762233942
 20
2.713732586407123
 30
0.0
 40
0.0002999999999695
100
AcDbArc
 50
330.0000000000723
 51
100.0000000000494
  0
ARC
  5
2FD
330
1F
100
AcDbEntity
  8
0
  6
Continuous
 62
     7
370
     9
100
AcDbCircle
 10
-3.383457501971732
 20
2.714478321989092
 30
0.0
 40
0.00049999999995
100
AcDbArc
 50
150.0000000000769
 51
279.999999999843
  0
ARC
  5
2FE
330
1F
100
AcDbEntity
  8
0
  6
Continuous
 62
     7
370
     9
100
AcDbCircle
 10
-3.383079762233942
 20
2.716732586406823
 30
0.0
 40
0.00029999999997
100
AcDbArc
 50
329.9999999999254
 51
100.0000000000494
  0
ARC
  5
2FF
330
1F
100
AcDbEntity
  8
0
  6
Continuous
 62
     7
370
     9
100
AcDbCircle
 10
-3.383457501971732
 20
2.717478321988792
 30
0.0
 40
0.00049999999995
100
AcDbArc
 50
150.0000000000769
 51
279.9999999998606
  0
ARC
  5
300
330
1F
100
AcDbEntity
  8
0
  6
Continuous
 62
     7
370
     9
100
AcDbCircle
 10
-3.383079762233942
 20
2.719732586406523
 30
0.0
 40
0.00029999999997
100
AcDbArc
 50
329.9999999999254
 51
100.0000000000494
  0
ARC
  5
301
330
1F
100
AcDbEntity
  8
0
  6
Continuous
 62
     7
370
     9
100
AcDbCircle
 10
-3.383457501971732
 20
2.720478321988492
 30
0.0
 40
0.00049999999995
100
AcDbArc
 50
150.0000000000769
 51
279.9999999998606
  0
ARC
  5
302
330
1F
100
AcDbEntity
  8
0
  6
Continuous
 62
     7
370
     9
100
AcDbCircle
 10
-3.383779762233871
 20
2.721920150841006
 30
0.0
 40
0.0004999999999495
100
AcDbArc
 50
329.9999999999751
 51
0.0
  0
ARC
  5
303
330
1F
100
AcDbEntity
  8
0
  6
Continuous
 62
     7
370
     9
100
AcDbCircle
 10
-3.383779762233871
 20
2.723032586406193
 30
0.0
 40
0.00049999999995
100
AcDbArc
 50
0.0
 51
90.0
  0
ARC
  5
304
330
1F
100
AcDbEntity
  8
0
  6
Continuous
 62
     7
370
     9
100
AcDbCircle
 10
-3.384915791999493
 20
2.724532586406043
 30
0.0
 40
0.0009999999999004
100
AcDbArc
 50
230.0000000000597
 51
270.0
  0
ARC
  5
305
330
1F
100
AcDbEntity
  8
0
  6
Continuous
 62
     7
370
     9
100
AcDbCircle
 10
-3.385779762233671
 20
2.725257543510891
 30
0.0
 40
0.0009999999999
100
AcDbArc
 50
180.0
 51
229.9999999999491
  0
ARC
  5
306
330
1F
100
AcDbEntity
  8
0
  6
Continuous
 62
     7
370
     9
100
AcDbCircle
 10
-3.397479762232502
 20
2.725857897231168
 30
0.0
 40
0.00049999999995
100
AcDbArc
 50
0.0
 51
92.99999999997175
  0
ARC
  5
307
330
1F
100
AcDbEntity
  8
0
  6
Continuous
 62
     7
370
     9
100
AcDbCircle
 10
-3.397479762232502
 20
2.724813841018095
 30
0.0
 40
0.00049999999995
100
AcDbArc
 50
349.9999999999566
 51
0.0
  0
ARC
  5
308
330
1F
100
AcDbEntity
  8
0
  6
Continuous
 62
     7
370
     9
100
AcDbCircle
 10
-3.400286783791568
 20
2.717532586406743
 30
0.0
 40
0.0019999999998004
100
AcDbArc
 50
270.0
 51
349.9999999999816
  0
ARC
  5
309
330
1F
100
AcDbEntity
  8
0
  6
Continuous
 62
     7
370
     9
100
AcDbCircle
 10
-3.403271394374345
 20
2.715032586406993
 30
0.0
 40
0.00049999999995
100
AcDbArc
 50
90.0
 51
112.0000000000333
  0
ARC
  5
30A
330
1F
100
AcDbEntity
  8
0
  6
Continuous
 62
     7
370
     9
100
AcDbCircle
 10
-3.412479762231001
 20
2.711312164295766
 30
0.0
 40
0.00049999999995
100
AcDbArc
 50
112.0000000000333
 51
180.0
  0
ARC
  5
30B
330
1F
100
AcDbEntity
  8
0
  6
Continuous
 62
     7
370
     9
100
AcDbCircle
 10
-3.412479762230952
 20
2.710532586407463
 30
0.0
 40
0.0004999999999997
100
AcDbArc
 50
180.0
 51
270.0
  0
ARC
  5
30C
330
1F
100
AcDbEntity
  8
0
  6
Continuous
 62
     7
370
     9
100
AcDbCircle
 10
-3.410974201337824
 20
2.710532586407463
 30
0.0
 40
0.0005000000000006
100
AcDbArc
 50
270.0
 51
9.690350608028066
  0
ARC
  5
30D
330
1F
100
AcDbEntity
  8
0
  6
Continuous
 62
     7
370
     9
100
AcDbCircle
 10
-3.409988469506851
 20
2.710700909778702
 30
0.0
 40
0.0004999999999495
100
AcDbArc
 50
112.0000000000714
 51
189.6903506080845
  0
ARC
  5
30E
330
1F
100
AcDbEntity
  8
0
  6
Continuous
 62
     7
370
     9
100
AcDbCircle
 10
-3.402979823910668
 20
2.713532586407144
 30
0.0
 40
0.0004999999999495
100
AcDbArc
 50
90.0
 51
112.0000000000714
  0
ARC
  5
30F
330
1F
100
AcDbEntity
  8
0
  6
Continuous
 62
     7
370
     9
100
AcDbCircle
 10
-3.399680729826896
 20
2.716032586406893
 30
0.0
 40
0.0019999999997999
100
AcDbArc
 50
270.0
 51
305.0000000000394
  0
ARC
  5
310
330
1F
100
AcDbEntity
  8
0
  6
Continuous
 62
     7
370
     9
100
AcDbCircle
 10
-3.395979762232653
 20
2.716792869932093
 30
0.0
 40
0.00049999999995
100
AcDbArc
 50
305.0000000000957
 51
0.0
  0
ARC
  5
311
330
1F
100
AcDbEntity
  8
0
  6
Continuous
 62
     7
370
     9
100
AcDbCircle
 10
-3.395979762232653
 20
2.718032586406693
 30
0.0
 40
0.00049999999995
100
AcDbArc
 50
0.0
 51
90.0
  0
ARC
  5
312
330
1F
100
AcDbEntity
  8
0
  6
Continuous
 62
     7
370
     9
100
AcDbCircle
 10
-3.396079762232642
 20
2.718932586406603
 30
0.0
 40
0.00039999999996
100
AcDbArc
 50
170.0000000000907
 51
270.0
  0
ARC
  5
313
330
1F
100
AcDbEntity
  8
0
  6
Continuous
 62
     7
370
     9
100
AcDbCircle
 10
-3.395979762232653
 20
2.724682608022819
 30
0.0
 40
0.0004999999999504
100
AcDbArc
 50
349.9999999999566
 51
0.0
  0
LINE
  5
314
330
1F
100
AcDbEntity
  8
0
  6
Continuous
 62
     7
370
     9
100
AcDbLine
 10
-3.597976398628397
 20
2.582120654399958
 30
0.0
 11
-3.597976398628397
 21
2.60252121041133
 31
0.0
  0
LINE
  5
315
330
1F
100
AcDbEntity
  8
0
  6
Continuous
 62
     7
370
     9
100
AcDbLine
 10
-3.172976401986557
 20
2.582120654399958
 30
0.0
 11
-3.597976398628397
 21
2.582120654399958
 31
0.0
  0
LINE
  5
316
330
1F
100
AcDbEntity
  8
0
  6
Continuous
 62
     7
370
     9
100
AcDbLine
 10
-3.597976398628397
 20
1.586120662601039
 30
0.0
 11
-3.597976398628397
 21
2.582120654399958
 31
0.0
  0
LINE
  5
317
330
1F
100
AcDbEntity
  8
0
  6
Continuous
 62
     7
370
     9
100
AcDbLine
 10
-3.172976401986557
 20
1.586120662601039
 30
0.0
 11
-3.172976401986557
 21
2.582120654399958
 31
0.0
  0
LINE
  5
318
330
1F
100
AcDbEntity
  8
0
  6
Continuous
 62
     7
370
     9
100
AcDbLine
 10
-3.16297641365526
 20
3.24112063574424
 30
0.0
 11
-3.16297641365526
 21
2.637521211790445
 31
0.0
  0
LINE
  5
319
330
1F
100
AcDbEntity
  8
0
  6
Continuous
 62
     7
370
     9
100
AcDbLine
 10
-3.412979752821317
 20
2.826142774205913
 30
0.0
 11
-3.412979752821317
 21
3.24112063574424
 31
0.0
  0
LINE
  5
31A
330
1F
100
AcDbEntity
  8
0
  6
Continuous
 62
     7
370
     9
100
AcDbLine
 10
-3.402979736343636
 20
2.826142774205913
 30
0.0
 11
-3.402979736343636
 21
3.24112063574424
 31
0.0
  0
LINE
  5
31B
330
1F
100
AcDbEntity
  8
0
  6
Continuous
 62
     7
370
     9
100
AcDbLine
 10
-3.384979729200917
 20
2.826142774205913
 30
0.0
 11
-3.384979729200917
 21
3.24112063574424
 31
0.0
  0
LINE
  5
31C
330
1F
100
AcDbEntity
  8
0
  6
Continuous
 62
     7
370
     9
100
AcDbLine
 10
-3.380979733868399
 20
2.826142774205913
 30
0.0
 11
-3.380979733868399
 21
3.24112063574424
 31
0.0
  0
LINE
  5
31D
330
1F
100
AcDbEntity
  8
0
  6
Continuous
 62
     7
370
     9
100
AcDbLine
 10
-3.364979780684709
 20
2.826142774205913
 30
0.0
 11
-3.364979780684709
 21
3.24112063574424
 31
0.0
  0
LINE
  5
31E
330
1F
100
AcDbEntity
  8
0
  6
Continuous
 62
     7
370
     9
100
AcDbLine
 10
-3.360979757205805
 20
2.826142774205913
 30
0.0
 11
-3.360979757205805
 21
3.24112063574424
 31
0.0
  0
LINE
  5
31F
330
1F
100
AcDbEntity
  8
0
  6
Continuous
 62
     7
370
     9
100
AcDbLine
 10
-3.335979716011602
 20
2.826142774205913
 30
0.0
 11
-3.335979716011602
 21
3.24112063574424
 31
0.0
  0
LINE
  5
320
330
1F
100
AcDbEntity
  8
0
  6
Continuous
 62
     7
370
     9
100
AcDbLine
 10
-3.150365651107078
 20
2.612521198742627
 30
0.0
 11
-3.355979748966964
 21
2.612521198742627
 31
0.0
  0
LINE
  5
321
330
1F
100
AcDbEntity
  8
0
  6
Continuous
 62
     7
370
     9
100
AcDbLine
 10
-3.110976389893364
 20
2.637521211790445
 30
0.0
 11
-3.360979757205805
 21
2.637521211790445
 31
0.0
  0
LINE
  5
322
330
1F
100
AcDbEntity
  8
0
  6
Continuous
 62
     7
370
     9
100
AcDbLine
 10
-3.110976389893364
 20
2.637521211790445
 30
0.0
 11
-3.110976389893364
 21
2.60252121041133
 31
0.0
  0
LINE
  5
324
330
1F
100
AcDbEntity
  8
0
  6
STRICHLINIEX2
 62
     7
370
     9
100
AcDbLine
 10
-3.172976401986557
 20
3.24112063574424
 30
0.0
 11
-3.172976401986557
 21
2.637521211790445
 31
0.0
  0
LINE
  5
325
330
1F
100
AcDbEntity
  8
0
  6
Continuous
 62
     7
370
     9
100
AcDbLine
 10
-3.110976389893364
 20
2.60252121041133
 30
0.0
 11
-3.150365651107078
 21
2.60252121041133
 31
0.0
  0
LINE
  5
326
330
1F
100
AcDbEntity
  8
0
  6
Continuous
 62
     7
370
     9
100
AcDbLine
 10
-3.150365651107078
 20
2.60252121041133
 30
0.0
 11
-3.150365651107078
 21
2.612521198742627
 31
0.0
  0
LINE
  5
327
330
1F
100
AcDbEntity
  8
0
  6
STRICHLINIEX2
 62
     7
370
     9
100
AcDbLine
 10
-3.597976398628397
 20
3.24112063574424
 30
0.0
 11
-3.597976398628397
 21
2.692769412799894
 31
0.0
  0
LINE
  5
328
330
1F
100
AcDbEntity
  8
0
  6
Continuous
 62
     7
370
     9
100
AcDbLine
 10
-3.653042548820821
 20
2.60252121041133
 30
0.0
 11
-3.653042548820821
 21
2.612521198742627
 31
0.0
  0
LINE
  5
329
330
1F
100
AcDbEntity
  8
0
  6
Continuous
 62
     7
370
     9
100
AcDbLine
 10
-3.653042548820821
 20
2.612521198742627
 30
0.0
 11
-3.643042560489524
 21
2.612521198742627
 31
0.0
  0
LINE
  5
32A
330
1F
100
AcDbEntity
  8
0
  6
Continuous
 62
     7
370
     9
100
AcDbLine
 10
-3.643042560489524
 20
2.612521198742627
 30
0.0
 11
-3.643042560489524
 21
2.60252121041133
 31
0.0
  0
LINE
  5
32B
330
1F
100
AcDbEntity
  8
0
  6
Continuous
 62
     7
370
     9
100
AcDbLine
 10
-3.668042545390958
 20
2.60252121041133
 30
0.0
 11
-3.653042548820821
 21
2.60252121041133
 31
0.0
  0
LINE
  5
32C
330
1F
100
AcDbEntity
  8
0
  6
Continuous
 62
     7
370
     9
100
AcDbLine
 10
-3.423979754058936
 20
2.692521189832154
 30
0.0
 11
-3.443979758867914
 21
2.692521189832154
 31
0.0
  0
LINE
  5
32D
330
1F
100
AcDbEntity
  8
0
  6
Continuous
 62
     7
370
     9
100
AcDbLine
 10
-3.443979758867914
 20
2.687196991532939
 30
0.0
 11
-3.443979758867914
 21
2.692521189832154
 31
0.0
  0
LINE
  5
32E
330
1F
100
AcDbEntity
  8
0
  6
Continuous
 62
     7
370
     9
100
AcDbLine
 10
-3.423979754058936
 20
2.60252121041133
 30
0.0
 11
-3.423979754058936
 21
2.692521189832154
 31
0.0
  0
LINE
  5
32F
330
1F
100
AcDbEntity
  8
0
  6
Continuous
 62
     7
370
     9
100
AcDbLine
 10
-3.668042545390958
 20
2.66252119669188
 30
0.0
 11
-3.638042552250683
 21
2.692521189832154
 31
0.0
  0
LINE
  5
330
330
1F
100
AcDbEntity
  8
0
  6
Continuous
 62
     7
370
     9
100
AcDbLine
 10
-3.668042545390958
 20
2.60252121041133
 30
0.0
 11
-3.668042545390958
 21
2.66252119669188
 31
0.0
  0
LINE
  5
331
330
1F
100
AcDbEntity
  8
0
  6
Continuous
 62
     7
370
     9
100
AcDbLine
 10
-3.598042570779112
 20
2.60252121041133
 30
0.0
 11
-3.598042570779112
 21
2.657196491757738
 31
0.0
  0
LINE
  5
332
330
1F
100
AcDbEntity
  8
0
  6
Continuous
 62
     7
370
     9
100
AcDbLine
 10
-3.423979754058936
 20
2.673840771982761
 30
0.0
 11
-3.598042570779112
 21
2.657196491757738
 31
0.0
  0
LINE
  5
333
330
1F
100
AcDbEntity
  8
000 Kataster
  6
Continuous
 62
   152
420
    27349
370
    20
100
AcDbLine
 10
-3.416106281393671
 20
2.647033113662553
 30
0.0
 11
-3.416106281393671
 21
2.585522454615866
 31
0.0
  0
LINE
  5
334
330
1F
100
AcDbEntity
  8
000 Kataster
  6
Continuous
 62
   152
420
    27349
370
    20
100
AcDbLine
 10
-3.416106281393671
 20
2.585522454615866
 30
0.0
 11
-3.484835840780215
 21
2.585522454615866
 31
0.0
  0
LINE
  5
335
330
1F
100
AcDbEntity
  8
0
  6
Continuous
 62
     7
370
     9
100
AcDbLine
 10
-3.476727576517531
 20
2.686793822716757
 30
0.0
 11
-3.50022757651753
 21
2.686793822716757
 31
0.0
  0
LINE
  5
336
330
1F
100
AcDbEntity
  8
0
  6
Continuous
 62
     7
370
     9
100
AcDbLine
 10
-3.454162389090317
 20
2.692521189832154
 30
0.0
 11
-3.473431000376176
 21
2.692521189832154
 31
0.0
  0
LINE
  5
337
330
1F
100
AcDbEntity
  8
0
  6
Continuous
 62
     7
370
     9
100
AcDbLine
 10
-3.501585137656852
 20
2.692521189832154
 30
0.0
 11
-3.638042552250683
 21
2.692521189832154
 31
0.0
  0
LINE
  5
339
330
1F
100
AcDbEntity
  8
0
  6
STRICHLINIE2_S3
 62
     7
370
     5
100
AcDbLine
 10
-3.474862081566316
 20
2.692521189832154
 30
0.0
 11
-3.502079719316164
 21
2.692521189832154
 31
0.0
  0
LINE
  5
33A
330
1F
100
AcDbEntity
  8
0
  6
Continuous
 62
     7
370
     9
100
AcDbLine
 10
-3.423979754058936
 20
2.673840771982761
 30
0.0
 11
-3.413979765727639
 21
2.673840771982761
 31
0.0
  0
LINE
  5
33B
330
1F
100
AcDbEntity
  8
0
  6
Continuous
 62
     7
370
     9
100
AcDbLine
 10
-3.413979765727639
 20
2.60252121041133
 30
0.0
 11
-3.413979765727639
 21
2.70106367391824
 31
0.0
  0
LINE
  5
33C
330
1F
100
AcDbEntity
  8
0
  6
Continuous
 62
     7
370
     9
100
AcDbLine
 10
-3.448644796980995
 20
2.682208213701642
 30
0.0
 11
-3.668042545390958
 21
2.66252119669188
 31
0.0
  0
LINE
  5
33D
330
1F
100
AcDbEntity
  8
0
  6
Continuous
 62
     7
370
     9
100
AcDbLine
 10
-3.643042560489524
 20
2.60252121041133
 30
0.0
 11
-3.413979765727639
 21
2.60252121041133
 31
0.0
  0
LINE
  5
33E
330
1F
100
AcDbEntity
  8
0
  6
Continuous
 62
     7
370
     9
100
AcDbLine
 10
-3.62152757651753
 20
2.692521189832154
 30
0.0
 11
-3.62152757651753
 21
3.241120635744239
 31
0.0
  0
LINE
  5
33F
330
1F
100
AcDbEntity
  8
000 Kataster
  6
Continuous
 62
     7
370
     9
100
AcDbLine
 10
-3.484477576517533
 20
2.686793822716757
 30
0.0
 11
-3.484477576517533
 21
3.362360769814621
 31
0.0
  0
LINE
  5
340
330
1F
100
AcDbEntity
  8
000 Kataster
  6
Continuous
 62
     7
370
     9
100
AcDbLine
 10
-3.492477576517528
 20
2.686793822716757
 30
0.0
 11
-3.492477576517528
 21
3.362360769814621
 31
0.0
  0
LINE
  5
341
330
1F
100
AcDbEntity
  8
000 Kataster
  6
Continuous
 62
     7
370
     9
100
AcDbLine
 10
-3.478877576517532
 20
2.686793822716757
 30
0.0
 11
-3.478877576517532
 21
3.34236076981466
 31
0.0
  0
LINE
  5
342
330
1F
100
AcDbEntity
  8
000 Kataster
  6
Continuous
 62
     7
370
     9
100
AcDbLine
 10
-3.49807757651753
 20
2.686793822716757
 30
0.0
 11
-3.49807757651753
 21
3.34236076981466
 31
0.0
  0
LINE
  5
343
330
1F
100
AcDbEntity
  8
000 Kataster
  6
Continuous
 62
     7
370
     9
100
AcDbLine
 10
-3.50022757651753
 20
2.686793822716757
 30
0.0
 11
-3.50022757651753
 21
3.301676284470196
 31
0.0
  0
LINE
  5
344
330
1F
100
AcDbEntity
  8
000 Kataster
  6
Continuous
 62
     7
370
     9
100
AcDbLine
 10
-3.476727576517531
 20
2.686793822716757
 30
0.0
 11
-3.476727576517531
 21
3.301676284470196
 31
0.0
  0
ARC
  5
345
330
1F
100
AcDbEntity
  8
0
  6
Continuous
 62
     7
370
     9
100
AcDbCircle
 10
-3.448979762233552
 20
2.687196981705884
 30
0.0
 40
0.0049999999999999
100
AcDbArc
 50
273.8412717517086
 51
359.9999826913298
  0
ARC
  5
346
330
1F
100
AcDbEntity
  8
0
  6
Continuous
 62
     7
370
     9
100
AcDbCircle
 10
-3.422863368843148
 20
2.701334379915759
 30
0.0
 40
0.0088836066095981
100
AcDbArc
 50
262.7806123790268
 51
0.0
  0
LWPOLYLINE
  5
348
330
1F
100
AcDbEntity
  8
0
  6
STRICHLINIE_S4
 62
     7
370
     9
100
AcDbPolyline
 90
        4
 70
   129
 43
0.0
 10
-4.34901474429602
 20
3.241120635744239
 10
-4.34901474429602
 20
1.305201840982004
 10
-2.460144634588835
 20
1.305201840982004
 10
-2.460144634588835
 20
3.241120635744239
  0
VIEWPORT
  5
6A
330
1B
100
AcDbEntity
 67
     1
  8
0
  6
Continuous
370
     0
100
AcDbViewport
 10
105.0
 20
148.5
 30
0.0
 40
0.252
 41
0.3564
 68
     1
 69
     1
 12
105.0
 22
148.5
 13
0.0
 23
0.0
 14
0.5
 24
0.5
 15
0.0
 25
0.0
 16
0.0
 26
0.0
 36
1.0
 17
0.0
 27
0.0
 37
0.0
 42
50.0
 43
0.0
 44
0.0
 45
0.3564
 50
0.0
 51
0.0
 72
   100
 90
   557152
  1

281
     0
 71
     1
 74
     0
110
0.0
120
0.0
130
0.0
111
1.0
121
0.0
131
0.0
112
0.0
122
1.0
132
0.0
 79
     0
146
0.0
170
     0
 61
     5
292
     1
282
     1
141
0.0
142
0.0
 63
   256
361
369
  0
LINE
  5
349
330
1B
100
AcDbEntity
 67
     1
  8
000 Kataster
  6
Continuous
 62
     8
 48
1000.0
370
    60
100
AcDbLine
 10
158.6223069589488
 20
232.4730709378237
 30
0.0
 11
15.0
 21
232.4730709378238
 31
0.0
  0
VIEWPORT
  5
34A
330
1B
100
AcDbEntity
 67
     1
  8
NonPlottable_000 Kataster
  6
Continuous
 62
     7
 48
1000.0
370
     9
100
AcDbViewport
 10
160.0
 20
232.0
 30
0.0
 40
59.99999999999997
 41
40.0
 68
     2
 69
     2
 12
0.0
 22
0.0
 13
0.0
 23
0.0
 14
0.5
 24
0.5
 15
0.0
 25
0.0
 16
0.0
 26
0.0
 36
1.0
 17
-3.702914188508507
 27
2.628533691588189
 37
0.0
 42
50.0
 43
0.0
 44
0.0
 45
0.8000000000000002
 50
0.0
 51
0.0
 72
   100
 90
   622688
340
34C
  1

281
     0
 71
     1
 74
     0
110
0.0
120
0.0
130
0.0
111
1.0
121
0.0
131
0.0
112
0.0
122
1.0
132
0.0
 79
     0
146
0.0
170
     0
 61
     5
292
     1
282
     1
141
0.0
142
0.0
 63
   256
  0
LWPOLYLINE
  5
34C
102
{ACAD_REACTORS
330
34A
102
}
330
1B
100
AcDbEntity
 67
     1
  8
NonPlottable_000 Kataster
  6
Continuous
 62
     7
 48
1000.0
370
     9
100
AcDbPolyline
 90
        4
 70
   129
 43
0.0
 10
130.0
 20
212.0
 10
190.0
 20
212.0
 10
190.0
 20
252.0
 10
130.0
 20
252.0
  0
VIEWPORT
  5
34D
330
1B
100
AcDbEntity
 67
     1
  8
NonPlottable_000 Kataster
  6
Continuous
 62
    59
420
  5000268
 48
1000.0
370
     9
100
AcDbViewport
 10
101.9554094886983
 20
113.5
 30
0.0
 40
176.0891810226034
 41
177.0
 68
     3
 69
     3
 12
0.0
 22
0.0
 13
0.0
 23
0.0
 14
0.5
 24
0.5
 15
0.0
 25
0.0
 16
0.0
 26
0.0
 36
1.0
 17
-5.959259277662183
 27
3.741031584211449
 37
0.0
 42
50.0
 43
0.0
 44
0.0
 45
0.354
 50
0.0
 51
0.0
 72
   100
 90
   622688
340
34E
  1

281
     0
 71
     1
 74
     0
110
0.0
120
0.0
130
0.0
111
1.0
121
0.0
131
0.0
112
0.0
122
1.0
132
0.0
 79
     0
146
0.0
170
     0
 61
     5
292
     1
282
     1
141
0.0
142
0.0
 63
   256
  0
LWPOLYLINE
  5
34E
102
{ACAD_REACTORS
330
34D
102
}
330
1B
100
AcDbEntity
 67
     1
  8
NonPlottable_000 Kataster
  6
Continuous
 62
    59
420
  5000268
 48
1000.0
370
     9
100
AcDbPolyline
 90
        4
 70
   129
 43
0.0
 10
13.9108189773966
 20
25.0
 10
190.0
 20
25.0
 10
190.0
 20
202.0
 10
13.9108189773966
 20
202.0
  0
HATCH
  5
34F
330
1B
100
AcDbEntity
 67
     1
  8
000 Kataster
  6
Continuous
 62
   255
 48
1000.0
370
     5
100
AcDbHatch
 10
0.0
 20
0.0
 30
0.0
210
0.0
220
0.0
230
1.0
  2
SOLID
 70
     1
 71
     0
 91
        1
 92
        3
 72
     0
 73
     1
 93
        4
 10
107.3034529346785
 20
72.35212846682417
 10
174.5818325141358
 20
72.35212846682417
 10
174.5818325141358
 20
39.68110087186383
 10
107.3034529346785
 20
39.68110087186383
 97
        0
 75
     0
 76
     1
 98
        0
  0
LINE
  5
350
330
1B
100
AcDbEntity
 67
     1
  8
0
  6
Continuous
 62
     7
 48
1000.0
370
    13
100
AcDbLine
 10
43.58777777378118
 20
73.48074479903671
 30
0.0
 11
22.21792425395968
 21
73.48074479903671
 31
0.0
  0
CIRCLE
  5
351
330
1B
100
AcDbEntity
 67
     1
  8
0
  6
Continuous
 62
     7
 48
1000.0
370
     5
100
AcDbCircle
 10
44.18777777378119
 20
73.48074479903671
 30
0.0
 40
0.6
  0
HATCH
  5
352
330
1B
100
AcDbEntity
 67
     1
  8
0
  6
Continuous
 62
   178
420
        0
 48
1000.0
370
     0
100
AcDbHatch
 10
0.0
 20
0.0
 30
0.0
210
0.0
220
0.0
230
1.0
  2
SOLID
 70
     1
 71
     0
 91
        1
 92
        3
 72
     0
 73
     1
 93
       16
 10
43.58777777378118
 20
73.48074479903671
 10
43.63345006117122
 20
73.25113473895517
 10
43.76351370111114
 20
73.05648072636666
 10
43.95816771369964
 20
72.92641708642674
 10
44.18777777378119
 20
72.8807447990367
 10
44.41738783386273
 20
72.92641708642674
 10
44.61204184645125
 20
73.05648072636666
 10
44.74210548639116
 20
73.25113473895517
 10
44.78777777378119
 20
73.48074479903671
 10
44.74210548639116
 20
73.71035485911825
 10
44.61204184645125
 20
73.90500887170677
 10
44.41738783386273
 20
74.03507251164669
 10
44.18777777378119
 20
74.08074479903672
 10
43.95816771369964
 20
74.03507251164669
 10
43.76351370111114
 20
73.90500887170677
 10
43.63345006117122
 20
73.71035485911825
 97
        0
 75
     0
 76
     1
 98
        0
  0
LINE
  5
353
330
1B
100
AcDbEntity
 67
     1
  8
0
  6
Continuous
 62
     7
 48
1000.0
370
    13
100
AcDbLine
 10
39.65319286318827
 20
65.6621063351664
 30
0.0
 11
22.21792425395968
 21
65.6621063351664
 31
0.0
  0
CIRCLE
  5
354
330
1B
100
AcDbEntity
 67
     1
  8
0
  6
Continuous
 62
     7
 48
1000.0
370
     5
100
AcDbCircle
 10
40.25319286318827
 20
65.6621063351664
 30
0.0
 40
0.6
  0
HATCH
  5
355
330
1B
100
AcDbEntity
 67
     1
  8
0
  6
Continuous
 62
   178
420
        0
 48
1000.0
370
     0
100
AcDbHatch
 10
0.0
 20
0.0
 30
0.0
210
0.0
220
0.0
230
1.0
  2
SOLID
 70
     1
 71
     0
 91
        1
 92
        3
 72
     0
 73
     1
 93
       16
 10
39.65319286318827
 20
65.6621063351664
 10
39.69886515057831
 20
65.43249627508484
 10
39.82892879051823
 20
65.23784226249633
 10
40.02358280310673
 20
65.10777862255641
 10
40.25319286318827
 20
65.06210633516639
 10
40.48280292326982
 20
65.10777862255641
 10
40.67745693585834
 20
65.23784226249633
 10
40.80752057579825
 20
65.43249627508484
 10
40.85319286318828
 20
65.6621063351664
 10
40.80752057579825
 20
65.89171639524794
 10
40.67745693585834
 20
66.08637040783645
 10
40.48280292326982
 20
66.21643404777637
 10
40.25319286318827
 20
66.2621063351664
 10
40.02358280310673
 20
66.21643404777637
 10
39.82892879051823
 20
66.08637040783645
 10
39.69886515057831
 20
65.89171639524794
 97
        0
 75
     0
 76
     1
 98
        0
  0
LINE
  5
356
330
1B
100
AcDbEntity
 67
     1
  8
0
  6
Continuous
 62
     7
 48
1000.0
370
    13
100
AcDbLine
 10
38.32131032922062
 20
57.84346787129607
 30
0.0
 11
22.21792425395968
 21
57.84346787129607
 31
0.0
  0
CIRCLE
  5
357
330
1B
100
AcDbEntity
 67
     1
  8
0
  6
Continuous
 62
     7
 48
1000.0
370
     5
100
AcDbCircle
 10
38.92131032922062
 20
57.84346787129607
 30
0.0
 40
0.6
  0
HATCH
  5
358
330
1B
100
AcDbEntity
 67
     1
  8
0
  6
Continuous
 62
   178
420
        0
 48
1000.0
370
     0
100
AcDbHatch
 10
0.0
 20
0.0
 30
0.0
210
0.0
220
0.0
230
1.0
  2
SOLID
 70
     1
 71
     0
 91
        1
 92
        3
 72
     0
 73
     1
 93
       16
 10
38.32131032922062
 20
57.84346787129607
 10
38.36698261661065
 20
57.61385781121453
 10
38.49704625655058
 20
57.41920379862602
 10
38.69170026913908
 20
57.2891401586861
 10
38.92131032922062
 20
57.24346787129607
 10
39.15092038930216
 20
57.2891401586861
 10
39.34557440189068
 20
57.41920379862602
 10
39.47563804183059
 20
57.61385781121453
 10
39.52131032922063
 20
57.84346787129607
 10
39.47563804183059
 20
58.07307793137761
 10
39.34557440189068
 20
58.26773194396613
 10
39.15092038930216
 20
58.39779558390605
 10
38.92131032922062
 20
58.44346787129608
 10
38.69170026913908
 20
58.39779558390605
 10
38.49704625655058
 20
58.26773194396613
 10
38.36698261661065
 20
58.07307793137761
 97
        0
 75
     0
 76
     1
 98
        0
  0
LINE
  5
359
330
1B
100
AcDbEntity
 67
     1
  8
0
  6
Continuous
 62
     7
 48
1000.0
370
    13
100
AcDbLine
 10
37.6574932988765
 20
50.02482940742576
 30
0.0
 11
22.21792425395968
 21
50.02482940742576
 31
0.0
  0
CIRCLE
  5
35A
330
1B
100
AcDbEntity
 67
     1
  8
0
  6
Continuous
 62
     7
 48
1000.0
370
     5
100
AcDbCircle
 10
38.2574932988765
 20
50.02482940742576
 30
0.0
 40
0.6
  0
HATCH
  5
35B
330
1B
100
AcDbEntity
 67
     1
  8
0
  6
Continuous
 62
   178
420
        0
 48
1000.0
370
     0
100
AcDbHatch
 10
0.0
 20
0.0
 30
0.0
210
0.0
220
0.0
230
1.0
  2
SOLID
 70
     1
 71
     0
 91
        1
 92
        3
 72
     0
 73
     1
 93
       16
 10
37.6574932988765
 20
50.02482940742576
 10
37.70316558626652
 20
49.79521934734421
 10
37.83322922620645
 20
49.6005653347557
 10
38.02788323879496
 20
49.47050169481578
 10
38.2574932988765
 20
49.42482940742575
 10
38.48710335895804
 20
49.47050169481578
 10
38.68175737154655
 20
49.6005653347557
 10
38.81182101148647
 20
49.79521934734421
 10
38.8574932988765
 20
50.02482940742576
 10
38.81182101148647
 20
50.2544394675073
 10
38.68175737154655
 20
50.44909348009581
 10
38.48710335895804
 20
50.57915712003572
 10
38.2574932988765
 20
50.62482940742576
 10
38.02788323879496
 20
50.57915712003572
 10
37.83322922620645
 20
50.44909348009581
 10
37.70316558626652
 20
50.2544394675073
 97
        0
 75
     0
 76
     1
 98
        0
  0
LINE
  5
35C
330
1B
100
AcDbEntity
 67
     1
  8
0
  6
Continuous
 62
     7
 48
1000.0
370
    13
100
AcDbLine
 10
30.90401637648465
 20
80.43837346741158
 30
0.0
 11
22.21792425395968
 21
80.43837346741158
 31
0.0
  0
LINE
  5
35D
330
1B
100
AcDbEntity
 67
     1
  8
0
  6
Continuous
 62
     7
 48
1000.0
370
    13
100
AcDbLine
 10
30.90401637648465
 20
80.43837346741158
 30
0.0
 11
40.31844802799522
 21
89.52117663940473
 31
0.0
  0
CIRCLE
  5
35E
330
1B
100
AcDbEntity
 67
     1
  8
0
  6
Continuous
 62
     7
 48
1000.0
370
     5
100
AcDbCircle
 10
40.75024914160942
 20
89.93776732374795
 30
0.0
 40
0.6
  0
HATCH
  5
35F
330
1B
100
AcDbEntity
 67
     1
  8
0
  6
Continuous
 62
   178
420
        0
 48
1000.0
370
     0
100
AcDbHatch
 10
0.0
 20
0.0
 30
0.0
210
0.0
220
0.0
230
1.0
  2
SOLID
 70
     1
 71
     0
 91
        1
 92
        3
 72
     0
 73
     1
 93
       16
 10
40.15024914160941
 20
89.93776732374795
 10
40.19592142899944
 20
89.70815726366641
 10
40.32598506893936
 20
89.51350325107789
 10
40.52063908152788
 20
89.38343961113797
 10
40.75024914160942
 20
89.33776732374794
 10
40.97985920169096
 20
89.38343961113797
 10
41.17451321427946
 20
89.51350325107789
 10
41.30457685421938
 20
89.70815726366641
 10
41.35024914160942
 20
89.93776732374795
 10
41.30457685421938
 20
90.16737738382949
 10
41.17451321427946
 20
90.362031396418
 10
40.97985920169096
 20
90.49209503635792
 10
40.75024914160942
 20
90.53776732374796
 10
40.52063908152788
 20
90.49209503635792
 10
40.32598506893936
 20
90.362031396418
 10
40.19592142899944
 20
90.16737738382949
 97
        0
 75
     0
 76
     1
 98
        0
  0
CIRCLE
  5
360
330
1B
100
AcDbEntity
 67
     1
  8
000 Kataster
  6
Continuous
 62
     8
 48
1000.0
370
    60
100
AcDbCircle
 10
169.2850352080273
 20
232.4730709378237
 30
0.0
 40
10.66272824907846
  0
MTEXT
  5
362
330
1B
100
AcDbEntity
 67
     1
  8
000 Kataster
  6
Continuous
 62
     7
370
    13
100
AcDbMText
 10
15.0
 20
72.2339160604406
 30
0.0
 40
2.2
 41
0.0
 46
0.0
 71
     7
 72
     1
  1
\A1;{\pql;\fArial|b0|i0|c0|p34;1/11}
  7
ERSTELLTER_STIL_1
 73
     1
 44
1.0
  0
MTEXT
  5
363
330
1B
100
AcDbEntity
 67
     1
  8
000 Kataster
  6
Continuous
 62
     7
370
    13
100
AcDbMText
 10
15.0
 20
64.41527287615031
 30
0.0
 40
2.2
 41
0.0
 46
0.0
 71
     7
 72
     1
  1
\A1;{\pql;\fArial|b0|i0|c0|p34;2/12}
  7
ERSTELLTER_STIL_1
 73
     1
 44
1.0
  0
MTEXT
  5
364
330
1B
100
AcDbEntity
 67
     1
  8
000 Kataster
  6
Continuous
 62
     7
370
    13
100
AcDbMText
 10
19.00779100320635
 20
56.59521845623875
 30
0.0
 40
2.2
 41
0.0
 46
0.0
 71
     7
 72
     1
  1
\A1;{\pql;\fArial|b0|i0|c0|p34;3}
  7
ERSTELLTER_STIL_1
 73
     1
 44
1.0
  0
MTEXT
  5
365
330
1B
100
AcDbEntity
 67
     1
  8
000 Kataster
  6
Continuous
 62
     7
370
    13
100
AcDbMText
 10
19.00779100320635
 20
48.81487984471018
 30
0.0
 40
2.2
 41
0.0
 46
0.0
 71
     7
 72
     1
  1
\A1;{\pql;\fArial|b0|i0|c0|p34;4}
  7
ERSTELLTER_STIL_1
 73
     1
 44
1.0
  0
MTEXT
  5
366
330
1B
100
AcDbEntity
 67
     1
  8
000 Kataster
  6
Continuous
 62
     7
370
    13
100
AcDbMText
 10
17.31399100320634
 20
79.19159702072022
 30
0.0
 40
2.2
 41
0.0
 46
0.0
 71
     7
 72
     1
  1
\A1;{\pql;\fArial|b0|i0|c0|p34;18}
  7
ERSTELLTER_STIL_1
 73
     1
 44
1.0
  0
MTEXT
  5
367
330
1B
100
AcDbEntity
 67
     1
  8
000 Kataster
  6
Continuous
 62
     7
370
    13
100
AcDbMText
 10
113.9396444654811
 20
69.6915140688571
 30
0.0
 40
2.2
 41
0.0
 46
0.0
 71
     3
 72
     1
  1
\A1;{\pqr;\fArial|b0|i0|c0|p34;1\P\pqr;\fArial|b0|i0|c0|p34;2\P\pqr;\fArial|b0|i0|c0|p34;3\P\pqr;\fArial|b0|i0|c0|p34;4\P\pqr;\fArial|b0|i0|c0|p34;11\P\pqr;\fArial|b0|i0|c0|p34;12\P\pqr;\fArial|b0|i0|c0|p34;18}
  7
ERSTELLTER_STIL_1
 73
     1
 44
1.128698675455605
  0
MTEXT
  5
368
330
1B
100
AcDbEntity
 67
     1
  8
000 Kataster
  6
Continuous
 62
     7
370
     9
100
AcDbMText
 10
117.2039988782805
 20
69.69148648949202
 30
0.0
 40
2.200120659722224
 41
0.0
 46
0.0
 71
     1
 72
     1
  3
\A1;{\pql;\fArial|b0|i0|c0|p34;Leichtgrundputz, Fixit 622 / 623 / 666\P\pql;\fArial|b0|i0|c0|p34;Netzeinbettung vollflächig, Fixit 460 / 461\P\pql;\fArial|b0|i0|c0|p34;Mineralischer Deckputz\P\pql;\fArial|b0|i0|c0|p34;Mineralischer Anstrich \P\pql;\f
  1
Arial|b0|i0|c0|p34;Aerogeldämmputz, Fixit 222\P\pql;\fArial|b0|i0|c0|p34;Spezial Einbettmörtel, Fixit 223\P\pql;\fArial|b0|i0|c0|p34;verdeckte Kittfuge}
  7
ERSTELLTER_STIL_1
 73
     1
 44
1.12247873667043
  0
ENDSEC
  0
SECTION
  2
OBJECTS
  0
DICTIONARY
  5
C
330
0
100
AcDbDictionary
281
     1
  3
ACAD_DETAILVIEWSTYLE
350
3A1
  3
ACAD_GROUP
350
D
  3
ACAD_LAYOUT
350
1A
  3
ACAD_MATERIAL
350
43
  3
ACAD_MLEADERSTYLE
350
39F
  3
ACAD_MLINESTYLE
350
17
  3
ACAD_PLOTSETTINGS
350
19
  3
ACAD_PLOTSTYLENAME
350
E
  3
ACAD_SCALELIST
350
47
  3
ACAD_SECTIONVIEWSTYLE
350
3A2
  3
ACAD_TABLESTYLE
350
39E
  3
ACAD_VISUALSTYLE
350
2A
  3
AcDbVariableDictionary
350
36C
  3
WATERMARKS
350
36A
  0
SUN
  5
69
330
29
100
AcDbSun
 90
        1
290
     0
 63
     7
421
 16777215
 40
1.0
291
     1
 91
  2455826
 92
 54000000
292
     0
 70
     2
 71
   256
280
     1
  0
SUN
  5
369
330
6A
100
AcDbSun
 90
        1
290
     0
 63
     7
421
 16777215
 40
1.0
291
     1
 91
  2455826
 92
 54000000
292
     0
 70
     2
 71
   256
280
     1
  0
DICTIONARY
  5
3A1
102
{ACAD_REACTORS
330
C
102
}
330
C
100
AcDbDictionary
281
     1
  0
DICTIONARY
  5
D
102
{ACAD_REACTORS
330
C
102
}
330
C
100
AcDbDictionary
281
     1
  0
DICTIONARY
  5
1A
102
{ACAD_REACTORS
330
C
102
}
330
C
100
AcDbDictionary
281
     1
  3
07 Detail B1
350
1E
  3
Model
350
22
  0
DICTIONARY
  5
43
102
{ACAD_REACTORS
330
C
102
}
330
C
100
AcDbDictionary
281
     1
  3
ByBlock
350
45
  3
ByLayer
350
44
  3
Global
350
46
  0
DICTIONARY
  5
39F
102
{ACAD_REACTORS
330
C
102
}
330
C
100
AcDbDictionary
281
     1
  0
DICTIONARY
  5
17
102
{ACAD_REACTORS
330
C
102
}
330
C
100
AcDbDictionary
281
     1
  3
Standard
350
18
  0
DICTIONARY
  5
19
102
{ACAD_REACTORS
330
C
102
}
330
C
100
AcDbDictionary
281
     1
  0
ACDBDICTIONARYWDFLT
  5
E
102
{ACAD_REACTORS
330
C
102
}
330
C
100
AcDbDictionary
281
     1
  3
Normal
350
F
100
AcDbDictionaryWithDefault
340
F
  0
DICTIONARY
  5
47
102
{ACAD_REACTORS
330
C
102
}
330
C
100
AcDbDictionary
281
     1
  3
A0
350
48
  3
A1
350
49
  3
A2
350
4A
  3
A3
350
4B
  3
A4
350
4C
  3
A5
350
4D
  3
A6
350
4E
  3
A7
350
4F
  3
A8
350
50
  3
A9
350
51
  3
B0
350
52
  3
B1
350
53
  3
B2
350
54
  3
B3
350
55
  3
B4
350
56
  3
B5
350
57
  3
B6
350
58
  3
B7
350
59
  3
B8
350
5A
  3
B9
350
5B
  3
C0
350
5C
  3
C1
350
5D
  3
C2
350
5E
  3
C3
350
5F
  3
C4
350
60
  3
C5
350
61
  3
C6
350
62
  3
C7
350
63
  3
C8
350
64
  3
C9
350
65
  3
D0
350
66
  3
D1
350
67
  3
D2
350
68
  0
DICTIONARY
  5
3A2
102
{ACAD_REACTORS
330
C
102
}
330
C
100
AcDbDictionary
281
     1
  0
DICTIONARY
  5
39E
102
{ACAD_REACTORS
330
C
102
}
330
C
100
AcDbDictionary
281
     1
  0
DICTIONARY
  5
2A
102
{ACAD_REACTORS
330
C
102
}
330
C
100
AcDbDictionary
281
     1
  3
2dWireframe
350
2F
  3
Basic
350
32
  3
Brighten
350
36
  3
ColorChange
350
3A
  3
Conceptual
350
34
  3
Dim
350
35
  3
EdgeColorOff
350
3D
  3
Facepattern
350
39
  3
Flat
350
2B
  3
FlatWithEdges
350
2C
  3
Gouraud
350
2D
  3
GouraudWithEdges
350
2E
  3
Hidden
350
31
  3
JitterOff
350
3B
  3
Linepattern
350
38
  3
OverhangOff
350
3C
  3
Realistic
350
33
  3
Shaded
350
42
  3
Shaded with edges
350
41
  3
Shades of Gray
350
3E
  3
Sketchy
350
3F
  3
Thicken
350
37
  3
Wireframe
350
30
  3
X-Ray
350
40
  0
DICTIONARY
  5
36C
102
{ACAD_REACTORS
330
C
102
}
330
C
100
AcDbDictionary
281
     1
  3
CANNOSCALE
350
36D
  3
XCLIPFRAME
350
3A0
  0
DICTIONARY
  5
36A
102
{ACAD_REACTORS
330
C
102
}
330
C
100
AcDbDictionary
281
     1
  3
AC_WATERMARK
350
36B
  0
LAYOUT
  5
1E
102
{ACAD_REACTORS
330
1A
102
}
330
1A
100
AcDbPlotSettings
  1

  2
none_device
  4

  6

 40
15.0
 41
25.0
 42
20.0
 43
45.0
 44
210.0
 45
297.0
 46
0.0
 47
0.0
 48
0.0
 49
0.0
140
0.0
141
0.0
142
1.0
143
1.0
 70
   688
 72
     1
 73
     0
 74
     5
  7

 75
    16
 76
     0
 77
     2
 78
   300
147
1.0
148
-15.0
149
-25.0
100
AcDbLayout
  1
07 Detail B1
 70
     0
 71
     1
 10
0.0
 20
0.0
 11
12.0
 21
9.0
 12
0.0
 22
0.0
 32
0.0
 14
1.000000000000000E+20
 24
1.000000000000000E+20
 34
1.000000000000000E+20
 15
-1.000000000000000E+20
 25
-1.000000000000000E+20
 35
-1.000000000000000E+20
146
0.0
 13
0.0
 23
0.0
 33
0.0
 16
1.0
 26
0.0
 36
0.0
 17
0.0
 27
1.0
 37
0.0
 76
     0
330
1B
331
6A
  0
LAYOUT
  5
22
102
{ACAD_REACTORS
330
1A
102
}
330
1A
100
AcDbPlotSettings
  1

  2
none_device
  4
Letter_(8.50_x_11.00_Inches)
  6

 40
6.35
 41
6.35
 42
6.35000508
 43
6.35000508
 44
215.9
 45
279.4
 46
0.0
 47
0.0
 48
0.0
 49
0.0
140
0.0
141
0.0
142
1.0
143
1.0
 70
  1712
 72
     0
 73
     0
 74
     0
  7

 75
     0
 76
     0
 77
     2
 78
   300
147
1.0
148
0.0
149
0.0
100
AcDbLayout
  1
Model
 70
     1
 71
     0
 10
0.0
 20
0.0
 11
12.0
 21
9.0
 12
0.0
 22
0.0
 32
0.0
 14
1.000000000000000E+20
 24
1.000000000000000E+20
 34
1.000000000000000E+20
 15
-1.000000000000000E+20
 25
-1.000000000000000E+20
 35
-1.000000000000000E+20
146
0.0
 13
0.0
 23
0.0
 33
0.0
 16
1.0
 26
0.0
 36
0.0
 17
0.0
 27
1.0
 37
0.0
 76
     0
330
1F
331
29
  0
MATERIAL
  5
45
102
{ACAD_REACTORS
330
43
102
}
330
43
100
AcDbMaterial
  1
ByBlock
 72
     1
 94
      127
  0
MATERIAL
  5
44
102
{ACAD_REACTORS
330
43
102
}
330
43
100
AcDbMaterial
  1
ByLayer
 72
     1
 94
      127
  0
MATERIAL
  5
46
102
{ACAD_REACTORS
330
43
102
}
330
43
100
AcDbMaterial
  1
Global
 72
     1
 94
      127
  0
MLINESTYLE
  5
18
102
{ACAD_REACTORS
330
17
102
}
330
17
100
AcDbMlineStyle
  2
Standard
 70
     0
  3

 62
   256
 51
90.0
 52
90.0
 71
     2
 49
0.5
 62
   256
  6
BYLAYER
 49
-0.5
 62
   256
  6
BYLAYER
  0
ACDBPLACEHOLDER
  5
F
102
{ACAD_REACTORS
330
E
102
}
330
E
  0
SCALE
  5
48
102
{ACAD_REACTORS
330
47
102
}
330
47
100
AcDbScale
 70
     0
300
1:1
140
1.0
141
1.0
290
     1
  0
SCALE
  5
49
102
{ACAD_REACTORS
330
47
102
}
330
47
100
AcDbScale
 70
     0
300
1:2
140
1.0
141
2.0
290
     0
  0
SCALE
  5
4A
102
{ACAD_REACTORS
330
47
102
}
330
47
100
AcDbScale
 70
     0
300
1:4
140
1.0
141
4.0
290
     0
  0
SCALE
  5
4B
102
{ACAD_REACTORS
330
47
102
}
330
47
100
AcDbScale
 70
     0
300
1:5
140
1.0
141
5.0
290
     0
  0
SCALE
  5
4C
102
{ACAD_REACTORS
330
47
102
}
330
47
100
AcDbScale
 70
     0
300
1:8
140
1.0
141
8.0
290
     0
  0
SCALE
  5
4D
102
{ACAD_REACTORS
330
47
102
}
330
47
100
AcDbScale
 70
     0
300
1:10
140
1.0
141
10.0
290
     0
  0
SCALE
  5
4E
102
{ACAD_REACTORS
330
47
102
}
330
47
100
AcDbScale
 70
     0
300
1:16
140
1.0
141
16.0
290
     0
  0
SCALE
  5
4F
102
{ACAD_REACTORS
330
47
102
}
330
47
100
AcDbScale
 70
     0
300
1:20
140
1.0
141
20.0
290
     0
  0
SCALE
  5
50
102
{ACAD_REACTORS
330
47
102
}
330
47
100
AcDbScale
 70
     0
300
1:30
140
1.0
141
30.0
290
     0
  0
SCALE
  5
51
102
{ACAD_REACTORS
330
47
102
}
330
47
100
AcDbScale
 70
     0
300
1:40
140
1.0
141
40.0
290
     0
  0
SCALE
  5
52
102
{ACAD_REACTORS
330
47
102
}
330
47
100
AcDbScale
 70
     0
300
1:50
140
1.0
141
50.0
290
     0
  0
SCALE
  5
53
102
{ACAD_REACTORS
330
47
102
}
330
47
100
AcDbScale
 70
     0
300
1:100
140
1.0
141
100.0
290
     0
  0
SCALE
  5
54
102
{ACAD_REACTORS
330
47
102
}
330
47
100
AcDbScale
 70
     0
300
2:1
140
2.0
141
1.0
290
     0
  0
SCALE
  5
55
102
{ACAD_REACTORS
330
47
102
}
330
47
100
AcDbScale
 70
     0
300
4:1
140
4.0
141
1.0
290
     0
  0
SCALE
  5
56
102
{ACAD_REACTORS
330
47
102
}
330
47
100
AcDbScale
 70
     0
300
8:1
140
8.0
141
1.0
290
     0
  0
SCALE
  5
57
102
{ACAD_REACTORS
330
47
102
}
330
47
100
AcDbScale
 70
     0
300
10:1
140
10.0
141
1.0
290
     0
  0
SCALE
  5
58
102
{ACAD_REACTORS
330
47
102
}
330
47
100
AcDbScale
 70
     0
300
100:1
140
100.0
141
1.0
290
     0
  0
SCALE
  5
59
102
{ACAD_REACTORS
330
47
102
}
330
47
100
AcDbScale
 70
     0
300
1/128" = 1'-0"
140
0.0078125
141
12.0
290
     0
  0
SCALE
  5
5A
102
{ACAD_REACTORS
330
47
102
}
330
47
100
AcDbScale
 70
     0
300
1/64" = 1'-0"
140
0.015625
141
12.0
290
     0
  0
SCALE
  5
5B
102
{ACAD_REACTORS
330
47
102
}
330
47
100
AcDbScale
 70
     0
300
1/32" = 1'-0"
140
0.03125
141
12.0
290
     0
  0
SCALE
  5
5C
102
{ACAD_REACTORS
330
47
102
}
330
47
100
AcDbScale
 70
     0
300
1/16" = 1'-0"
140
0.0625
141
12.0
290
     0
  0
SCALE
  5
5D
102
{ACAD_REACTORS
330
47
102
}
330
47
100
AcDbScale
 70
     0
300
3/32" = 1'-0"
140
0.09375
141
12.0
290
     0
  0
SCALE
  5
5E
102
{ACAD_REACTORS
330
47
102
}
330
47
100
AcDbScale
 70
     0
300
1/8" = 1'-0"
140
0.125
141
12.0
290
     0
  0
SCALE
  5
5F
102
{ACAD_REACTORS
330
47
102
}
330
47
100
AcDbScale
 70
     0
300
3/16" = 1'-0"
140
0.1875
141
12.0
290
     0
  0
SCALE
  5
60
102
{ACAD_REACTORS
330
47
102
}
330
47
100
AcDbScale
 70
     0
300
1/4" = 1'-0"
140
0.25
141
12.0
290
     0
  0
SCALE
  5
61
102
{ACAD_REACTORS
330
47
102
}
330
47
100
AcDbScale
 70
     0
300
3/8" = 1'-0"
140
0.375
141
12.0
290
     0
  0
SCALE
  5
62
102
{ACAD_REACTORS
330
47
102
}
330
47
100
AcDbScale
 70
     0
300
1/2" = 1'-0"
140
0.5
141
12.0
290
     0
  0
SCALE
  5
63
102
{ACAD_REACTORS
330
47
102
}
330
47
100
AcDbScale
 70
     0
300
3/4" = 1'-0"
140
0.75
141
12.0
290
     0
  0
SCALE
  5
64
102
{ACAD_REACTORS
330
47
102
}
330
47
100
AcDbScale
 70
     0
300
1" = 1'-0"
140
1.0
141
12.0
290
     0
  0
SCALE
  5
65
102
{ACAD_REACTORS
330
47
102
}
330
47
100
AcDbScale
 70
     0
300
1-1/2" = 1'-0"
140
1.5
141
12.0
290
     0
  0
SCALE
  5
66
102
{ACAD_REACTORS
330
47
102
}
330
47
100
AcDbScale
 70
     0
300
3" = 1'-0"
140
3.0
141
12.0
290
     0
  0
SCALE
  5
67
102
{ACAD_REACTORS
330
47
102
}
330
47
100
AcDbScale
 70
     0
300
6" = 1'-0"
140
6.0
141
12.0
290
     0
  0
SCALE
  5
68
102
{ACAD_REACTORS
330
47
102
}
330
47
100
AcDbScale
 70
     0
300
1'-0" = 1'-0"
140
12.0
141
12.0
290
     0
  0
VISUALSTYLE
  5
2F
102
{ACAD_REACTORS
330
2A
102
}
102
{ACAD_XDICTIONARY
360
376
102
}
330
2A
100
AcDbVisualStyle
  2
2dWireframe
 70
     4
177
     2
291
     0
 71
     0
176
     1
 72
     2
176
     1
 73
     0
176
     1
 90
        0
176
     1
 40
0.6
176
     1
 41
30.0
176
     1
 62
     5
 63
     7
421
 16777215
176
     1
 74
     1
176
     1
 91
        4
176
     1
 64
     7
176
     1
 65
   257
176
     1
 75
     1
176
     1
175
     1
176
     1
 42
1.0
176
     1
 92
        0
176
     1
 66
   257
176
     1
 43
1.0
176
     1
 76
     1
176
     1
 77
     6
176
     1
 78
     2
176
     1
 67
     7
176
     1
 79
     5
176
     1
170
     0
176
     1
171
     0
176
     1
290
     0
176
     1
 93
        1
176
     1
 44
0.0
176
     1
173
     0
176
     1
  0
VISUALSTYLE
  5
32
102
{ACAD_REACTORS
330
2A
102
}
102
{ACAD_XDICTIONARY
360
37C
102
}
330
2A
100
AcDbVisualStyle
  2
Basic
 70
     7
177
     2
291
     1
 71
     1
176
     1
 72
     0
176
     1
 73
     1
176
     1
 90
        0
176
     1
 40
0.6
176
     1
 41
30.0
176
     1
 62
     5
 63
     7
421
 16777215
176
     1
 74
     0
176
     1
 91
        4
176
     1
 64
     7
176
     1
 65
   257
176
     1
 75
     1
176
     1
175
     1
176
     1
 42
1.0
176
     1
 92
        8
176
     1
 66
     7
176
     1
 43
1.0
176
     1
 76
     1
176
     1
 77
     6
176
     1
 78
     2
176
     1
 67
     7
176
     1
 79
     5
176
     1
170
     0
176
     1
171
     0
176
     1
290
     0
176
     1
 93
        1
176
     1
 44
0.0
176
     1
173
     0
176
     1
  0
VISUALSTYLE
  5
36
102
{ACAD_REACTORS
330
2A
102
}
102
{ACAD_XDICTIONARY
360
384
102
}
330
2A
100
AcDbVisualStyle
  2
Brighten
 70
    12
177
     2
291
     1
 71
     2
176
     1
 72
     2
176
     1
 73
     0
176
     1
 90
        0
176
     1
 40
0.6
176
     1
 41
30.0
176
     1
 62
     5
 63
     7
421
 16777215
176
     1
 74
     1
176
     1
 91
        4
176
     1
 64
     7
176
     1
 65
   257
176
     1
 75
     1
176
     1
175
     1
176
     1
 42
1.0
176
     1
 92
        8
176
     1
 66
     7
176
     1
 43
1.0
176
     1
 76
     1
176
     1
 77
     6
176
     1
 78
     2
176
     1
 67
     7
176
     1
 79
     5
176
     1
170
     0
176
     1
171
     0
176
     1
290
     0
176
     1
 93
        1
176
     1
 44
50.0
176
     1
173
     0
176
     1
  0
VISUALSTYLE
  5
3A
102
{ACAD_REACTORS
330
2A
102
}
102
{ACAD_XDICTIONARY
360
38C
102
}
330
2A
100
AcDbVisualStyle
  2
ColorChange
 70
    16
177
     2
291
     1
 71
     2
176
     1
 72
     2
176
     1
 73
     3
176
     1
 90
        0
176
     1
 40
0.6
176
     1
 41
30.0
176
     1
 62
     5
 63
     8
421
  8421504
176
     1
 74
     1
176
     1
 91
        4
176
     1
 64
     7
176
     1
 65
   257
176
     1
 75
     1
176
     1
175
     1
176
     1
 42
1.0
176
     1
 92
        8
176
     1
 66
     8
424
  8421504
176
     1
 43
1.0
176
     1
 76
     1
176
     1
 77
     6
176
     1
 78
     2
176
     1
 67
     7
176
     1
 79
     5
176
     1
170
     0
176
     1
171
     0
176
     1
290
     0
176
     1
 93
        1
176
     1
 44
0.0
176
     1
173
     0
176
     1
  0
VISUALSTYLE
  5
34
102
{ACAD_REACTORS
330
2A
102
}
102
{ACAD_XDICTIONARY
360
380
102
}
330
2A
100
AcDbVisualStyle
  2
Conceptual
 70
     9
177
     2
291
     0
 71
     3
176
     1
 72
     2
176
     1
 73
     0
176
     1
 90
        0
176
     1
 40
0.6
176
     1
 41
30.0
176
     1
 62
     5
 63
     7
421
 16777215
176
     1
 74
     2
176
     1
 91
        2
176
     1
 64
     7
176
     1
 65
   257
176
     1
 75
     1
176
     1
175
     1
176
     1
 42
179.0
176
     1
 92
        8
176
     1
 66
     7
176
     1
 43
1.0
176
     1
 76
     1
176
     1
 77
     6
176
     1
 78
     2
176
     1
 67
     7
176
     1
 79
     3
176
     1
170
     0
176
     1
171
     0
176
     1
290
     0
176
     1
 93
        1
176
     1
 44
0.0
176
     1
173
     0
176
     1
  0
VISUALSTYLE
  5
35
102
{ACAD_REACTORS
330
2A
102
}
102
{ACAD_XDICTIONARY
360
382
102
}
330
2A
100
AcDbVisualStyle
  2
Dim
 70
    11
177
     2
291
     1
 71
     2
176
     1
 72
     2
176
     1
 73
     0
176
     1
 90
        0
176
     1
 40
0.6
176
     1
 41
30.0
176
     1
 62
     5
 63
     7
421
 16777215
176
     1
 74
     1
176
     1
 91
        4
176
     1
 64
     7
176
     1
 65
   257
176
     1
 75
     1
176
     1
175
     1
176
     1
 42
1.0
176
     1
 92
        8
176
     1
 66
     7
176
     1
 43
1.0
176
     1
 76
     1
176
     1
 77
     6
176
     1
 78
     2
176
     1
 67
     7
176
     1
 79
     5
176
     1
170
     0
176
     1
171
     0
176
     1
290
     0
176
     1
 93
        1
176
     1
 44
-50.0
176
     1
173
     0
176
     1
  0
VISUALSTYLE
  5
3D
102
{ACAD_REACTORS
330
2A
102
}
102
{ACAD_XDICTIONARY
360
392
102
}
330
2A
100
AcDbVisualStyle
  2
EdgeColorOff
 70
    22
177
     2
291
     1
 71
     2
176
     0
 72
     2
176
     0
 73
     0
176
     0
 90
        0
176
     0
 40
0.6
176
     0
 41
30.0
176
     0
 62
     5
 63
     7
421
 16777215
176
     0
 74
     1
176
     0
 91
        4
176
     0
 64
     7
176
     0
 65
   257
176
     0
 75
     1
176
     0
175
     1
176
     0
 42
1.0
176
     0
 92
        8
176
     2
 66
     7
176
     0
 43
1.0
176
     0
 76
     1
176
     0
 77
     6
176
     0
 78
     2
176
     0
 67
     7
176
     0
 79
     5
176
     0
170
     0
176
     0
171
     0
176
     0
290
     0
176
     0
 93
        1
176
     0
 44
0.0
176
     0
173
     0
176
     0
  0
VISUALSTYLE
  5
39
102
{ACAD_REACTORS
330
2A
102
}
102
{ACAD_XDICTIONARY
360
38A
102
}
330
2A
100
AcDbVisualStyle
  2
Facepattern
 70
    15
177
     2
291
     1
 71
     2
176
     1
 72
     2
176
     1
 73
     0
176
     1
 90
        0
176
     1
 40
0.6
176
     1
 41
30.0
176
     1
 62
     5
 63
     7
421
 16777215
176
     1
 74
     1
176
     1
 91
        4
176
     1
 64
     7
176
     1
 65
   257
176
     1
 75
     1
176
     1
175
     1
176
     1
 42
1.0
176
     1
 92
        8
176
     1
 66
     7
176
     1
 43
1.0
176
     1
 76
     1
176
     1
 77
     6
176
     1
 78
     2
176
     1
 67
     7
176
     1
 79
     5
176
     1
170
     0
176
     1
171
     0
176
     1
290
     0
176
     1
 93
        1
176
     1
 44
0.0
176
     1
173
     0
176
     1
  0
VISUALSTYLE
  5
2B
102
{ACAD_REACTORS
330
2A
102
}
102
{ACAD_XDICTIONARY
360
36E
102
}
330
2A
100
AcDbVisualStyle
  2
Flat
 70
     0
177
     2
291
     1
 71
     2
176
     1
 72
     1
176
     1
 73
     1
176
     1
 90
        2
176
     1
 40
0.6
176
     1
 41
30.0
176
     1
 62
     5
 63
     7
421
 16777215
176
     1
 74
     0
176
     1
 91
        0
176
     1
 64
     7
176
     1
 65
   257
176
     1
 75
     1
176
     1
175
     1
176
     1
 42
1.0
176
     1
 92
        8
176
     1
 66
     7
176
     1
 43
1.0
176
     1
 76
     1
176
     1
 77
     6
176
     1
 78
     2
176
     1
 67
     7
176
     1
 79
     5
176
     1
170
     0
176
     1
171
     0
176
     1
290
     0
176
     1
 93
       13
176
     1
 44
0.0
176
     1
173
     0
176
     1
  0
VISUALSTYLE
  5
2C
102
{ACAD_REACTORS
330
2A
102
}
102
{ACAD_XDICTIONARY
360
370
102
}
330
2A
100
AcDbVisualStyle
  2
FlatWithEdges
 70
     1
177
     2
291
     1
 71
     2
176
     1
 72
     1
176
     1
 73
     1
176
     1
 90
        2
176
     1
 40
0.6
176
     1
 41
30.0
176
     1
 62
     5
 63
     7
421
 16777215
176
     1
 74
     1
176
     1
 91
        0
176
     1
 64
     7
176
     1
 65
   257
176
     1
 75
     1
176
     1
175
     1
176
     1
 42
1.0
176
     1
 92
        0
176
     1
 66
   257
176
     1
 43
1.0
176
     1
 76
     1
176
     1
 77
     6
176
     1
 78
     2
176
     1
 67
     7
176
     1
 79
     5
176
     1
170
     0
176
     1
171
     0
176
     1
290
     0
176
     1
 93
       13
176
     1
 44
0.0
176
     1
173
     0
176
     1
  0
VISUALSTYLE
  5
2D
102
{ACAD_REACTORS
330
2A
102
}
102
{ACAD_XDICTIONARY
360
372
102
}
330
2A
100
AcDbVisualStyle
  2
Gouraud
 70
     2
177
     2
291
     1
 71
     2
176
     1
 72
     2
176
     1
 73
     1
176
     1
 90
        2
176
     1
 40
0.6
176
     1
 41
30.0
176
     1
 62
     5
 63
     7
421
 16777215
176
     1
 74
     0
176
     1
 91
        0
176
     1
 64
     7
176
     1
 65
   257
176
     1
 75
     1
176
     1
175
     1
176
     1
 42
1.0
176
     1
 92
        0
176
     1
 66
     7
176
     1
 43
1.0
176
     1
 76
     1
176
     1
 77
     6
176
     1
 78
     2
176
     1
 67
     7
176
     1
 79
     5
176
     1
170
     0
176
     1
171
     0
176
     1
290
     0
176
     1
 93
       13
176
     1
 44
0.0
176
     1
173
     0
176
     1
  0
VISUALSTYLE
  5
2E
102
{ACAD_REACTORS
330
2A
102
}
102
{ACAD_XDICTIONARY
360
374
102
}
330
2A
100
AcDbVisualStyle
  2
GouraudWithEdges
 70
     3
177
     2
291
     1
 71
     2
176
     1
 72
     2
176
     1
 73
     1
176
     1
 90
        2
176
     1
 40
0.6
176
     1
 41
30.0
176
     1
 62
     5
 63
     7
421
 16777215
176
     1
 74
     1
176
     1
 91
        0
176
     1
 64
     7
176
     1
 65
   257
176
     1
 75
     1
176
     1
175
     1
176
     1
 42
1.0
176
     1
 92
        0
176
     1
 66
   257
176
     1
 43
1.0
176
     1
 76
     1
176
     1
 77
     6
176
     1
 78
     2
176
     1
 67
     7
176
     1
 79
     5
176
     1
170
     0
176
     1
171
     0
176
     1
290
     0
176
     1
 93
       13
176
     1
 44
0.0
176
     1
173
     0
176
     1
  0
VISUALSTYLE
  5
31
102
{ACAD_REACTORS
330
2A
102
}
102
{ACAD_XDICTIONARY
360
37A
102
}
330
2A
100
AcDbVisualStyle
  2
Hidden
 70
     6
177
     2
291
     0
 71
     1
176
     1
 72
     2
176
     1
 73
     2
176
     1
 90
        0
176
     1
 40
0.6
176
     1
 41
30.0
176
     1
 62
     5
 63
     7
421
 16777215
176
     1
 74
     2
176
     1
 91
        2
176
     1
 64
     7
176
     1
 65
   257
176
     1
 75
     2
176
     1
175
     1
176
     1
 42
40.0
176
     1
 92
        0
176
     1
 66
   257
176
     1
 43
1.0
176
     1
 76
     1
176
     1
 77
     6
176
     1
 78
     2
176
     1
 67
     7
176
     1
 79
     3
176
     1
170
     0
176
     1
171
     0
176
     1
290
     0
176
     1
 93
        1
176
     1
 44
0.0
176
     1
173
     0
176
     1
  0
VISUALSTYLE
  5
3B
102
{ACAD_REACTORS
330
2A
102
}
102
{ACAD_XDICTIONARY
360
38E
102
}
330
2A
100
AcDbVisualStyle
  2
JitterOff
 70
    20
177
     2
291
     1
 71
     2
176
     0
 72
     2
176
     0
 73
     0
176
     0
 90
        0
176
     0
 40
0.6
176
     0
 41
30.0
176
     0
 62
     5
 63
     7
421
 16777215
176
     0
 74
     1
176
     0
 91
        4
176
     0
 64
     7
176
     0
 65
   257
176
     0
 75
     1
176
     0
175
     1
176
     0
 42
1.0
176
     0
 92
       10
176
     2
 66
     7
176
     0
 43
1.0
176
     0
 76
     1
176
     0
 77
     6
176
     0
 78
     2
176
     0
 67
     7
176
     0
 79
     5
176
     0
170
     0
176
     0
171
     0
176
     0
290
     0
176
     0
 93
        1
176
     0
 44
0.0
176
     0
173
     0
176
     0
  0
VISUALSTYLE
  5
38
102
{ACAD_REACTORS
330
2A
102
}
102
{ACAD_XDICTIONARY
360
388
102
}
330
2A
100
AcDbVisualStyle
  2
Linepattern
 70
    14
177
     2
291
     1
 71
     2
176
     1
 72
     2
176
     1
 73
     0
176
     1
 90
        0
176
     1
 40
0.6
176
     1
 41
30.0
176
     1
 62
     5
 63
     7
421
 16777215
176
     1
 74
     1
176
     1
 91
        4
176
     1
 64
     7
176
     1
 65
   257
176
     1
 75
     7
176
     1
175
     7
176
     1
 42
1.0
176
     1
 92
        8
176
     1
 66
     7
176
     1
 43
1.0
176
     1
 76
     1
176
     1
 77
     6
176
     1
 78
     2
176
     1
 67
     7
176
     1
 79
     5
176
     1
170
     0
176
     1
171
     0
176
     1
290
     0
176
     1
 93
        1
176
     1
 44
0.0
176
     1
173
     0
176
     1
  0
VISUALSTYLE
  5
3C
102
{ACAD_REACTORS
330
2A
102
}
102
{ACAD_XDICTIONARY
360
390
102
}
330
2A
100
AcDbVisualStyle
  2
OverhangOff
 70
    21
177
     2
291
     1
 71
     2
176
     0
 72
     2
176
     0
 73
     0
176
     0
 90
        0
176
     0
 40
0.6
176
     0
 41
30.0
176
     0
 62
     5
 63
     7
421
 16777215
176
     0
 74
     1
176
     0
 91
        4
176
     0
 64
     7
176
     0
 65
   257
176
     0
 75
     1
176
     0
175
     1
176
     0
 42
1.0
176
     0
 92
        9
176
     2
 66
     7
176
     0
 43
1.0
176
     0
 76
     1
176
     0
 77
     6
176
     0
 78
     2
176
     0
 67
     7
176
     0
 79
     5
176
     0
170
     0
176
     0
171
     0
176
     0
290
     0
176
     0
 93
        1
176
     0
 44
0.0
176
     0
173
     0
176
     0
  0
VISUALSTYLE
  5
33
102
{ACAD_REACTORS
330
2A
102
}
102
{ACAD_XDICTIONARY
360
37E
102
}
330
2A
100
AcDbVisualStyle
  2
Realistic
 70
     8
177
     2
291
     0
 71
     2
176
     1
 72
     3
176
     1
 73
     0
176
     1
 90
        2
176
     1
 40
0.6
176
     1
 41
30.0
176
     1
 62
     5
 63
     7
421
 16777215
176
     1
 74
     0
176
     1
 91
        0
176
     1
 64
     7
176
     1
 65
   257
176
     1
 75
     1
176
     1
175
     1
176
     1
 42
1.0
176
     1
 92
        8
176
     1
 66
   257
176
     1
 43
1.0
176
     1
 76
     1
176
     1
 77
     6
176
     1
 78
     2
176
     1
 67
     7
176
     1
 79
     3
176
     1
170
     0
176
     1
171
     0
176
     1
290
     0
176
     1
 93
       13
176
     1
 44
0.0
176
     1
173
     0
176
     1
  0
VISUALSTYLE
  5
42
102
{ACAD_REACTORS
330
2A
102
}
102
{ACAD_XDICTIONARY
360
39C
102
}
330
2A
100
AcDbVisualStyle
  2
Shaded
 70
    27
177
     2
291
     0
 71
     2
176
     1
 72
     2
176
     1
 73
     1
176
     1
 90
        2
176
     1
 40
0.6
176
     1
 41
30.0
176
     1
 62
     5
 63
     7
421
 16777215
176
     1
 74
     0
176
     1
 91
        4
176
     1
 64
     7
176
     1
 65
   257
176
     1
 75
     1
176
     1
175
     1
176
     1
 42
1.0
176
     1
 92
        8
176
     1
 66
   257
176
     1
 43
1.0
176
     1
 76
     1
176
     1
 77
     6
176
     1
 78
     2
176
     1
 67
     8
425
  7895160
176
     1
 79
     3
176
     1
170
     0
176
     1
171
     0
176
     1
290
     0
176
     1
 93
        5
176
     1
 44
0.0
176
     1
173
     0
176
     1
  0
VISUALSTYLE
  5
41
102
{ACAD_REACTORS
330
2A
102
}
102
{ACAD_XDICTIONARY
360
39A
102
}
330
2A
100
AcDbVisualStyle
  2
Shaded with edges
 70
    26
177
     2
291
     0
 71
     2
176
     1
 72
     2
176
     1
 73
     1
176
     1
 90
        2
176
     1
 40
0.6
176
     1
 41
30.0
176
     1
 62
     5
 63
     7
421
 16777215
176
     1
 74
     1
176
     1
 91
       10
176
     1
 64
     7
176
     1
 65
   257
176
     1
 75
     2
176
     1
175
     1
176
     1
 42
1.0
176
     1
 92
        8
176
     1
 66
   257
176
     1
 43
1.0
176
     1
 76
     1
176
     1
 77
     6
176
     1
 78
     2
176
     1
 67
     7
176
     1
 79
     3
176
     1
170
     0
176
     1
171
     0
176
     1
290
     0
176
     1
 93
        5
176
     1
 44
0.0
176
     1
173
     0
176
     1
  0
VISUALSTYLE
  5
3E
102
{ACAD_REACTORS
330
2A
102
}
102
{ACAD_XDICTIONARY
360
394
102
}
330
2A
100
AcDbVisualStyle
  2
Shades of Gray
 70
    23
177
     2
291
     0
 71
     2
176
     1
 72
     2
176
     1
 73
     3
176
     1
 90
        0
176
     1
 40
0.6
176
     1
 41
30.0
176
     1
 62
     5
 63
     7
421
 16777215
176
     1
 74
     2
176
     1
 91
        2
176
     1
 64
     7
176
     1
 65
     7
176
     1
 75
     1
176
     1
175
     1
176
     1
 42
40.0
176
     1
 92
        8
176
     1
 66
     7
176
     1
 43
1.0
176
     1
 76
     1
176
     1
 77
     6
176
     1
 78
     2
176
     1
 67
     7
176
     1
 79
     3
176
     1
170
     0
176
     1
171
     0
176
     1
290
     0
176
     1
 93
        1
176
     1
 44
0.0
176
     1
173
     0
176
     1
  0
VISUALSTYLE
  5
3F
102
{ACAD_REACTORS
330
2A
102
}
102
{ACAD_XDICTIONARY
360
396
102
}
330
2A
100
AcDbVisualStyle
  2
Sketchy
 70
    24
177
     2
291
     0
 71
     1
176
     1
 72
     2
176
     1
 73
     2
176
     1
 90
        0
176
     1
 40
0.6
176
     1
 41
30.0
176
     1
 62
     5
 63
     7
421
 16777215
176
     1
 74
     2
176
     1
 91
        2
176
     1
 64
     7
176
     1
 65
     7
176
     1
 75
     1
176
     1
175
     1
176
     1
 42
40.0
176
     1
 92
       11
176
     1
 66
     7
176
     1
 43
1.0
176
     1
 76
     1
176
     1
 77
     6
176
     1
 78
     2
176
     1
 67
     7
176
     1
 79
     6
176
     1
170
     0
176
     1
171
     0
176
     1
290
     0
176
     1
 93
        1
176
     1
 44
0.0
176
     1
173
     0
176
     1
  0
VISUALSTYLE
  5
37
102
{ACAD_REACTORS
330
2A
102
}
102
{ACAD_XDICTIONARY
360
386
102
}
330
2A
100
AcDbVisualStyle
  2
Thicken
 70
    13
177
     2
291
     1
 71
     2
176
     1
 72
     2
176
     1
 73
     0
176
     1
 90
        0
176
     1
 40
0.6
176
     1
 41
30.0
176
     1
 62
     5
 63
     7
421
 16777215
176
     1
 74
     1
176
     1
 91
        4
176
     1
 64
     7
176
     1
 65
   257
176
     1
 75
     1
176
     1
175
     1
176
     1
 42
1.0
176
     1
 92
       12
176
     1
 66
     7
176
     1
 43
1.0
176
     1
 76
     1
176
     1
 77
     6
176
     1
 78
     2
176
     1
 67
     7
176
     1
 79
     5
176
     1
170
     0
176
     1
171
     0
176
     1
290
     0
176
     1
 93
        1
176
     1
 44
0.0
176
     1
173
     0
176
     1
  0
VISUALSTYLE
  5
30
102
{ACAD_REACTORS
330
2A
102
}
102
{ACAD_XDICTIONARY
360
378
102
}
330
2A
100
AcDbVisualStyle
  2
Wireframe
 70
     5
177
     2
291
     0
 71
     0
176
     1
 72
     2
176
     1
 73
     0
176
     1
 90
        0
176
     1
 40
0.6
176
     1
 41
30.0
176
     1
 62
     5
 63
     7
421
 16777215
176
     1
 74
     1
176
     1
 91
        4
176
     1
 64
     7
176
     1
 65
   257
176
     1
 75
     1
176
     1
175
     1
176
     1
 42
1.0
176
     1
 92
        0
176
     1
 66
   257
176
     1
 43
1.0
176
     1
 76
     1
176
     1
 77
     6
176
     1
 78
     2
176
     1
 67
     7
176
     1
 79
     3
176
     1
170
     0
176
     1
171
     0
176
     1
290
     0
176
     1
 93
        1
176
     1
 44
0.0
176
     1
173
     0
176
     1
  0
VISUALSTYLE
  5
40
102
{ACAD_REACTORS
330
2A
102
}
102
{ACAD_XDICTIONARY
360
398
102
}
330
2A
100
AcDbVisualStyle
  2
X-Ray
 70
    25
177
     2
291
     0
 71
     2
176
     1
 72
     2
176
     1
 73
     1
176
     1
 90
        1
176
     1
 40
0.5
176
     1
 41
30.0
176
     1
 62
     5
 63
     7
421
 16777215
176
     1
 74
     1
176
     1
 91
        0
176
     1
 64
     7
176
     1
 65
   257
176
     1
 75
     1
176
     1
175
     1
176
     1
 42
1.0
176
     1
 92
        8
176
     1
 66
     7
176
     1
 43
1.0
176
     1
 76
     1
176
     1
 77
     6
176
     1
 78
     2
176
     1
 67
     7
176
     1
 79
     3
176
     1
170
     0
176
     1
171
     0
176
     1
290
     0
176
     1
 93
       13
176
     1
 44
0.0
176
     1
173
     0
176
     1
  0
DICTIONARYVAR
  5
36D
102
{ACAD_REACTORS
330
36C
102
}
330
36C
100
DictionaryVariables
280
     0
  1
1:1
  0
DICTIONARYVAR
  5
3A0
102
{ACAD_REACTORS
330
36C
102
}
330
36C
100
DictionaryVariables
280
     0
  1
0
  0
XRECORD
  5
36B
102
{ACAD_REACTORS
330
36A
102
}
330
36A
100
AcDbXrecord
280
     1
1000
Diese DWG-Datei wurde mit ARCHICAD(TM)¨ erstellt
  0
DICTIONARY
  5
376
330
2F
100
AcDbDictionary
280
     1
281
     1
  3
ACAD_XREC_ROUNDTRIP
360
377
  0
DICTIONARY
  5
37C
330
32
100
AcDbDictionary
280
     1
281
     1
  3
ACAD_XREC_ROUNDTRIP
360
37D
  0
DICTIONARY
  5
384
330
36
100
AcDbDictionary
280
     1
281
     1
  3
ACAD_XREC_ROUNDTRIP
360
385
  0
DICTIONARY
  5
38C
330
3A
100
AcDbDictionary
280
     1
281
     1
  3
ACAD_XREC_ROUNDTRIP
360
38D
  0
DICTIONARY
  5
380
330
34
100
AcDbDictionary
280
     1
281
     1
  3
ACAD_XREC_ROUNDTRIP
360
381
  0
DICTIONARY
  5
382
330
35
100
AcDbDictionary
280
     1
281
     1
  3
ACAD_XREC_ROUNDTRIP
360
383
  0
DICTIONARY
  5
392
330
3D
100
AcDbDictionary
280
     1
281
     1
  3
ACAD_XREC_ROUNDTRIP
360
393
  0
DICTIONARY
  5
38A
330
39
100
AcDbDictionary
280
     1
281
     1
  3
ACAD_XREC_ROUNDTRIP
360
38B
  0
DICTIONARY
  5
36E
330
2B
100
AcDbDictionary
280
     1
281
     1
  3
ACAD_XREC_ROUNDTRIP
360
36F
  0
DICTIONARY
  5
370
330
2C
100
AcDbDictionary
280
     1
281
     1
  3
ACAD_XREC_ROUNDTRIP
360
371
  0
DICTIONARY
  5
372
330
2D
100
AcDbDictionary
280
     1
281
     1
  3
ACAD_XREC_ROUNDTRIP
360
373
  0
DICTIONARY
  5
374
330
2E
100
AcDbDictionary
280
     1
281
     1
  3
ACAD_XREC_ROUNDTRIP
360
375
  0
DICTIONARY
  5
37A
330
31
100
AcDbDictionary
280
     1
281
     1
  3
ACAD_XREC_ROUNDTRIP
360
37B
  0
DICTIONARY
  5
38E
330
3B
100
AcDbDictionary
280
     1
281
     1
  3
ACAD_XREC_ROUNDTRIP
360
38F
  0
DICTIONARY
  5
388
330
38
100
AcDbDictionary
280
     1
281
     1
  3
ACAD_XREC_ROUNDTRIP
360
389
  0
DICTIONARY
  5
390
330
3C
100
AcDbDictionary
280
     1
281
     1
  3
ACAD_XREC_ROUNDTRIP
360
391
  0
DICTIONARY
  5
37E
330
33
100
AcDbDictionary
280
     1
281
     1
  3
ACAD_XREC_ROUNDTRIP
360
37F
  0
DICTIONARY
  5
39C
330
42
100
AcDbDictionary
280
     1
281
     1
  3
ACAD_XREC_ROUNDTRIP
360
39D
  0
DICTIONARY
  5
39A
330
41
100
AcDbDictionary
280
     1
281
     1
  3
ACAD_XREC_ROUNDTRIP
360
39B
  0
DICTIONARY
  5
394
330
3E
100
AcDbDictionary
280
     1
281
     1
  3
ACAD_XREC_ROUNDTRIP
360
395
  0
DICTIONARY
  5
396
330
3F
100
AcDbDictionary
280
     1
281
     1
  3
ACAD_XREC_ROUNDTRIP
360
397
  0
DICTIONARY
  5
386
330
37
100
AcDbDictionary
280
     1
281
     1
  3
ACAD_XREC_ROUNDTRIP
360
387
  0
DICTIONARY
  5
378
330
30
100
AcDbDictionary
280
     1
281
     1
  3
ACAD_XREC_ROUNDTRIP
360
379
  0
DICTIONARY
  5
398
330
40
100
AcDbDictionary
280
     1
281
     1
  3
ACAD_XREC_ROUNDTRIP
360
399
  0
XRECORD
  5
377
102
{ACAD_REACTORS
330
376
102
}
330
376
100
AcDbXrecord
280
     1
102
RTVSPost2010Prop28
280
     1
102
RTVSPost2010PropOp28
 70
     1
102
RTVSPost2010Prop29
280
     1
102
RTVSPost2010PropOp29
 70
     1
102
RTVSPost2010Prop30
280
     0
102
RTVSPost2010PropOp30
 70
     1
102
RTVSPost2010Prop31
280
     0
102
RTVSPost2010PropOp31
 70
     1
102
RTVSPost2010Prop32
280
     0
102
RTVSPost2010PropOp32
 70
     1
102
RTVSPost2010Prop33
280
     0
102
RTVSPost2010PropOp33
 70
     1
102
RTVSPost2010Prop34
280
     0
102
RTVSPost2010PropOp34
 70
     1
102
RTVSPost2010Prop35
280
     0
102
RTVSPost2010PropOp35
 70
     1
102
RTVSPost2010Prop36
280
     0
102
RTVSPost2010PropOp36
 70
     1
102
RTVSPost2010Prop37
 90
       50
102
RTVSPost2010PropOp37
 70
     1
102
RTVSPost2010Prop38
140
0.0
102
RTVSPost2010PropOp38
 70
     1
102
RTVSPost2010Prop39
140
1.0
102
RTVSPost2010PropOp39
 70
     1
102
RTVSPost2010Prop40
 90
        0
102
RTVSPost2010PropOp40
 70
     1
102
RTVSPost2010Prop41ColorIndex
 90
      178
102
RTVSPost2010Prop41ColorRGB
 90
        0
102
RTVSPost2010PropOp41
 70
     1
102
RTVSPost2010Prop42
 90
       50
102
RTVSPost2010PropOp42
 70
     1
102
RTVSPost2010Prop43
 90
        3
102
RTVSPost2010PropOp43
 70
     1
102
RTVSPost2010Prop44ColorIndex
 90
        5
102
RTVSPost2010Prop44ColorRGB
 90
      255
102
RTVSPost2010PropOp44
 70
     1
102
RTVSPost2010Prop45
280
     0
102
RTVSPost2010PropOp45
 70
     1
102
RTVSPost2010Prop46
 90
       50
102
RTVSPost2010PropOp46
 70
     1
102
RTVSPost2010Prop47
 90
       50
102
RTVSPost2010PropOp47
 70
     1
102
RTVSPost2010Prop48
 90
       50
102
RTVSPost2010PropOp48
 70
     1
102
RTVSPost2010Prop49
280
     0
102
RTVSPost2010PropOp49
 70
     1
102
RTVSPost2010Prop50
 90
       50
102
RTVSPost2010PropOp50
 70
     1
102
RTVSPost2010Prop51ColorIndex
 90
      256
102
RTVSPost2010Prop51ColorRGB
 90
-16777216
102
RTVSPost2010PropOp51
 70
     0
102
RTVSPost2010Prop52
140
1.0
102
RTVSPost2010PropOp52
 70
     0
102
RTVSPost2010Prop53
 90
        2
102
RTVSPost2010PropOp53
 70
     1
102
RTVSPost2010Prop54
  1
strokes_ogs.tif
102
RTVSPost2010PropOp54
 70
     1
102
RTVSPost2010Prop55
280
     0
102
RTVSPost2010PropOp55
 70
     1
102
RTVSPost2010Prop56
140
1.0
102
RTVSPost2010PropOp56
 70
     1
102
RTVSPost2010Prop57
140
1.0
102
RTVSPost2010PropOp57
 70
     1
  0
XRECORD
  5
37D
102
{ACAD_REACTORS
330
37C
102
}
330
37C
100
AcDbXrecord
280
     1
102
RTVSPost2010Prop28
280
     0
102
RTVSPost2010PropOp28
 70
     1
102
RTVSPost2010Prop29
280
     1
102
RTVSPost2010PropOp29
 70
     1
102
RTVSPost2010Prop30
280
     1
102
RTVSPost2010PropOp30
 70
     1
102
RTVSPost2010Prop31
280
     0
102
RTVSPost2010PropOp31
 70
     1
102
RTVSPost2010Prop32
280
     0
102
RTVSPost2010PropOp32
 70
     1
102
RTVSPost2010Prop33
280
     0
102
RTVSPost2010PropOp33
 70
     1
102
RTVSPost2010Prop34
280
     0
102
RTVSPost2010PropOp34
 70
     1
102
RTVSPost2010Prop35
280
     0
102
RTVSPost2010PropOp35
 70
     1
102
RTVSPost2010Prop36
280
     0
102
RTVSPost2010PropOp36
 70
     1
102
RTVSPost2010Prop37
 90
       50
102
RTVSPost2010PropOp37
 70
     1
102
RTVSPost2010Prop38
140
0.0
102
RTVSPost2010PropOp38
 70
     1
102
RTVSPost2010Prop39
140
1.0
102
RTVSPost2010PropOp39
 70
     1
102
RTVSPost2010Prop40
 90
        0
102
RTVSPost2010PropOp40
 70
     1
102
RTVSPost2010Prop41ColorIndex
 90
      178
102
RTVSPost2010Prop41ColorRGB
 90
        0
102
RTVSPost2010PropOp41
 70
     1
102
RTVSPost2010Prop42
 90
       50
102
RTVSPost2010PropOp42
 70
     1
102
RTVSPost2010Prop43
 90
        3
102
RTVSPost2010PropOp43
 70
     1
102
RTVSPost2010Prop44ColorIndex
 90
        5
102
RTVSPost2010Prop44ColorRGB
 90
      255
102
RTVSPost2010PropOp44
 70
     1
102
RTVSPost2010Prop45
280
     0
102
RTVSPost2010PropOp45
 70
     1
102
RTVSPost2010Prop46
 90
       50
102
RTVSPost2010PropOp46
 70
     1
102
RTVSPost2010Prop47
 90
       50
102
RTVSPost2010PropOp47
 70
     1
102
RTVSPost2010Prop48
 90
       50
102
RTVSPost2010PropOp48
 70
     1
102
RTVSPost2010Prop49
280
     0
102
RTVSPost2010PropOp49
 70
     1
102
RTVSPost2010Prop50
 90
       50
102
RTVSPost2010PropOp50
 70
     1
102
RTVSPost2010Prop51ColorIndex
 90
      256
102
RTVSPost2010Prop51ColorRGB
 90
-16777216
102
RTVSPost2010PropOp51
 70
     0
102
RTVSPost2010Prop52
140
1.0
102
RTVSPost2010PropOp52
 70
     0
102
RTVSPost2010Prop53
 90
        2
102
RTVSPost2010PropOp53
 70
     1
102
RTVSPost2010Prop54
  1
strokes_ogs.tif
102
RTVSPost2010PropOp54
 70
     1
102
RTVSPost2010Prop55
280
     0
102
RTVSPost2010PropOp55
 70
     1
102
RTVSPost2010Prop56
140
1.0
102
RTVSPost2010PropOp56
 70
     1
102
RTVSPost2010Prop57
140
1.0
102
RTVSPost2010PropOp57
 70
     1
  0
XRECORD
  5
385
102
{ACAD_REACTORS
330
384
102
}
330
384
100
AcDbXrecord
280
     1
102
RTVSPost2010Prop28
280
     0
102
RTVSPost2010PropOp28
 70
     1
102
RTVSPost2010Prop29
280
     1
102
RTVSPost2010PropOp29
 70
     1
102
RTVSPost2010Prop30
280
     1
102
RTVSPost2010PropOp30
 70
     1
102
RTVSPost2010Prop31
280
     0
102
RTVSPost2010PropOp31
 70
     1
102
RTVSPost2010Prop32
280
     0
102
RTVSPost2010PropOp32
 70
     1
102
RTVSPost2010Prop33
280
     0
102
RTVSPost2010PropOp33
 70
     1
102
RTVSPost2010Prop34
280
     0
102
RTVSPost2010PropOp34
 70
     1
102
RTVSPost2010Prop35
280
     0
102
RTVSPost2010PropOp35
 70
     1
102
RTVSPost2010Prop36
280
     0
102
RTVSPost2010PropOp36
 70
     1
102
RTVSPost2010Prop37
 90
       50
102
RTVSPost2010PropOp37
 70
     1
102
RTVSPost2010Prop38
140
0.0
102
RTVSPost2010PropOp38
 70
     1
102
RTVSPost2010Prop39
140
1.0
102
RTVSPost2010PropOp39
 70
     1
102
RTVSPost2010Prop40
 90
        0
102
RTVSPost2010PropOp40
 70
     1
102
RTVSPost2010Prop41ColorIndex
 90
      178
102
RTVSPost2010Prop41ColorRGB
 90
        0
102
RTVSPost2010PropOp41
 70
     1
102
RTVSPost2010Prop42
 90
       50
102
RTVSPost2010PropOp42
 70
     1
102
RTVSPost2010Prop43
 90
        3
102
RTVSPost2010PropOp43
 70
     1
102
RTVSPost2010Prop44ColorIndex
 90
        5
102
RTVSPost2010Prop44ColorRGB
 90
      255
102
RTVSPost2010PropOp44
 70
     1
102
RTVSPost2010Prop45
280
     0
102
RTVSPost2010PropOp45
 70
     1
102
RTVSPost2010Prop46
 90
       50
102
RTVSPost2010PropOp46
 70
     1
102
RTVSPost2010Prop47
 90
       50
102
RTVSPost2010PropOp47
 70
     1
102
RTVSPost2010Prop48
 90
       50
102
RTVSPost2010PropOp48
 70
     1
102
RTVSPost2010Prop49
280
     0
102
RTVSPost2010PropOp49
 70
     1
102
RTVSPost2010Prop50
 90
       50
102
RTVSPost2010PropOp50
 70
     1
102
RTVSPost2010Prop51ColorIndex
 90
      256
102
RTVSPost2010Prop51ColorRGB
 90
-16777216
102
RTVSPost2010PropOp51
 70
     0
102
RTVSPost2010Prop52
140
1.0
102
RTVSPost2010PropOp52
 70
     0
102
RTVSPost2010Prop53
 90
        2
102
RTVSPost2010PropOp53
 70
     1
102
RTVSPost2010Prop54
  1
strokes_ogs.tif
102
RTVSPost2010PropOp54
 70
     1
102
RTVSPost2010Prop55
280
     0
102
RTVSPost2010PropOp55
 70
     1
102
RTVSPost2010Prop56
140
1.0
102
RTVSPost2010PropOp56
 70
     1
102
RTVSPost2010Prop57
140
1.0
102
RTVSPost2010PropOp57
 70
     1
  0
XRECORD
  5
38D
102
{ACAD_REACTORS
330
38C
102
}
330
38C
100
AcDbXrecord
280
     1
102
RTVSPost2010Prop28
280
     0
102
RTVSPost2010PropOp28
 70
     1
102
RTVSPost2010Prop29
280
     1
102
RTVSPost2010PropOp29
 70
     1
102
RTVSPost2010Prop30
280
     1
102
RTVSPost2010PropOp30
 70
     1
102
RTVSPost2010Prop31
280
     0
102
RTVSPost2010PropOp31
 70
     1
102
RTVSPost2010Prop32
280
     0
102
RTVSPost2010PropOp32
 70
     1
102
RTVSPost2010Prop33
280
     0
102
RTVSPost2010PropOp33
 70
     1
102
RTVSPost2010Prop34
280
     0
102
RTVSPost2010PropOp34
 70
     1
102
RTVSPost2010Prop35
280
     0
102
RTVSPost2010PropOp35
 70
     1
102
RTVSPost2010Prop36
280
     0
102
RTVSPost2010PropOp36
 70
     1
102
RTVSPost2010Prop37
 90
       50
102
RTVSPost2010PropOp37
 70
     1
102
RTVSPost2010Prop38
140
0.0
102
RTVSPost2010PropOp38
 70
     1
102
RTVSPost2010Prop39
140
1.0
102
RTVSPost2010PropOp39
 70
     1
102
RTVSPost2010Prop40
 90
        0
102
RTVSPost2010PropOp40
 70
     1
102
RTVSPost2010Prop41ColorIndex
 90
      178
102
RTVSPost2010Prop41ColorRGB
 90
        0
102
RTVSPost2010PropOp41
 70
     1
102
RTVSPost2010Prop42
 90
       50
102
RTVSPost2010PropOp42
 70
     1
102
RTVSPost2010Prop43
 90
        3
102
RTVSPost2010PropOp43
 70
     1
102
RTVSPost2010Prop44ColorIndex
 90
        5
102
RTVSPost2010Prop44ColorRGB
 90
      255
102
RTVSPost2010PropOp44
 70
     1
102
RTVSPost2010Prop45
280
     0
102
RTVSPost2010PropOp45
 70
     1
102
RTVSPost2010Prop46
 90
       50
102
RTVSPost2010PropOp46
 70
     1
102
RTVSPost2010Prop47
 90
       50
102
RTVSPost2010PropOp47
 70
     1
102
RTVSPost2010Prop48
 90
       50
102
RTVSPost2010PropOp48
 70
     1
102
RTVSPost2010Prop49
280
     0
102
RTVSPost2010PropOp49
 70
     1
102
RTVSPost2010Prop50
 90
       50
102
RTVSPost2010PropOp50
 70
     1
102
RTVSPost2010Prop51ColorIndex
 90
      256
102
RTVSPost2010Prop51ColorRGB
 90
-16777216
102
RTVSPost2010PropOp51
 70
     0
102
RTVSPost2010Prop52
140
1.0
102
RTVSPost2010PropOp52
 70
     0
102
RTVSPost2010Prop53
 90
        2
102
RTVSPost2010PropOp53
 70
     1
102
RTVSPost2010Prop54
  1
strokes_ogs.tif
102
RTVSPost2010PropOp54
 70
     1
102
RTVSPost2010Prop55
280
     0
102
RTVSPost2010PropOp55
 70
     1
102
RTVSPost2010Prop56
140
1.0
102
RTVSPost2010PropOp56
 70
     1
102
RTVSPost2010Prop57
140
1.0
102
RTVSPost2010PropOp57
 70
     1
  0
XRECORD
  5
381
102
{ACAD_REACTORS
330
380
102
}
330
380
100
AcDbXrecord
280
     1
102
RTVSPost2010Prop28
280
     0
102
RTVSPost2010PropOp28
 70
     1
102
RTVSPost2010Prop29
280
     1
102
RTVSPost2010PropOp29
 70
     1
102
RTVSPost2010Prop30
280
     1
102
RTVSPost2010PropOp30
 70
     1
102
RTVSPost2010Prop31
280
     0
102
RTVSPost2010PropOp31
 70
     1
102
RTVSPost2010Prop32
280
     0
102
RTVSPost2010PropOp32
 70
     1
102
RTVSPost2010Prop33
280
     0
102
RTVSPost2010PropOp33
 70
     1
102
RTVSPost2010Prop34
280
     0
102
RTVSPost2010PropOp34
 70
     1
102
RTVSPost2010Prop35
280
     0
102
RTVSPost2010PropOp35
 70
     1
102
RTVSPost2010Prop36
280
     0
102
RTVSPost2010PropOp36
 70
     1
102
RTVSPost2010Prop37
 90
       50
102
RTVSPost2010PropOp37
 70
     1
102
RTVSPost2010Prop38
140
0.0
102
RTVSPost2010PropOp38
 70
     1
102
RTVSPost2010Prop39
140
1.0
102
RTVSPost2010PropOp39
 70
     1
102
RTVSPost2010Prop40
 90
        0
102
RTVSPost2010PropOp40
 70
     1
102
RTVSPost2010Prop41ColorIndex
 90
      178
102
RTVSPost2010Prop41ColorRGB
 90
        0
102
RTVSPost2010PropOp41
 70
     1
102
RTVSPost2010Prop42
 90
       50
102
RTVSPost2010PropOp42
 70
     1
102
RTVSPost2010Prop43
 90
        3
102
RTVSPost2010PropOp43
 70
     1
102
RTVSPost2010Prop44ColorIndex
 90
        5
102
RTVSPost2010Prop44ColorRGB
 90
      255
102
RTVSPost2010PropOp44
 70
     1
102
RTVSPost2010Prop45
280
     0
102
RTVSPost2010PropOp45
 70
     1
102
RTVSPost2010Prop46
 90
       50
102
RTVSPost2010PropOp46
 70
     1
102
RTVSPost2010Prop47
 90
       50
102
RTVSPost2010PropOp47
 70
     1
102
RTVSPost2010Prop48
 90
       50
102
RTVSPost2010PropOp48
 70
     1
102
RTVSPost2010Prop49
280
     0
102
RTVSPost2010PropOp49
 70
     1
102
RTVSPost2010Prop50
 90
       50
102
RTVSPost2010PropOp50
 70
     1
102
RTVSPost2010Prop51ColorIndex
 90
      256
102
RTVSPost2010Prop51ColorRGB
 90
-16777216
102
RTVSPost2010PropOp51
 70
     0
102
RTVSPost2010Prop52
140
1.0
102
RTVSPost2010PropOp52
 70
     0
102
RTVSPost2010Prop53
 90
        2
102
RTVSPost2010PropOp53
 70
     1
102
RTVSPost2010Prop54
  1
strokes_ogs.tif
102
RTVSPost2010PropOp54
 70
     1
102
RTVSPost2010Prop55
280
     0
102
RTVSPost2010PropOp55
 70
     1
102
RTVSPost2010Prop56
140
1.0
102
RTVSPost2010PropOp56
 70
     1
102
RTVSPost2010Prop57
140
1.0
102
RTVSPost2010PropOp57
 70
     1
  0
XRECORD
  5
383
102
{ACAD_REACTORS
330
382
102
}
330
382
100
AcDbXrecord
280
     1
102
RTVSPost2010Prop28
280
     0
102
RTVSPost2010PropOp28
 70
     1
102
RTVSPost2010Prop29
280
     1
102
RTVSPost2010PropOp29
 70
     1
102
RTVSPost2010Prop30
280
     1
102
RTVSPost2010PropOp30
 70
     1
102
RTVSPost2010Prop31
280
     0
102
RTVSPost2010PropOp31
 70
     1
102
RTVSPost2010Prop32
280
     0
102
RTVSPost2010PropOp32
 70
     1
102
RTVSPost2010Prop33
280
     0
102
RTVSPost2010PropOp33
 70
     1
102
RTVSPost2010Prop34
280
     0
102
RTVSPost2010PropOp34
 70
     1
102
RTVSPost2010Prop35
280
     0
102
RTVSPost2010PropOp35
 70
     1
102
RTVSPost2010Prop36
280
     0
102
RTVSPost2010PropOp36
 70
     1
102
RTVSPost2010Prop37
 90
       50
102
RTVSPost2010PropOp37
 70
     1
102
RTVSPost2010Prop38
140
0.0
102
RTVSPost2010PropOp38
 70
     1
102
RTVSPost2010Prop39
140
1.0
102
RTVSPost2010PropOp39
 70
     1
102
RTVSPost2010Prop40
 90
        0
102
RTVSPost2010PropOp40
 70
     1
102
RTVSPost2010Prop41ColorIndex
 90
      178
102
RTVSPost2010Prop41ColorRGB
 90
        0
102
RTVSPost2010PropOp41
 70
     1
102
RTVSPost2010Prop42
 90
       50
102
RTVSPost2010PropOp42
 70
     1
102
RTVSPost2010Prop43
 90
        3
102
RTVSPost2010PropOp43
 70
     1
102
RTVSPost2010Prop44ColorIndex
 90
        5
102
RTVSPost2010Prop44ColorRGB
 90
      255
102
RTVSPost2010PropOp44
 70
     1
102
RTVSPost2010Prop45
280
     0
102
RTVSPost2010PropOp45
 70
     1
102
RTVSPost2010Prop46
 90
       50
102
RTVSPost2010PropOp46
 70
     1
102
RTVSPost2010Prop47
 90
       50
102
RTVSPost2010PropOp47
 70
     1
102
RTVSPost2010Prop48
 90
       50
102
RTVSPost2010PropOp48
 70
     1
102
RTVSPost2010Prop49
280
     0
102
RTVSPost2010PropOp49
 70
     1
102
RTVSPost2010Prop50
 90
       50
102
RTVSPost2010PropOp50
 70
     1
102
RTVSPost2010Prop51ColorIndex
 90
      256
102
RTVSPost2010Prop51ColorRGB
 90
-16777216
102
RTVSPost2010PropOp51
 70
     0
102
RTVSPost2010Prop52
140
1.0
102
RTVSPost2010PropOp52
 70
     0
102
RTVSPost2010Prop53
 90
        2
102
RTVSPost2010PropOp53
 70
     1
102
RTVSPost2010Prop54
  1
strokes_ogs.tif
102
RTVSPost2010PropOp54
 70
     1
102
RTVSPost2010Prop55
280
     0
102
RTVSPost2010PropOp55
 70
     1
102
RTVSPost2010Prop56
140
1.0
102
RTVSPost2010PropOp56
 70
     1
102
RTVSPost2010Prop57
140
1.0
102
RTVSPost2010PropOp57
 70
     1
  0
XRECORD
  5
393
102
{ACAD_REACTORS
330
392
102
}
330
392
100
AcDbXrecord
280
     1
102
RTVSPost2010Prop28
280
     0
102
RTVSPost2010PropOp28
 70
     0
102
RTVSPost2010Prop29
280
     1
102
RTVSPost2010PropOp29
 70
     0
102
RTVSPost2010Prop30
280
     1
102
RTVSPost2010PropOp30
 70
     0
102
RTVSPost2010Prop31
280
     0
102
RTVSPost2010PropOp31
 70
     0
102
RTVSPost2010Prop32
280
     0
102
RTVSPost2010PropOp32
 70
     0
102
RTVSPost2010Prop33
280
     0
102
RTVSPost2010PropOp33
 70
     0
102
RTVSPost2010Prop34
280
     0
102
RTVSPost2010PropOp34
 70
     0
102
RTVSPost2010Prop35
280
     0
102
RTVSPost2010PropOp35
 70
     0
102
RTVSPost2010Prop36
280
     0
102
RTVSPost2010PropOp36
 70
     0
102
RTVSPost2010Prop37
 90
       50
102
RTVSPost2010PropOp37
 70
     0
102
RTVSPost2010Prop38
140
0.0
102
RTVSPost2010PropOp38
 70
     0
102
RTVSPost2010Prop39
140
1.0
102
RTVSPost2010PropOp39
 70
     0
102
RTVSPost2010Prop40
 90
        0
102
RTVSPost2010PropOp40
 70
     0
102
RTVSPost2010Prop41ColorIndex
 90
      178
102
RTVSPost2010Prop41ColorRGB
 90
        0
102
RTVSPost2010PropOp41
 70
     0
102
RTVSPost2010Prop42
 90
       50
102
RTVSPost2010PropOp42
 70
     0
102
RTVSPost2010Prop43
 90
        3
102
RTVSPost2010PropOp43
 70
     0
102
RTVSPost2010Prop44ColorIndex
 90
        5
102
RTVSPost2010Prop44ColorRGB
 90
      255
102
RTVSPost2010PropOp44
 70
     0
102
RTVSPost2010Prop45
280
     0
102
RTVSPost2010PropOp45
 70
     0
102
RTVSPost2010Prop46
 90
       50
102
RTVSPost2010PropOp46
 70
     0
102
RTVSPost2010Prop47
 90
       50
102
RTVSPost2010PropOp47
 70
     0
102
RTVSPost2010Prop48
 90
       50
102
RTVSPost2010PropOp48
 70
     0
102
RTVSPost2010Prop49
280
     0
102
RTVSPost2010PropOp49
 70
     0
102
RTVSPost2010Prop50
 90
       50
102
RTVSPost2010PropOp50
 70
     0
102
RTVSPost2010Prop51ColorIndex
 90
      256
102
RTVSPost2010Prop51ColorRGB
 90
-16777216
102
RTVSPost2010PropOp51
 70
     0
102
RTVSPost2010Prop52
140
1.0
102
RTVSPost2010PropOp52
 70
     0
102
RTVSPost2010Prop53
 90
        2
102
RTVSPost2010PropOp53
 70
     0
102
RTVSPost2010Prop54
  1
strokes_ogs.tif
102
RTVSPost2010PropOp54
 70
     0
102
RTVSPost2010Prop55
280
     0
102
RTVSPost2010PropOp55
 70
     0
102
RTVSPost2010Prop56
140
1.0
102
RTVSPost2010PropOp56
 70
     0
102
RTVSPost2010Prop57
140
1.0
102
RTVSPost2010PropOp57
 70
     0
  0
XRECORD
  5
38B
102
{ACAD_REACTORS
330
38A
102
}
330
38A
100
AcDbXrecord
280
     1
102
RTVSPost2010Prop28
280
     0
102
RTVSPost2010PropOp28
 70
     1
102
RTVSPost2010Prop29
280
     1
102
RTVSPost2010PropOp29
 70
     1
102
RTVSPost2010Prop30
280
     1
102
RTVSPost2010PropOp30
 70
     1
102
RTVSPost2010Prop31
280
     0
102
RTVSPost2010PropOp31
 70
     1
102
RTVSPost2010Prop32
280
     0
102
RTVSPost2010PropOp32
 70
     1
102
RTVSPost2010Prop33
280
     0
102
RTVSPost2010PropOp33
 70
     1
102
RTVSPost2010Prop34
280
     0
102
RTVSPost2010PropOp34
 70
     1
102
RTVSPost2010Prop35
280
     0
102
RTVSPost2010PropOp35
 70
     1
102
RTVSPost2010Prop36
280
     0
102
RTVSPost2010PropOp36
 70
     1
102
RTVSPost2010Prop37
 90
       50
102
RTVSPost2010PropOp37
 70
     1
102
RTVSPost2010Prop38
140
0.0
102
RTVSPost2010PropOp38
 70
     1
102
RTVSPost2010Prop39
140
1.0
102
RTVSPost2010PropOp39
 70
     1
102
RTVSPost2010Prop40
 90
        0
102
RTVSPost2010PropOp40
 70
     1
102
RTVSPost2010Prop41ColorIndex
 90
      178
102
RTVSPost2010Prop41ColorRGB
 90
        0
102
RTVSPost2010PropOp41
 70
     1
102
RTVSPost2010Prop42
 90
       50
102
RTVSPost2010PropOp42
 70
     1
102
RTVSPost2010Prop43
 90
        3
102
RTVSPost2010PropOp43
 70
     1
102
RTVSPost2010Prop44ColorIndex
 90
        5
102
RTVSPost2010Prop44ColorRGB
 90
      255
102
RTVSPost2010PropOp44
 70
     1
102
RTVSPost2010Prop45
280
     0
102
RTVSPost2010PropOp45
 70
     1
102
RTVSPost2010Prop46
 90
       50
102
RTVSPost2010PropOp46
 70
     1
102
RTVSPost2010Prop47
 90
       50
102
RTVSPost2010PropOp47
 70
     1
102
RTVSPost2010Prop48
 90
       50
102
RTVSPost2010PropOp48
 70
     1
102
RTVSPost2010Prop49
280
     0
102
RTVSPost2010PropOp49
 70
     1
102
RTVSPost2010Prop50
 90
       50
102
RTVSPost2010PropOp50
 70
     1
102
RTVSPost2010Prop51ColorIndex
 90
      256
102
RTVSPost2010Prop51ColorRGB
 90
-16777216
102
RTVSPost2010PropOp51
 70
     0
102
RTVSPost2010Prop52
140
1.0
102
RTVSPost2010PropOp52
 70
     0
102
RTVSPost2010Prop53
 90
        2
102
RTVSPost2010PropOp53
 70
     1
102
RTVSPost2010Prop54
  1
strokes_ogs.tif
102
RTVSPost2010PropOp54
 70
     1
102
RTVSPost2010Prop55
280
     0
102
RTVSPost2010PropOp55
 70
     1
102
RTVSPost2010Prop56
140
1.0
102
RTVSPost2010PropOp56
 70
     1
102
RTVSPost2010Prop57
140
1.0
102
RTVSPost2010PropOp57
 70
     1
  0
XRECORD
  5
36F
102
{ACAD_REACTORS
330
36E
102
}
330
36E
100
AcDbXrecord
280
     1
102
RTVSPost2010Prop28
280
     0
102
RTVSPost2010PropOp28
 70
     1
102
RTVSPost2010Prop29
280
     1
102
RTVSPost2010PropOp29
 70
     1
102
RTVSPost2010Prop30
280
     1
102
RTVSPost2010PropOp30
 70
     1
102
RTVSPost2010Prop31
280
     0
102
RTVSPost2010PropOp31
 70
     1
102
RTVSPost2010Prop32
280
     0
102
RTVSPost2010PropOp32
 70
     1
102
RTVSPost2010Prop33
280
     0
102
RTVSPost2010PropOp33
 70
     1
102
RTVSPost2010Prop34
280
     0
102
RTVSPost2010PropOp34
 70
     1
102
RTVSPost2010Prop35
280
     0
102
RTVSPost2010PropOp35
 70
     1
102
RTVSPost2010Prop36
280
     0
102
RTVSPost2010PropOp36
 70
     1
102
RTVSPost2010Prop37
 90
       50
102
RTVSPost2010PropOp37
 70
     1
102
RTVSPost2010Prop38
140
0.0
102
RTVSPost2010PropOp38
 70
     1
102
RTVSPost2010Prop39
140
1.0
102
RTVSPost2010PropOp39
 70
     1
102
RTVSPost2010Prop40
 90
        0
102
RTVSPost2010PropOp40
 70
     1
102
RTVSPost2010Prop41ColorIndex
 90
      178
102
RTVSPost2010Prop41ColorRGB
 90
        0
102
RTVSPost2010PropOp41
 70
     1
102
RTVSPost2010Prop42
 90
       50
102
RTVSPost2010PropOp42
 70
     1
102
RTVSPost2010Prop43
 90
        3
102
RTVSPost2010PropOp43
 70
     1
102
RTVSPost2010Prop44ColorIndex
 90
        5
102
RTVSPost2010Prop44ColorRGB
 90
      255
102
RTVSPost2010PropOp44
 70
     1
102
RTVSPost2010Prop45
280
     0
102
RTVSPost2010PropOp45
 70
     1
102
RTVSPost2010Prop46
 90
       50
102
RTVSPost2010PropOp46
 70
     1
102
RTVSPost2010Prop47
 90
       50
102
RTVSPost2010PropOp47
 70
     1
102
RTVSPost2010Prop48
 90
       50
102
RTVSPost2010PropOp48
 70
     1
102
RTVSPost2010Prop49
280
     0
102
RTVSPost2010PropOp49
 70
     1
102
RTVSPost2010Prop50
 90
       50
102
RTVSPost2010PropOp50
 70
     1
102
RTVSPost2010Prop51ColorIndex
 90
      256
102
RTVSPost2010Prop51ColorRGB
 90
-16777216
102
RTVSPost2010PropOp51
 70
     0
102
RTVSPost2010Prop52
140
1.0
102
RTVSPost2010PropOp52
 70
     0
102
RTVSPost2010Prop53
 90
        2
102
RTVSPost2010PropOp53
 70
     1
102
RTVSPost2010Prop54
  1
strokes_ogs.tif
102
RTVSPost2010PropOp54
 70
     1
102
RTVSPost2010Prop55
280
     0
102
RTVSPost2010PropOp55
 70
     1
102
RTVSPost2010Prop56
140
1.0
102
RTVSPost2010PropOp56
 70
     1
102
RTVSPost2010Prop57
140
1.0
102
RTVSPost2010PropOp57
 70
     1
  0
XRECORD
  5
371
102
{ACAD_REACTORS
330
370
102
}
330
370
100
AcDbXrecord
280
     1
102
RTVSPost2010Prop28
280
     0
102
RTVSPost2010PropOp28
 70
     1
102
RTVSPost2010Prop29
280
     1
102
RTVSPost2010PropOp29
 70
     1
102
RTVSPost2010Prop30
280
     1
102
RTVSPost2010PropOp30
 70
     1
102
RTVSPost2010Prop31
280
     0
102
RTVSPost2010PropOp31
 70
     1
102
RTVSPost2010Prop32
280
     0
102
RTVSPost2010PropOp32
 70
     1
102
RTVSPost2010Prop33
280
     0
102
RTVSPost2010PropOp33
 70
     1
102
RTVSPost2010Prop34
280
     0
102
RTVSPost2010PropOp34
 70
     1
102
RTVSPost2010Prop35
280
     0
102
RTVSPost2010PropOp35
 70
     1
102
RTVSPost2010Prop36
280
     0
102
RTVSPost2010PropOp36
 70
     1
102
RTVSPost2010Prop37
 90
       50
102
RTVSPost2010PropOp37
 70
     1
102
RTVSPost2010Prop38
140
0.0
102
RTVSPost2010PropOp38
 70
     1
102
RTVSPost2010Prop39
140
1.0
102
RTVSPost2010PropOp39
 70
     1
102
RTVSPost2010Prop40
 90
        0
102
RTVSPost2010PropOp40
 70
     1
102
RTVSPost2010Prop41ColorIndex
 90
      178
102
RTVSPost2010Prop41ColorRGB
 90
        0
102
RTVSPost2010PropOp41
 70
     1
102
RTVSPost2010Prop42
 90
       50
102
RTVSPost2010PropOp42
 70
     1
102
RTVSPost2010Prop43
 90
        3
102
RTVSPost2010PropOp43
 70
     1
102
RTVSPost2010Prop44ColorIndex
 90
        5
102
RTVSPost2010Prop44ColorRGB
 90
      255
102
RTVSPost2010PropOp44
 70
     1
102
RTVSPost2010Prop45
280
     0
102
RTVSPost2010PropOp45
 70
     1
102
RTVSPost2010Prop46
 90
       50
102
RTVSPost2010PropOp46
 70
     1
102
RTVSPost2010Prop47
 90
       50
102
RTVSPost2010PropOp47
 70
     1
102
RTVSPost2010Prop48
 90
       50
102
RTVSPost2010PropOp48
 70
     1
102
RTVSPost2010Prop49
280
     0
102
RTVSPost2010PropOp49
 70
     1
102
RTVSPost2010Prop50
 90
       50
102
RTVSPost2010PropOp50
 70
     1
102
RTVSPost2010Prop51ColorIndex
 90
      256
102
RTVSPost2010Prop51ColorRGB
 90
-16777216
102
RTVSPost2010PropOp51
 70
     0
102
RTVSPost2010Prop52
140
1.0
102
RTVSPost2010PropOp52
 70
     0
102
RTVSPost2010Prop53
 90
        2
102
RTVSPost2010PropOp53
 70
     1
102
RTVSPost2010Prop54
  1
strokes_ogs.tif
102
RTVSPost2010PropOp54
 70
     1
102
RTVSPost2010Prop55
280
     0
102
RTVSPost2010PropOp55
 70
     1
102
RTVSPost2010Prop56
140
1.0
102
RTVSPost2010PropOp56
 70
     1
102
RTVSPost2010Prop57
140
1.0
102
RTVSPost2010PropOp57
 70
     1
  0
XRECORD
  5
373
102
{ACAD_REACTORS
330
372
102
}
330
372
100
AcDbXrecord
280
     1
102
RTVSPost2010Prop28
280
     0
102
RTVSPost2010PropOp28
 70
     1
102
RTVSPost2010Prop29
280
     1
102
RTVSPost2010PropOp29
 70
     1
102
RTVSPost2010Prop30
280
     1
102
RTVSPost2010PropOp30
 70
     1
102
RTVSPost2010Prop31
280
     0
102
RTVSPost2010PropOp31
 70
     1
102
RTVSPost2010Prop32
280
     0
102
RTVSPost2010PropOp32
 70
     1
102
RTVSPost2010Prop33
280
     0
102
RTVSPost2010PropOp33
 70
     1
102
RTVSPost2010Prop34
280
     0
102
RTVSPost2010PropOp34
 70
     1
102
RTVSPost2010Prop35
280
     0
102
RTVSPost2010PropOp35
 70
     1
102
RTVSPost2010Prop36
280
     0
102
RTVSPost2010PropOp36
 70
     1
102
RTVSPost2010Prop37
 90
       50
102
RTVSPost2010PropOp37
 70
     1
102
RTVSPost2010Prop38
140
0.0
102
RTVSPost2010PropOp38
 70
     1
102
RTVSPost2010Prop39
140
1.0
102
RTVSPost2010PropOp39
 70
     1
102
RTVSPost2010Prop40
 90
        0
102
RTVSPost2010PropOp40
 70
     1
102
RTVSPost2010Prop41ColorIndex
 90
      178
102
RTVSPost2010Prop41ColorRGB
 90
        0
102
RTVSPost2010PropOp41
 70
     1
102
RTVSPost2010Prop42
 90
       50
102
RTVSPost2010PropOp42
 70
     1
102
RTVSPost2010Prop43
 90
        3
102
RTVSPost2010PropOp43
 70
     1
102
RTVSPost2010Prop44ColorIndex
 90
        5
102
RTVSPost2010Prop44ColorRGB
 90
      255
102
RTVSPost2010PropOp44
 70
     1
102
RTVSPost2010Prop45
280
     0
102
RTVSPost2010PropOp45
 70
     1
102
RTVSPost2010Prop46
 90
       50
102
RTVSPost2010PropOp46
 70
     1
102
RTVSPost2010Prop47
 90
       50
102
RTVSPost2010PropOp47
 70
     1
102
RTVSPost2010Prop48
 90
       50
102
RTVSPost2010PropOp48
 70
     1
102
RTVSPost2010Prop49
280
     0
102
RTVSPost2010PropOp49
 70
     1
102
RTVSPost2010Prop50
 90
       50
102
RTVSPost2010PropOp50
 70
     1
102
RTVSPost2010Prop51ColorIndex
 90
      256
102
RTVSPost2010Prop51ColorRGB
 90
-16777216
102
RTVSPost2010PropOp51
 70
     0
102
RTVSPost2010Prop52
140
1.0
102
RTVSPost2010PropOp52
 70
     0
102
RTVSPost2010Prop53
 90
        2
102
RTVSPost2010PropOp53
 70
     1
102
RTVSPost2010Prop54
  1
strokes_ogs.tif
102
RTVSPost2010PropOp54
 70
     1
102
RTVSPost2010Prop55
280
     0
102
RTVSPost2010PropOp55
 70
     1
102
RTVSPost2010Prop56
140
1.0
102
RTVSPost2010PropOp56
 70
     1
102
RTVSPost2010Prop57
140
1.0
102
RTVSPost2010PropOp57
 70
     1
  0
XRECORD
  5
375
102
{ACAD_REACTORS
330
374
102
}
330
374
100
AcDbXrecord
280
     1
102
RTVSPost2010Prop28
280
     0
102
RTVSPost2010PropOp28
 70
     1
102
RTVSPost2010Prop29
280
     1
102
RTVSPost2010PropOp29
 70
     1
102
RTVSPost2010Prop30
280
     1
102
RTVSPost2010PropOp30
 70
     1
102
RTVSPost2010Prop31
280
     0
102
RTVSPost2010PropOp31
 70
     1
102
RTVSPost2010Prop32
280
     0
102
RTVSPost2010PropOp32
 70
     1
102
RTVSPost2010Prop33
280
     0
102
RTVSPost2010PropOp33
 70
     1
102
RTVSPost2010Prop34
280
     0
102
RTVSPost2010PropOp34
 70
     1
102
RTVSPost2010Prop35
280
     0
102
RTVSPost2010PropOp35
 70
     1
102
RTVSPost2010Prop36
280
     0
102
RTVSPost2010PropOp36
 70
     1
102
RTVSPost2010Prop37
 90
       50
102
RTVSPost2010PropOp37
 70
     1
102
RTVSPost2010Prop38
140
0.0
102
RTVSPost2010PropOp38
 70
     1
102
RTVSPost2010Prop39
140
1.0
102
RTVSPost2010PropOp39
 70
     1
102
RTVSPost2010Prop40
 90
        0
102
RTVSPost2010PropOp40
 70
     1
102
RTVSPost2010Prop41ColorIndex
 90
      178
102
RTVSPost2010Prop41ColorRGB
 90
        0
102
RTVSPost2010PropOp41
 70
     1
102
RTVSPost2010Prop42
 90
       50
102
RTVSPost2010PropOp42
 70
     1
102
RTVSPost2010Prop43
 90
        3
102
RTVSPost2010PropOp43
 70
     1
102
RTVSPost2010Prop44ColorIndex
 90
        5
102
RTVSPost2010Prop44ColorRGB
 90
      255
102
RTVSPost2010PropOp44
 70
     1
102
RTVSPost2010Prop45
280
     0
102
RTVSPost2010PropOp45
 70
     1
102
RTVSPost2010Prop46
 90
       50
102
RTVSPost2010PropOp46
 70
     1
102
RTVSPost2010Prop47
 90
       50
102
RTVSPost2010PropOp47
 70
     1
102
RTVSPost2010Prop48
 90
       50
102
RTVSPost2010PropOp48
 70
     1
102
RTVSPost2010Prop49
280
     0
102
RTVSPost2010PropOp49
 70
     1
102
RTVSPost2010Prop50
 90
       50
102
RTVSPost2010PropOp50
 70
     1
102
RTVSPost2010Prop51ColorIndex
 90
      256
102
RTVSPost2010Prop51ColorRGB
 90
-16777216
102
RTVSPost2010PropOp51
 70
     0
102
RTVSPost2010Prop52
140
1.0
102
RTVSPost2010PropOp52
 70
     0
102
RTVSPost2010Prop53
 90
        2
102
RTVSPost2010PropOp53
 70
     1
102
RTVSPost2010Prop54
  1
strokes_ogs.tif
102
RTVSPost2010PropOp54
 70
     1
102
RTVSPost2010Prop55
280
     0
102
RTVSPost2010PropOp55
 70
     1
102
RTVSPost2010Prop56
140
1.0
102
RTVSPost2010PropOp56
 70
     1
102
RTVSPost2010Prop57
140
1.0
102
RTVSPost2010PropOp57
 70
     1
  0
XRECORD
  5
37B
102
{ACAD_REACTORS
330
37A
102
}
330
37A
100
AcDbXrecord
280
     1
102
RTVSPost2010Prop28
280
     0
102
RTVSPost2010PropOp28
 70
     1
102
RTVSPost2010Prop29
280
     1
102
RTVSPost2010PropOp29
 70
     1
102
RTVSPost2010Prop30
280
     1
102
RTVSPost2010PropOp30
 70
     1
102
RTVSPost2010Prop31
280
     0
102
RTVSPost2010PropOp31
 70
     1
102
RTVSPost2010Prop32
280
     0
102
RTVSPost2010PropOp32
 70
     1
102
RTVSPost2010Prop33
280
     0
102
RTVSPost2010PropOp33
 70
     1
102
RTVSPost2010Prop34
280
     0
102
RTVSPost2010PropOp34
 70
     1
102
RTVSPost2010Prop35
280
     0
102
RTVSPost2010PropOp35
 70
     1
102
RTVSPost2010Prop36
280
     0
102
RTVSPost2010PropOp36
 70
     1
102
RTVSPost2010Prop37
 90
       50
102
RTVSPost2010PropOp37
 70
     1
102
RTVSPost2010Prop38
140
0.0
102
RTVSPost2010PropOp38
 70
     1
102
RTVSPost2010Prop39
140
1.0
102
RTVSPost2010PropOp39
 70
     1
102
RTVSPost2010Prop40
 90
        0
102
RTVSPost2010PropOp40
 70
     1
102
RTVSPost2010Prop41ColorIndex
 90
      178
102
RTVSPost2010Prop41ColorRGB
 90
        0
102
RTVSPost2010PropOp41
 70
     1
102
RTVSPost2010Prop42
 90
       50
102
RTVSPost2010PropOp42
 70
     1
102
RTVSPost2010Prop43
 90
        3
102
RTVSPost2010PropOp43
 70
     1
102
RTVSPost2010Prop44ColorIndex
 90
        5
102
RTVSPost2010Prop44ColorRGB
 90
      255
102
RTVSPost2010PropOp44
 70
     1
102
RTVSPost2010Prop45
280
     0
102
RTVSPost2010PropOp45
 70
     1
102
RTVSPost2010Prop46
 90
       50
102
RTVSPost2010PropOp46
 70
     1
102
RTVSPost2010Prop47
 90
       50
102
RTVSPost2010PropOp47
 70
     1
102
RTVSPost2010Prop48
 90
       50
102
RTVSPost2010PropOp48
 70
     1
102
RTVSPost2010Prop49
280
     0
102
RTVSPost2010PropOp49
 70
     1
102
RTVSPost2010Prop50
 90
       50
102
RTVSPost2010PropOp50
 70
     1
102
RTVSPost2010Prop51ColorIndex
 90
      256
102
RTVSPost2010Prop51ColorRGB
 90
-16777216
102
RTVSPost2010PropOp51
 70
     0
102
RTVSPost2010Prop52
140
1.0
102
RTVSPost2010PropOp52
 70
     0
102
RTVSPost2010Prop53
 90
        2
102
RTVSPost2010PropOp53
 70
     1
102
RTVSPost2010Prop54
  1
strokes_ogs.tif
102
RTVSPost2010PropOp54
 70
     1
102
RTVSPost2010Prop55
280
     0
102
RTVSPost2010PropOp55
 70
     1
102
RTVSPost2010Prop56
140
1.0
102
RTVSPost2010PropOp56
 70
     1
102
RTVSPost2010Prop57
140
1.0
102
RTVSPost2010PropOp57
 70
     1
  0
XRECORD
  5
38F
102
{ACAD_REACTORS
330
38E
102
}
330
38E
100
AcDbXrecord
280
     1
102
RTVSPost2010Prop28
280
     0
102
RTVSPost2010PropOp28
 70
     0
102
RTVSPost2010Prop29
280
     1
102
RTVSPost2010PropOp29
 70
     0
102
RTVSPost2010Prop30
280
     1
102
RTVSPost2010PropOp30
 70
     0
102
RTVSPost2010Prop31
280
     0
102
RTVSPost2010PropOp31
 70
     0
102
RTVSPost2010Prop32
280
     0
102
RTVSPost2010PropOp32
 70
     0
102
RTVSPost2010Prop33
280
     0
102
RTVSPost2010PropOp33
 70
     0
102
RTVSPost2010Prop34
280
     0
102
RTVSPost2010PropOp34
 70
     0
102
RTVSPost2010Prop35
280
     0
102
RTVSPost2010PropOp35
 70
     0
102
RTVSPost2010Prop36
280
     0
102
RTVSPost2010PropOp36
 70
     0
102
RTVSPost2010Prop37
 90
       50
102
RTVSPost2010PropOp37
 70
     0
102
RTVSPost2010Prop38
140
0.0
102
RTVSPost2010PropOp38
 70
     0
102
RTVSPost2010Prop39
140
1.0
102
RTVSPost2010PropOp39
 70
     0
102
RTVSPost2010Prop40
 90
        0
102
RTVSPost2010PropOp40
 70
     0
102
RTVSPost2010Prop41ColorIndex
 90
      178
102
RTVSPost2010Prop41ColorRGB
 90
        0
102
RTVSPost2010PropOp41
 70
     0
102
RTVSPost2010Prop42
 90
       50
102
RTVSPost2010PropOp42
 70
     0
102
RTVSPost2010Prop43
 90
        3
102
RTVSPost2010PropOp43
 70
     0
102
RTVSPost2010Prop44ColorIndex
 90
        5
102
RTVSPost2010Prop44ColorRGB
 90
      255
102
RTVSPost2010PropOp44
 70
     0
102
RTVSPost2010Prop45
280
     0
102
RTVSPost2010PropOp45
 70
     0
102
RTVSPost2010Prop46
 90
       50
102
RTVSPost2010PropOp46
 70
     0
102
RTVSPost2010Prop47
 90
       50
102
RTVSPost2010PropOp47
 70
     0
102
RTVSPost2010Prop48
 90
       50
102
RTVSPost2010PropOp48
 70
     0
102
RTVSPost2010Prop49
280
     0
102
RTVSPost2010PropOp49
 70
     0
102
RTVSPost2010Prop50
 90
       50
102
RTVSPost2010PropOp50
 70
     0
102
RTVSPost2010Prop51ColorIndex
 90
      256
102
RTVSPost2010Prop51ColorRGB
 90
-16777216
102
RTVSPost2010PropOp51
 70
     0
102
RTVSPost2010Prop52
140
1.0
102
RTVSPost2010PropOp52
 70
     0
102
RTVSPost2010Prop53
 90
        2
102
RTVSPost2010PropOp53
 70
     0
102
RTVSPost2010Prop54
  1
strokes_ogs.tif
102
RTVSPost2010PropOp54
 70
     0
102
RTVSPost2010Prop55
280
     0
102
RTVSPost2010PropOp55
 70
     0
102
RTVSPost2010Prop56
140
1.0
102
RTVSPost2010PropOp56
 70
     0
102
RTVSPost2010Prop57
140
1.0
102
RTVSPost2010PropOp57
 70
     0
  0
XRECORD
  5
389
102
{ACAD_REACTORS
330
388
102
}
330
388
100
AcDbXrecord
280
     1
102
RTVSPost2010Prop28
280
     0
102
RTVSPost2010PropOp28
 70
     1
102
RTVSPost2010Prop29
280
     1
102
RTVSPost2010PropOp29
 70
     1
102
RTVSPost2010Prop30
280
     1
102
RTVSPost2010PropOp30
 70
     1
102
RTVSPost2010Prop31
280
     0
102
RTVSPost2010PropOp31
 70
     1
102
RTVSPost2010Prop32
280
     0
102
RTVSPost2010PropOp32
 70
     1
102
RTVSPost2010Prop33
280
     0
102
RTVSPost2010PropOp33
 70
     1
102
RTVSPost2010Prop34
280
     0
102
RTVSPost2010PropOp34
 70
     1
102
RTVSPost2010Prop35
280
     0
102
RTVSPost2010PropOp35
 70
     1
102
RTVSPost2010Prop36
280
     0
102
RTVSPost2010PropOp36
 70
     1
102
RTVSPost2010Prop37
 90
       50
102
RTVSPost2010PropOp37
 70
     1
102
RTVSPost2010Prop38
140
0.0
102
RTVSPost2010PropOp38
 70
     1
102
RTVSPost2010Prop39
140
1.0
102
RTVSPost2010PropOp39
 70
     1
102
RTVSPost2010Prop40
 90
        0
102
RTVSPost2010PropOp40
 70
     1
102
RTVSPost2010Prop41ColorIndex
 90
      178
102
RTVSPost2010Prop41ColorRGB
 90
        0
102
RTVSPost2010PropOp41
 70
     1
102
RTVSPost2010Prop42
 90
       50
102
RTVSPost2010PropOp42
 70
     1
102
RTVSPost2010Prop43
 90
        3
102
RTVSPost2010PropOp43
 70
     1
102
RTVSPost2010Prop44ColorIndex
 90
        5
102
RTVSPost2010Prop44ColorRGB
 90
      255
102
RTVSPost2010PropOp44
 70
     1
102
RTVSPost2010Prop45
280
     0
102
RTVSPost2010PropOp45
 70
     1
102
RTVSPost2010Prop46
 90
       50
102
RTVSPost2010PropOp46
 70
     1
102
RTVSPost2010Prop47
 90
       50
102
RTVSPost2010PropOp47
 70
     1
102
RTVSPost2010Prop48
 90
       50
102
RTVSPost2010PropOp48
 70
     1
102
RTVSPost2010Prop49
280
     0
102
RTVSPost2010PropOp49
 70
     1
102
RTVSPost2010Prop50
 90
       50
102
RTVSPost2010PropOp50
 70
     1
102
RTVSPost2010Prop51ColorIndex
 90
      256
102
RTVSPost2010Prop51ColorRGB
 90
-16777216
102
RTVSPost2010PropOp51
 70
     0
102
RTVSPost2010Prop52
140
1.0
102
RTVSPost2010PropOp52
 70
     0
102
RTVSPost2010Prop53
 90
        2
102
RTVSPost2010PropOp53
 70
     1
102
RTVSPost2010Prop54
  1
strokes_ogs.tif
102
RTVSPost2010PropOp54
 70
     1
102
RTVSPost2010Prop55
280
     0
102
RTVSPost2010PropOp55
 70
     1
102
RTVSPost2010Prop56
140
1.0
102
RTVSPost2010PropOp56
 70
     1
102
RTVSPost2010Prop57
140
1.0
102
RTVSPost2010PropOp57
 70
     1
  0
XRECORD
  5
391
102
{ACAD_REACTORS
330
390
102
}
330
390
100
AcDbXrecord
280
     1
102
RTVSPost2010Prop28
280
     0
102
RTVSPost2010PropOp28
 70
     0
102
RTVSPost2010Prop29
280
     1
102
RTVSPost2010PropOp29
 70
     0
102
RTVSPost2010Prop30
280
     1
102
RTVSPost2010PropOp30
 70
     0
102
RTVSPost2010Prop31
280
     0
102
RTVSPost2010PropOp31
 70
     0
102
RTVSPost2010Prop32
280
     0
102
RTVSPost2010PropOp32
 70
     0
102
RTVSPost2010Prop33
280
     0
102
RTVSPost2010PropOp33
 70
     0
102
RTVSPost2010Prop34
280
     0
102
RTVSPost2010PropOp34
 70
     0
102
RTVSPost2010Prop35
280
     0
102
RTVSPost2010PropOp35
 70
     0
102
RTVSPost2010Prop36
280
     0
102
RTVSPost2010PropOp36
 70
     0
102
RTVSPost2010Prop37
 90
       50
102
RTVSPost2010PropOp37
 70
     0
102
RTVSPost2010Prop38
140
0.0
102
RTVSPost2010PropOp38
 70
     0
102
RTVSPost2010Prop39
140
1.0
102
RTVSPost2010PropOp39
 70
     0
102
RTVSPost2010Prop40
 90
        0
102
RTVSPost2010PropOp40
 70
     0
102
RTVSPost2010Prop41ColorIndex
 90
      178
102
RTVSPost2010Prop41ColorRGB
 90
        0
102
RTVSPost2010PropOp41
 70
     0
102
RTVSPost2010Prop42
 90
       50
102
RTVSPost2010PropOp42
 70
     0
102
RTVSPost2010Prop43
 90
        3
102
RTVSPost2010PropOp43
 70
     0
102
RTVSPost2010Prop44ColorIndex
 90
        5
102
RTVSPost2010Prop44ColorRGB
 90
      255
102
RTVSPost2010PropOp44
 70
     0
102
RTVSPost2010Prop45
280
     0
102
RTVSPost2010PropOp45
 70
     0
102
RTVSPost2010Prop46
 90
       50
102
RTVSPost2010PropOp46
 70
     0
102
RTVSPost2010Prop47
 90
       50
102
RTVSPost2010PropOp47
 70
     0
102
RTVSPost2010Prop48
 90
       50
102
RTVSPost2010PropOp48
 70
     0
102
RTVSPost2010Prop49
280
     0
102
RTVSPost2010PropOp49
 70
     0
102
RTVSPost2010Prop50
 90
       50
102
RTVSPost2010PropOp50
 70
     0
102
RTVSPost2010Prop51ColorIndex
 90
      256
102
RTVSPost2010Prop51ColorRGB
 90
-16777216
102
RTVSPost2010PropOp51
 70
     0
102
RTVSPost2010Prop52
140
1.0
102
RTVSPost2010PropOp52
 70
     0
102
RTVSPost2010Prop53
 90
        2
102
RTVSPost2010PropOp53
 70
     0
102
RTVSPost2010Prop54
  1
strokes_ogs.tif
102
RTVSPost2010PropOp54
 70
     0
102
RTVSPost2010Prop55
280
     0
102
RTVSPost2010PropOp55
 70
     0
102
RTVSPost2010Prop56
140
1.0
102
RTVSPost2010PropOp56
 70
     0
102
RTVSPost2010Prop57
140
1.0
102
RTVSPost2010PropOp57
 70
     0
  0
XRECORD
  5
37F
102
{ACAD_REACTORS
330
37E
102
}
330
37E
100
AcDbXrecord
280
     1
102
RTVSPost2010Prop28
280
     0
102
RTVSPost2010PropOp28
 70
     1
102
RTVSPost2010Prop29
280
     1
102
RTVSPost2010PropOp29
 70
     1
102
RTVSPost2010Prop30
280
     1
102
RTVSPost2010PropOp30
 70
     1
102
RTVSPost2010Prop31
280
     0
102
RTVSPost2010PropOp31
 70
     1
102
RTVSPost2010Prop32
280
     0
102
RTVSPost2010PropOp32
 70
     1
102
RTVSPost2010Prop33
280
     0
102
RTVSPost2010PropOp33
 70
     1
102
RTVSPost2010Prop34
280
     0
102
RTVSPost2010PropOp34
 70
     1
102
RTVSPost2010Prop35
280
     0
102
RTVSPost2010PropOp35
 70
     1
102
RTVSPost2010Prop36
280
     0
102
RTVSPost2010PropOp36
 70
     1
102
RTVSPost2010Prop37
 90
       50
102
RTVSPost2010PropOp37
 70
     1
102
RTVSPost2010Prop38
140
0.0
102
RTVSPost2010PropOp38
 70
     1
102
RTVSPost2010Prop39
140
1.0
102
RTVSPost2010PropOp39
 70
     1
102
RTVSPost2010Prop40
 90
        0
102
RTVSPost2010PropOp40
 70
     1
102
RTVSPost2010Prop41ColorIndex
 90
      178
102
RTVSPost2010Prop41ColorRGB
 90
        0
102
RTVSPost2010PropOp41
 70
     1
102
RTVSPost2010Prop42
 90
       50
102
RTVSPost2010PropOp42
 70
     1
102
RTVSPost2010Prop43
 90
        3
102
RTVSPost2010PropOp43
 70
     1
102
RTVSPost2010Prop44ColorIndex
 90
        5
102
RTVSPost2010Prop44ColorRGB
 90
      255
102
RTVSPost2010PropOp44
 70
     1
102
RTVSPost2010Prop45
280
     0
102
RTVSPost2010PropOp45
 70
     1
102
RTVSPost2010Prop46
 90
       50
102
RTVSPost2010PropOp46
 70
     1
102
RTVSPost2010Prop47
 90
       50
102
RTVSPost2010PropOp47
 70
     1
102
RTVSPost2010Prop48
 90
       50
102
RTVSPost2010PropOp48
 70
     1
102
RTVSPost2010Prop49
280
     0
102
RTVSPost2010PropOp49
 70
     1
102
RTVSPost2010Prop50
 90
       50
102
RTVSPost2010PropOp50
 70
     1
102
RTVSPost2010Prop51ColorIndex
 90
      256
102
RTVSPost2010Prop51ColorRGB
 90
-16777216
102
RTVSPost2010PropOp51
 70
     0
102
RTVSPost2010Prop52
140
1.0
102
RTVSPost2010PropOp52
 70
     0
102
RTVSPost2010Prop53
 90
        2
102
RTVSPost2010PropOp53
 70
     1
102
RTVSPost2010Prop54
  1
strokes_ogs.tif
102
RTVSPost2010PropOp54
 70
     1
102
RTVSPost2010Prop55
280
     0
102
RTVSPost2010PropOp55
 70
     1
102
RTVSPost2010Prop56
140
1.0
102
RTVSPost2010PropOp56
 70
     1
102
RTVSPost2010Prop57
140
1.0
102
RTVSPost2010PropOp57
 70
     1
  0
XRECORD
  5
39D
102
{ACAD_REACTORS
330
39C
102
}
330
39C
100
AcDbXrecord
280
     1
102
RTVSPost2010Prop28
280
     0
102
RTVSPost2010PropOp28
 70
     1
102
RTVSPost2010Prop29
280
     1
102
RTVSPost2010PropOp29
 70
     1
102
RTVSPost2010Prop30
280
     1
102
RTVSPost2010PropOp30
 70
     1
102
RTVSPost2010Prop31
280
     0
102
RTVSPost2010PropOp31
 70
     1
102
RTVSPost2010Prop32
280
     0
102
RTVSPost2010PropOp32
 70
     1
102
RTVSPost2010Prop33
280
     0
102
RTVSPost2010PropOp33
 70
     1
102
RTVSPost2010Prop34
280
     0
102
RTVSPost2010PropOp34
 70
     1
102
RTVSPost2010Prop35
280
     0
102
RTVSPost2010PropOp35
 70
     1
102
RTVSPost2010Prop36
280
     0
102
RTVSPost2010PropOp36
 70
     1
102
RTVSPost2010Prop37
 90
       50
102
RTVSPost2010PropOp37
 70
     1
102
RTVSPost2010Prop38
140
0.0
102
RTVSPost2010PropOp38
 70
     1
102
RTVSPost2010Prop39
140
1.0
102
RTVSPost2010PropOp39
 70
     1
102
RTVSPost2010Prop40
 90
        0
102
RTVSPost2010PropOp40
 70
     1
102
RTVSPost2010Prop41ColorIndex
 90
      178
102
RTVSPost2010Prop41ColorRGB
 90
        0
102
RTVSPost2010PropOp41
 70
     1
102
RTVSPost2010Prop42
 90
       50
102
RTVSPost2010PropOp42
 70
     1
102
RTVSPost2010Prop43
 90
        3
102
RTVSPost2010PropOp43
 70
     1
102
RTVSPost2010Prop44ColorIndex
 90
        5
102
RTVSPost2010Prop44ColorRGB
 90
      255
102
RTVSPost2010PropOp44
 70
     1
102
RTVSPost2010Prop45
280
     0
102
RTVSPost2010PropOp45
 70
     1
102
RTVSPost2010Prop46
 90
       50
102
RTVSPost2010PropOp46
 70
     1
102
RTVSPost2010Prop47
 90
       50
102
RTVSPost2010PropOp47
 70
     1
102
RTVSPost2010Prop48
 90
       50
102
RTVSPost2010PropOp48
 70
     1
102
RTVSPost2010Prop49
280
     0
102
RTVSPost2010PropOp49
 70
     1
102
RTVSPost2010Prop50
 90
       50
102
RTVSPost2010PropOp50
 70
     1
102
RTVSPost2010Prop51ColorIndex
 90
      256
102
RTVSPost2010Prop51ColorRGB
 90
-16777216
102
RTVSPost2010PropOp51
 70
     0
102
RTVSPost2010Prop52
140
1.0
102
RTVSPost2010PropOp52
 70
     0
102
RTVSPost2010Prop53
 90
        2
102
RTVSPost2010PropOp53
 70
     1
102
RTVSPost2010Prop54
  1
strokes_ogs.tif
102
RTVSPost2010PropOp54
 70
     1
102
RTVSPost2010Prop55
280
     0
102
RTVSPost2010PropOp55
 70
     1
102
RTVSPost2010Prop56
140
1.0
102
RTVSPost2010PropOp56
 70
     1
102
RTVSPost2010Prop57
140
1.0
102
RTVSPost2010PropOp57
 70
     1
  0
XRECORD
  5
39B
102
{ACAD_REACTORS
330
39A
102
}
330
39A
100
AcDbXrecord
280
     1
102
RTVSPost2010Prop28
280
     0
102
RTVSPost2010PropOp28
 70
     1
102
RTVSPost2010Prop29
280
     1
102
RTVSPost2010PropOp29
 70
     1
102
RTVSPost2010Prop30
280
     1
102
RTVSPost2010PropOp30
 70
     1
102
RTVSPost2010Prop31
280
     0
102
RTVSPost2010PropOp31
 70
     1
102
RTVSPost2010Prop32
280
     0
102
RTVSPost2010PropOp32
 70
     1
102
RTVSPost2010Prop33
280
     0
102
RTVSPost2010PropOp33
 70
     1
102
RTVSPost2010Prop34
280
     0
102
RTVSPost2010PropOp34
 70
     1
102
RTVSPost2010Prop35
280
     0
102
RTVSPost2010PropOp35
 70
     1
102
RTVSPost2010Prop36
280
     0
102
RTVSPost2010PropOp36
 70
     1
102
RTVSPost2010Prop37
 90
       50
102
RTVSPost2010PropOp37
 70
     1
102
RTVSPost2010Prop38
140
0.0
102
RTVSPost2010PropOp38
 70
     1
102
RTVSPost2010Prop39
140
1.0
102
RTVSPost2010PropOp39
 70
     1
102
RTVSPost2010Prop40
 90
        0
102
RTVSPost2010PropOp40
 70
     1
102
RTVSPost2010Prop41ColorIndex
 90
      178
102
RTVSPost2010Prop41ColorRGB
 90
        0
102
RTVSPost2010PropOp41
 70
     1
102
RTVSPost2010Prop42
 90
       50
102
RTVSPost2010PropOp42
 70
     1
102
RTVSPost2010Prop43
 90
        3
102
RTVSPost2010PropOp43
 70
     1
102
RTVSPost2010Prop44ColorIndex
 90
        5
102
RTVSPost2010Prop44ColorRGB
 90
      255
102
RTVSPost2010PropOp44
 70
     1
102
RTVSPost2010Prop45
280
     0
102
RTVSPost2010PropOp45
 70
     1
102
RTVSPost2010Prop46
 90
       50
102
RTVSPost2010PropOp46
 70
     1
102
RTVSPost2010Prop47
 90
       50
102
RTVSPost2010PropOp47
 70
     1
102
RTVSPost2010Prop48
 90
       50
102
RTVSPost2010PropOp48
 70
     1
102
RTVSPost2010Prop49
280
     0
102
RTVSPost2010PropOp49
 70
     1
102
RTVSPost2010Prop50
 90
       50
102
RTVSPost2010PropOp50
 70
     1
102
RTVSPost2010Prop51ColorIndex
 90
      256
102
RTVSPost2010Prop51ColorRGB
 90
-16777216
102
RTVSPost2010PropOp51
 70
     0
102
RTVSPost2010Prop52
140
1.0
102
RTVSPost2010PropOp52
 70
     0
102
RTVSPost2010Prop53
 90
        2
102
RTVSPost2010PropOp53
 70
     1
102
RTVSPost2010Prop54
  1
strokes_ogs.tif
102
RTVSPost2010PropOp54
 70
     1
102
RTVSPost2010Prop55
280
     0
102
RTVSPost2010PropOp55
 70
     1
102
RTVSPost2010Prop56
140
1.0
102
RTVSPost2010PropOp56
 70
     1
102
RTVSPost2010Prop57
140
1.0
102
RTVSPost2010PropOp57
 70
     1
  0
XRECORD
  5
395
102
{ACAD_REACTORS
330
394
102
}
330
394
100
AcDbXrecord
280
     1
102
RTVSPost2010Prop28
280
     0
102
RTVSPost2010PropOp28
 70
     1
102
RTVSPost2010Prop29
280
     1
102
RTVSPost2010PropOp29
 70
     1
102
RTVSPost2010Prop30
280
     1
102
RTVSPost2010PropOp30
 70
     1
102
RTVSPost2010Prop31
280
     0
102
RTVSPost2010PropOp31
 70
     1
102
RTVSPost2010Prop32
280
     0
102
RTVSPost2010PropOp32
 70
     1
102
RTVSPost2010Prop33
280
     0
102
RTVSPost2010PropOp33
 70
     1
102
RTVSPost2010Prop34
280
     0
102
RTVSPost2010PropOp34
 70
     1
102
RTVSPost2010Prop35
280
     0
102
RTVSPost2010PropOp35
 70
     1
102
RTVSPost2010Prop36
280
     0
102
RTVSPost2010PropOp36
 70
     1
102
RTVSPost2010Prop37
 90
       50
102
RTVSPost2010PropOp37
 70
     1
102
RTVSPost2010Prop38
140
0.0
102
RTVSPost2010PropOp38
 70
     1
102
RTVSPost2010Prop39
140
1.0
102
RTVSPost2010PropOp39
 70
     1
102
RTVSPost2010Prop40
 90
        0
102
RTVSPost2010PropOp40
 70
     1
102
RTVSPost2010Prop41ColorIndex
 90
      178
102
RTVSPost2010Prop41ColorRGB
 90
        0
102
RTVSPost2010PropOp41
 70
     1
102
RTVSPost2010Prop42
 90
       50
102
RTVSPost2010PropOp42
 70
     1
102
RTVSPost2010Prop43
 90
        3
102
RTVSPost2010PropOp43
 70
     1
102
RTVSPost2010Prop44ColorIndex
 90
        5
102
RTVSPost2010Prop44ColorRGB
 90
      255
102
RTVSPost2010PropOp44
 70
     1
102
RTVSPost2010Prop45
280
     0
102
RTVSPost2010PropOp45
 70
     1
102
RTVSPost2010Prop46
 90
       50
102
RTVSPost2010PropOp46
 70
     1
102
RTVSPost2010Prop47
 90
       50
102
RTVSPost2010PropOp47
 70
     1
102
RTVSPost2010Prop48
 90
       50
102
RTVSPost2010PropOp48
 70
     1
102
RTVSPost2010Prop49
280
     0
102
RTVSPost2010PropOp49
 70
     1
102
RTVSPost2010Prop50
 90
       50
102
RTVSPost2010PropOp50
 70
     1
102
RTVSPost2010Prop51ColorIndex
 90
      256
102
RTVSPost2010Prop51ColorRGB
 90
-16777216
102
RTVSPost2010PropOp51
 70
     0
102
RTVSPost2010Prop52
140
1.0
102
RTVSPost2010PropOp52
 70
     0
102
RTVSPost2010Prop53
 90
        2
102
RTVSPost2010PropOp53
 70
     1
102
RTVSPost2010Prop54
  1
strokes_ogs.tif
102
RTVSPost2010PropOp54
 70
     1
102
RTVSPost2010Prop55
280
     0
102
RTVSPost2010PropOp55
 70
     1
102
RTVSPost2010Prop56
140
1.0
102
RTVSPost2010PropOp56
 70
     1
102
RTVSPost2010Prop57
140
1.0
102
RTVSPost2010PropOp57
 70
     1
  0
XRECORD
  5
397
102
{ACAD_REACTORS
330
396
102
}
330
396
100
AcDbXrecord
280
     1
102
RTVSPost2010Prop28
280
     0
102
RTVSPost2010PropOp28
 70
     1
102
RTVSPost2010Prop29
280
     1
102
RTVSPost2010PropOp29
 70
     1
102
RTVSPost2010Prop30
280
     1
102
RTVSPost2010PropOp30
 70
     1
102
RTVSPost2010Prop31
280
     0
102
RTVSPost2010PropOp31
 70
     1
102
RTVSPost2010Prop32
280
     0
102
RTVSPost2010PropOp32
 70
     1
102
RTVSPost2010Prop33
280
     0
102
RTVSPost2010PropOp33
 70
     1
102
RTVSPost2010Prop34
280
     0
102
RTVSPost2010PropOp34
 70
     1
102
RTVSPost2010Prop35
280
     0
102
RTVSPost2010PropOp35
 70
     1
102
RTVSPost2010Prop36
280
     0
102
RTVSPost2010PropOp36
 70
     1
102
RTVSPost2010Prop37
 90
       50
102
RTVSPost2010PropOp37
 70
     1
102
RTVSPost2010Prop38
140
0.0
102
RTVSPost2010PropOp38
 70
     1
102
RTVSPost2010Prop39
140
1.0
102
RTVSPost2010PropOp39
 70
     1
102
RTVSPost2010Prop40
 90
        0
102
RTVSPost2010PropOp40
 70
     1
102
RTVSPost2010Prop41ColorIndex
 90
      178
102
RTVSPost2010Prop41ColorRGB
 90
        0
102
RTVSPost2010PropOp41
 70
     1
102
RTVSPost2010Prop42
 90
       50
102
RTVSPost2010PropOp42
 70
     1
102
RTVSPost2010Prop43
 90
        3
102
RTVSPost2010PropOp43
 70
     1
102
RTVSPost2010Prop44ColorIndex
 90
        5
102
RTVSPost2010Prop44ColorRGB
 90
      255
102
RTVSPost2010PropOp44
 70
     1
102
RTVSPost2010Prop45
280
     0
102
RTVSPost2010PropOp45
 70
     1
102
RTVSPost2010Prop46
 90
       50
102
RTVSPost2010PropOp46
 70
     1
102
RTVSPost2010Prop47
 90
       50
102
RTVSPost2010PropOp47
 70
     1
102
RTVSPost2010Prop48
 90
       50
102
RTVSPost2010PropOp48
 70
     1
102
RTVSPost2010Prop49
280
     0
102
RTVSPost2010PropOp49
 70
     1
102
RTVSPost2010Prop50
 90
       50
102
RTVSPost2010PropOp50
 70
     1
102
RTVSPost2010Prop51ColorIndex
 90
      256
102
RTVSPost2010Prop51ColorRGB
 90
-16777216
102
RTVSPost2010PropOp51
 70
     0
102
RTVSPost2010Prop52
140
1.0
102
RTVSPost2010PropOp52
 70
     0
102
RTVSPost2010Prop53
 90
        2
102
RTVSPost2010PropOp53
 70
     1
102
RTVSPost2010Prop54
  1
strokes_ogs.tif
102
RTVSPost2010PropOp54
 70
     1
102
RTVSPost2010Prop55
280
     0
102
RTVSPost2010PropOp55
 70
     1
102
RTVSPost2010Prop56
140
1.0
102
RTVSPost2010PropOp56
 70
     1
102
RTVSPost2010Prop57
140
1.0
102
RTVSPost2010PropOp57
 70
     1
  0
XRECORD
  5
387
102
{ACAD_REACTORS
330
386
102
}
330
386
100
AcDbXrecord
280
     1
102
RTVSPost2010Prop28
280
     0
102
RTVSPost2010PropOp28
 70
     1
102
RTVSPost2010Prop29
280
     1
102
RTVSPost2010PropOp29
 70
     1
102
RTVSPost2010Prop30
280
     1
102
RTVSPost2010PropOp30
 70
     1
102
RTVSPost2010Prop31
280
     0
102
RTVSPost2010PropOp31
 70
     1
102
RTVSPost2010Prop32
280
     0
102
RTVSPost2010PropOp32
 70
     1
102
RTVSPost2010Prop33
280
     0
102
RTVSPost2010PropOp33
 70
     1
102
RTVSPost2010Prop34
280
     0
102
RTVSPost2010PropOp34
 70
     1
102
RTVSPost2010Prop35
280
     0
102
RTVSPost2010PropOp35
 70
     1
102
RTVSPost2010Prop36
280
     0
102
RTVSPost2010PropOp36
 70
     1
102
RTVSPost2010Prop37
 90
       50
102
RTVSPost2010PropOp37
 70
     1
102
RTVSPost2010Prop38
140
0.0
102
RTVSPost2010PropOp38
 70
     1
102
RTVSPost2010Prop39
140
1.0
102
RTVSPost2010PropOp39
 70
     1
102
RTVSPost2010Prop40
 90
        0
102
RTVSPost2010PropOp40
 70
     1
102
RTVSPost2010Prop41ColorIndex
 90
      178
102
RTVSPost2010Prop41ColorRGB
 90
        0
102
RTVSPost2010PropOp41
 70
     1
102
RTVSPost2010Prop42
 90
       50
102
RTVSPost2010PropOp42
 70
     1
102
RTVSPost2010Prop43
 90
        3
102
RTVSPost2010PropOp43
 70
     1
102
RTVSPost2010Prop44ColorIndex
 90
        5
102
RTVSPost2010Prop44ColorRGB
 90
      255
102
RTVSPost2010PropOp44
 70
     1
102
RTVSPost2010Prop45
280
     0
102
RTVSPost2010PropOp45
 70
     1
102
RTVSPost2010Prop46
 90
       50
102
RTVSPost2010PropOp46
 70
     1
102
RTVSPost2010Prop47
 90
       50
102
RTVSPost2010PropOp47
 70
     1
102
RTVSPost2010Prop48
 90
       50
102
RTVSPost2010PropOp48
 70
     1
102
RTVSPost2010Prop49
280
     0
102
RTVSPost2010PropOp49
 70
     1
102
RTVSPost2010Prop50
 90
       50
102
RTVSPost2010PropOp50
 70
     1
102
RTVSPost2010Prop51ColorIndex
 90
      256
102
RTVSPost2010Prop51ColorRGB
 90
-16777216
102
RTVSPost2010PropOp51
 70
     0
102
RTVSPost2010Prop52
140
1.0
102
RTVSPost2010PropOp52
 70
     0
102
RTVSPost2010Prop53
 90
        2
102
RTVSPost2010PropOp53
 70
     1
102
RTVSPost2010Prop54
  1
strokes_ogs.tif
102
RTVSPost2010PropOp54
 70
     1
102
RTVSPost2010Prop55
280
     0
102
RTVSPost2010PropOp55
 70
     1
102
RTVSPost2010Prop56
140
1.0
102
RTVSPost2010PropOp56
 70
     1
102
RTVSPost2010Prop57
140
1.0
102
RTVSPost2010PropOp57
 70
     1
  0
XRECORD
  5
379
102
{ACAD_REACTORS
330
378
102
}
330
378
100
AcDbXrecord
280
     1
102
RTVSPost2010Prop28
280
     0
102
RTVSPost2010PropOp28
 70
     1
102
RTVSPost2010Prop29
280
     1
102
RTVSPost2010PropOp29
 70
     1
102
RTVSPost2010Prop30
280
     1
102
RTVSPost2010PropOp30
 70
     1
102
RTVSPost2010Prop31
280
     0
102
RTVSPost2010PropOp31
 70
     1
102
RTVSPost2010Prop32
280
     0
102
RTVSPost2010PropOp32
 70
     1
102
RTVSPost2010Prop33
280
     0
102
RTVSPost2010PropOp33
 70
     1
102
RTVSPost2010Prop34
280
     0
102
RTVSPost2010PropOp34
 70
     1
102
RTVSPost2010Prop35
280
     0
102
RTVSPost2010PropOp35
 70
     1
102
RTVSPost2010Prop36
280
     0
102
RTVSPost2010PropOp36
 70
     1
102
RTVSPost2010Prop37
 90
       50
102
RTVSPost2010PropOp37
 70
     1
102
RTVSPost2010Prop38
140
0.0
102
RTVSPost2010PropOp38
 70
     1
102
RTVSPost2010Prop39
140
1.0
102
RTVSPost2010PropOp39
 70
     1
102
RTVSPost2010Prop40
 90
        0
102
RTVSPost2010PropOp40
 70
     1
102
RTVSPost2010Prop41ColorIndex
 90
      178
102
RTVSPost2010Prop41ColorRGB
 90
        0
102
RTVSPost2010PropOp41
 70
     1
102
RTVSPost2010Prop42
 90
       50
102
RTVSPost2010PropOp42
 70
     1
102
RTVSPost2010Prop43
 90
        3
102
RTVSPost2010PropOp43
 70
     1
102
RTVSPost2010Prop44ColorIndex
 90
        5
102
RTVSPost2010Prop44ColorRGB
 90
      255
102
RTVSPost2010PropOp44
 70
     1
102
RTVSPost2010Prop45
280
     0
102
RTVSPost2010PropOp45
 70
     1
102
RTVSPost2010Prop46
 90
       50
102
RTVSPost2010PropOp46
 70
     1
102
RTVSPost2010Prop47
 90
       50
102
RTVSPost2010PropOp47
 70
     1
102
RTVSPost2010Prop48
 90
       50
102
RTVSPost2010PropOp48
 70
     1
102
RTVSPost2010Prop49
280
     0
102
RTVSPost2010PropOp49
 70
     1
102
RTVSPost2010Prop50
 90
       50
102
RTVSPost2010PropOp50
 70
     1
102
RTVSPost2010Prop51ColorIndex
 90
      256
102
RTVSPost2010Prop51ColorRGB
 90
-16777216
102
RTVSPost2010PropOp51
 70
     0
102
RTVSPost2010Prop52
140
1.0
102
RTVSPost2010PropOp52
 70
     0
102
RTVSPost2010Prop53
 90
        2
102
RTVSPost2010PropOp53
 70
     1
102
RTVSPost2010Prop54
  1
strokes_ogs.tif
102
RTVSPost2010PropOp54
 70
     1
102
RTVSPost2010Prop55
280
     0
102
RTVSPost2010PropOp55
 70
     1
102
RTVSPost2010Prop56
140
1.0
102
RTVSPost2010PropOp56
 70
     1
102
RTVSPost2010Prop57
140
1.0
102
RTVSPost2010PropOp57
 70
     1
  0
XRECORD
  5
399
102
{ACAD_REACTORS
330
398
102
}
330
398
100
AcDbXrecord
280
     1
102
RTVSPost2010Prop28
280
     0
102
RTVSPost2010PropOp28
 70
     1
102
RTVSPost2010Prop29
280
     1
102
RTVSPost2010PropOp29
 70
     1
102
RTVSPost2010Prop30
280
     1
102
RTVSPost2010PropOp30
 70
     1
102
RTVSPost2010Prop31
280
     0
102
RTVSPost2010PropOp31
 70
     1
102
RTVSPost2010Prop32
280
     0
102
RTVSPost2010PropOp32
 70
     1
102
RTVSPost2010Prop33
280
     0
102
RTVSPost2010PropOp33
 70
     1
102
RTVSPost2010Prop34
280
     0
102
RTVSPost2010PropOp34
 70
     1
102
RTVSPost2010Prop35
280
     0
102
RTVSPost2010PropOp35
 70
     1
102
RTVSPost2010Prop36
280
     0
102
RTVSPost2010PropOp36
 70
     1
102
RTVSPost2010Prop37
 90
       50
102
RTVSPost2010PropOp37
 70
     1
102
RTVSPost2010Prop38
140
0.0
102
RTVSPost2010PropOp38
 70
     1
102
RTVSPost2010Prop39
140
1.0
102
RTVSPost2010PropOp39
 70
     1
102
RTVSPost2010Prop40
 90
        0
102
RTVSPost2010PropOp40
 70
     1
102
RTVSPost2010Prop41ColorIndex
 90
      178
102
RTVSPost2010Prop41ColorRGB
 90
        0
102
RTVSPost2010PropOp41
 70
     1
102
RTVSPost2010Prop42
 90
       50
102
RTVSPost2010PropOp42
 70
     1
102
RTVSPost2010Prop43
 90
        3
102
RTVSPost2010PropOp43
 70
     1
102
RTVSPost2010Prop44ColorIndex
 90
        5
102
RTVSPost2010Prop44ColorRGB
 90
      255
102
RTVSPost2010PropOp44
 70
     1
102
RTVSPost2010Prop45
280
     0
102
RTVSPost2010PropOp45
 70
     1
102
RTVSPost2010Prop46
 90
       50
102
RTVSPost2010PropOp46
 70
     1
102
RTVSPost2010Prop47
 90
       50
102
RTVSPost2010PropOp47
 70
     1
102
RTVSPost2010Prop48
 90
       50
102
RTVSPost2010PropOp48
 70
     1
102
RTVSPost2010Prop49
280
     0
102
RTVSPost2010PropOp49
 70
     1
102
RTVSPost2010Prop50
 90
       50
102
RTVSPost2010PropOp50
 70
     1
102
RTVSPost2010Prop51ColorIndex
 90
      256
102
RTVSPost2010Prop51ColorRGB
 90
-16777216
102
RTVSPost2010PropOp51
 70
     0
102
RTVSPost2010Prop52
140
1.0
102
RTVSPost2010PropOp52
 70
     0
102
RTVSPost2010Prop53
 90
        2
102
RTVSPost2010PropOp53
 70
     1
102
RTVSPost2010Prop54
  1
strokes_ogs.tif
102
RTVSPost2010PropOp54
 70
     1
102
RTVSPost2010Prop55
280
     0
102
RTVSPost2010PropOp55
 70
     1
102
RTVSPost2010Prop56
140
1.0
102
RTVSPost2010PropOp56
 70
     1
102
RTVSPost2010Prop57
140
1.0
102
RTVSPost2010PropOp57
 70
     1
  0
ENDSEC
  0
EOF
