  0
SECTION
  2
HEADER
  9
$ACADVER
  1
AC1015
  9
$ACADMAINTVER
 70
     6
  9
$DWGCODEPAGE
  3
ANSI_1252
  9
$INSBASE
 10
0.0
 20
0.0
 30
0.0
  9
$EXTMIN
 10
1.000000000000000E+20
 20
1.000000000000000E+20
 30
1.000000000000000E+20
  9
$EXTMAX
 10
-1.000000000000000E+20
 20
-1.000000000000000E+20
 30
-1.000000000000000E+20
  9
$LIMMIN
 10
0.0
 20
0.0
  9
$LIMMAX
 10
12.0
 20
9.0
  9
$ORTHOMODE
 70
     0
  9
$REGENMODE
 70
     1
  9
$FILLMODE
 70
     1
  9
$QTEXTMODE
 70
     0
  9
$MIRRTEXT
 70
     1
  9
$LTSCALE
 40
1.0
  9
$ATTMODE
 70
     1
  9
$TEXTSIZE
 40
0.2
  9
$TRACEWID
 40
0.05
  9
$TEXTSTYLE
  7
Standard
  9
$CLAYER
  8
0
  9
$CELTYPE
  6
ByLayer
  9
$CECOLOR
 62
   256
  9
$CELTSCALE
 40
1.0
  9
$DISPSILH
 70
     0
  9
$DIMSCALE
 40
1.0
  9
$DIMASZ
 40
0.18
  9
$DIMEXO
 40
0.0625
  9
$DIMDLI
 40
0.38
  9
$DIMRND
 40
0.0
  9
$DIMDLE
 40
0.0
  9
$DIMEXE
 40
0.18
  9
$DIMTP
 40
0.0
  9
$DIMTM
 40
0.0
  9
$DIMTXT
 40
0.18
  9
$DIMCEN
 40
0.09
  9
$DIMTSZ
 40
0.0
  9
$DIMTOL
 70
     0
  9
$DIMLIM
 70
     0
  9
$DIMTIH
 70
     1
  9
$DIMTOH
 70
     1
  9
$DIMSE1
 70
     0
  9
$DIMSE2
 70
     0
  9
$DIMTAD
 70
     0
  9
$DIMZIN
 70
     0
  9
$DIMBLK
  1

  9
$DIMASO
 70
     1
  9
$DIMSHO
 70
     1
  9
$DIMPOST
  1

  9
$DIMAPOST
  1

  9
$DIMALT
 70
     0
  9
$DIMALTD
 70
     2
  9
$DIMALTF
 40
25.4
  9
$DIMLFAC
 40
1.0
  9
$DIMTOFL
 70
     0
  9
$DIMTVP
 40
0.0
  9
$DIMTIX
 70
     0
  9
$DIMSOXD
 70
     0
  9
$DIMSAH
 70
     0
  9
$DIMBLK1
  1

  9
$DIMBLK2
  1

  9
$DIMSTYLE
  2
Standard
  9
$DIMCLRD
 70
     0
  9
$DIMCLRE
 70
     0
  9
$DIMCLRT
 70
     0
  9
$DIMTFAC
 40
1.0
  9
$DIMGAP
 40
0.09
  9
$DIMJUST
 70
     0
  9
$DIMSD1
 70
     0
  9
$DIMSD2
 70
     0
  9
$DIMTOLJ
 70
     1
  9
$DIMTZIN
 70
     0
  9
$DIMALTZ
 70
     0
  9
$DIMALTTZ
 70
     0
  9
$DIMUPT
 70
     0
  9
$DIMDEC
 70
     4
  9
$DIMTDEC
 70
     4
  9
$DIMALTU
 70
     2
  9
$DIMALTTD
 70
     2
  9
$DIMTXSTY
  7
Standard
  9
$DIMAUNIT
 70
     0
  9
$DIMADEC
 70
     0
  9
$DIMALTRND
 40
0.0
  9
$DIMAZIN
 70
     0
  9
$DIMDSEP
 70
    46
  9
$DIMATFIT
 70
     3
  9
$DIMFRAC
 70
     0
  9
$DIMLDRBLK
  1

  9
$DIMLUNIT
 70
     2
  9
$DIMLWD
 70
    -2
  9
$DIMLWE
 70
    -2
  9
$DIMTMOVE
 70
     0
  9
$LUNITS
 70
     2
  9
$LUPREC
 70
     4
  9
$SKETCHINC
 40
0.1
  9
$FILLETRAD
 40
0.5
  9
$AUNITS
 70
     0
  9
$AUPREC
 70
     0
  9
$MENU
  1
.
  9
$ELEVATION
 40
0.0
  9
$PELEVATION
 40
0.0
  9
$THICKNESS
 40
0.0
  9
$LIMCHECK
 70
     0
  9
$CHAMFERA
 40
0.0
  9
$CHAMFERB
 40
0.0
  9
$CHAMFERC
 40
0.0
  9
$CHAMFERD
 40
0.0
  9
$SKPOLY
 70
     0
  9
$TDCREATE
 40
2459275.435423565
  9
$TDUCREATE
 40
2459275.393756898
  9
$TDUPDATE
 40
2459275.435424363
  9
$TDUUPDATE
 40
2459275.393757697
  9
$TDINDWG
 40
0.0000000116
  9
$TDUSRTIMER
 40
0.0000000116
  9
$USRTIMER
 70
     1
  9
$ANGBASE
 50
0.0
  9
$ANGDIR
 70
     0
  9
$PDMODE
 70
     0
  9
$PDSIZE
 40
0.0
  9
$PLINEWID
 40
0.0
  9
$SPLFRAME
 70
     0
  9
$SPLINETYPE
 70
     6
  9
$SPLINESEGS
 70
     8
  9
$HANDSEED
  5
210
  9
$SURFTAB1
 70
     6
  9
$SURFTAB2
 70
     6
  9
$SURFTYPE
 70
     6
  9
$SURFU
 70
     6
  9
$SURFV
 70
     6
  9
$UCSBASE
  2

  9
$UCSNAME
  2

  9
$UCSORG
 10
0.0
 20
0.0
 30
0.0
  9
$UCSXDIR
 10
1.0
 20
0.0
 30
0.0
  9
$UCSYDIR
 10
0.0
 20
1.0
 30
0.0
  9
$UCSORTHOREF
  2

  9
$UCSORTHOVIEW
 70
     0
  9
$UCSORGTOP
 10
0.0
 20
0.0
 30
0.0
  9
$UCSORGBOTTOM
 10
0.0
 20
0.0
 30
0.0
  9
$UCSORGLEFT
 10
0.0
 20
0.0
 30
0.0
  9
$UCSORGRIGHT
 10
0.0
 20
0.0
 30
0.0
  9
$UCSORGFRONT
 10
0.0
 20
0.0
 30
0.0
  9
$UCSORGBACK
 10
0.0
 20
0.0
 30
0.0
  9
$PUCSBASE
  2

  9
$PUCSNAME
  2

  9
$PUCSORG
 10
0.0
 20
0.0
 30
0.0
  9
$PUCSXDIR
 10
1.0
 20
0.0
 30
0.0
  9
$PUCSYDIR
 10
0.0
 20
1.0
 30
0.0
  9
$PUCSORTHOREF
  2

  9
$PUCSORTHOVIEW
 70
     0
  9
$PUCSORGTOP
 10
0.0
 20
0.0
 30
0.0
  9
$PUCSORGBOTTOM
 10
0.0
 20
0.0
 30
0.0
  9
$PUCSORGLEFT
 10
0.0
 20
0.0
 30
0.0
  9
$PUCSORGRIGHT
 10
0.0
 20
0.0
 30
0.0
  9
$PUCSORGFRONT
 10
0.0
 20
0.0
 30
0.0
  9
$PUCSORGBACK
 10
0.0
 20
0.0
 30
0.0
  9
$USERI1
 70
     0
  9
$USERI2
 70
     0
  9
$USERI3
 70
     0
  9
$USERI4
 70
     0
  9
$USERI5
 70
     0
  9
$USERR1
 40
0.0
  9
$USERR2
 40
0.0
  9
$USERR3
 40
0.0
  9
$USERR4
 40
0.0
  9
$USERR5
 40
0.0
  9
$WORLDVIEW
 70
     1
  9
$SHADEDGE
 70
     3
  9
$SHADEDIF
 70
    70
  9
$TILEMODE
 70
     0
  9
$MAXACTVP
 70
    64
  9
$PINSBASE
 10
0.0
 20
0.0
 30
0.0
  9
$PLIMCHECK
 70
     0
  9
$PEXTMIN
 10
1.000000000000000E+20
 20
1.000000000000000E+20
 30
1.000000000000000E+20
  9
$PEXTMAX
 10
-1.000000000000000E+20
 20
-1.000000000000000E+20
 30
-1.000000000000000E+20
  9
$PLIMMIN
 10
0.0
 20
0.0
  9
$PLIMMAX
 10
12.0
 20
9.0
  9
$UNITMODE
 70
     0
  9
$VISRETAIN
 70
     1
  9
$PLINEGEN
 70
     0
  9
$PSLTSCALE
 70
     0
  9
$TREEDEPTH
 70
  3020
  9
$CMLSTYLE
  2
Standard
  9
$CMLJUST
 70
     0
  9
$CMLSCALE
 40
1.0
  9
$PROXYGRAPHICS
 70
     1
  9
$MEASUREMENT
 70
     0
  9
$CELWEIGHT
370
    -1
  9
$ENDCAPS
280
     0
  9
$JOINSTYLE
280
     0
  9
$LWDISPLAY
290
     1
  9
$INSUNITS
 70
     6
  9
$HYPERLINKBASE
  1

  9
$STYLESHEET
  1

  9
$XEDIT
290
     1
  9
$CEPSNTYPE
380
     0
  9
$PSTYLEMODE
290
     1
  9
$FINGERPRINTGUID
  2
{d286599d-a20a-174b-83e7-58de96783d7b}
  9
$VERSIONGUID
  2
{FAEB1C32-E019-11D5-929B-00C0DF256EC4}
  9
$EXTNAMES
290
     1
  9
$PSVPSCALE
 40
0.0
  9
$OLESTARTUP
290
     0
  0
ENDSEC
  0
SECTION
  2
CLASSES
  0
CLASS
  1
ACDBDICTIONARYWDFLT
  2
AcDbDictionaryWithDefault
  3
ObjectDBX Classes
 90
        0
280
     0
281
     0
  0
CLASS
  1
VISUALSTYLE
  2
AcDbVisualStyle
  3
ObjectDBX Classes
 90
     4095
280
     0
281
     0
  0
CLASS
  1
MATERIAL
  2
AcDbMaterial
  3
ObjectDBX Classes
 90
     1153
280
     0
281
     0
  0
CLASS
  1
SCALE
  2
AcDbScale
  3
ObjectDBX Classes
 90
     1153
280
     0
281
     0
  0
CLASS
  1
TABLESTYLE
  2
AcDbTableStyle
  3
ObjectDBX Classes
 90
     4095
280
     0
281
     0
  0
CLASS
  1
MLEADERSTYLE
  2
AcDbMLeaderStyle
  3
ACDB_MLEADERSTYLE_CLASS
 90
     4095
280
     0
281
     0
  0
CLASS
  1
SUN
  2
AcDbSun
  3
SCENEOE
 90
     1153
280
     0
281
     0
  0
CLASS
  1
SPATIAL_FILTER
  2
AcDbSpatialFilter
  3
ObjectDBX Classes
 90
        0
280
     0
281
     0
  0
CLASS
  1
DICTIONARYVAR
  2
AcDbDictionaryVar
  3
ObjectDBX Classes
 90
        0
280
     0
281
     0
  0
CLASS
  1
ACDBPLACEHOLDER
  2
AcDbPlaceHolder
  3
ObjectDBX Classes
 90
        0
280
     0
281
     0
  0
CLASS
  1
LAYOUT
  2
AcDbLayout
  3
ObjectDBX Classes
 90
        0
280
     0
281
     0
  0
ENDSEC
  0
SECTION
  2
TABLES
  0
TABLE
  2
VPORT
  5
8
102
{ACAD_XDICTIONARY
360
1D2
102
}
330
0
100
AcDbSymbolTable
 70
     1
  0
VPORT
  5
29
330
8
100
AcDbSymbolTableRecord
100
AcDbViewportTableRecord
  2
*Active
 70
     0
 10
0.0
 20
0.0
 11
1.0
 21
1.0
 12
10.42990654205607
 22
4.5
 13
0.0
 23
0.0
 14
0.5
 24
0.5
 15
0.5
 25
0.5
 16
0.0
 26
0.0
 36
1.0
 17
0.0
 27
0.0
 37
0.0
 40
9.0
 41
1.972972972850329
 42
50.0
 43
0.0
 44
0.0
 50
0.0
 51
0.0
 71
     0
 72
   100
 73
     1
 74
     3
 75
     0
 76
     0
 77
     0
 78
     0
281
     0
 65
     1
110
0.0
120
0.0
130
0.0
111
1.0
121
0.0
131
0.0
112
0.0
122
1.0
132
0.0
 79
     0
146
0.0
  0
ENDTAB
  0
TABLE
  2
LTYPE
  5
5
330
0
100
AcDbSymbolTable
 70
     4
  0
LTYPE
  5
14
330
5
100
AcDbSymbolTableRecord
100
AcDbLinetypeTableRecord
  2
ByBlock
 70
     0
  3

 72
    65
 73
     0
 40
0.0
  0
LTYPE
  5
15
330
5
100
AcDbSymbolTableRecord
100
AcDbLinetypeTableRecord
  2
ByLayer
 70
     0
  3

 72
    65
 73
     0
 40
0.0
  0
LTYPE
  5
16
330
5
100
AcDbSymbolTableRecord
100
AcDbLinetypeTableRecord
  2
Continuous
 70
     0
  3
Solid line
 72
    65
 73
     0
 40
0.0
  0
LTYPE
  5
91
330
5
100
AcDbSymbolTableRecord
100
AcDbLinetypeTableRecord
  2
strichlinie
 70
     0
  3
- - - - - 
 72
    65
 73
     2
 40
0.005
 49
0.003
 74
     0
 49
-0.002
 74
     0
  0
LTYPE
  5
124
330
5
100
AcDbSymbolTableRecord
100
AcDbLinetypeTableRecord
  2
achsen
 70
     0
  3
- - - - - 
 72
    65
 73
     4
 40
0.0282
 49
0.016
 74
     0
 49
-0.006
 74
     0
 49
0.0002
 74
     0
 49
-0.006
 74
     0
  0
LTYPE
  5
12B
330
5
100
AcDbSymbolTableRecord
100
AcDbLinetypeTableRecord
  2
STRICHLINIE_S4
 70
     0
  3
- - - - - 
 72
    65
 73
     2
 40
0.01
 49
0.005
 74
     0
 49
-0.005
 74
     0
  0
ENDTAB
  0
TABLE
  2
LAYER
  5
2
330
0
100
AcDbSymbolTable
 70
     8
  0
LAYER
  5
10
330
2
100
AcDbSymbolTableRecord
100
AcDbLayerTableRecord
  2
0
 70
     0
 62
     7
  6
Continuous
370
    -3
390
F
  0
LAYER
  5
70
330
2
100
AcDbSymbolTableRecord
100
AcDbLayerTableRecord
  2
FORMAT
 70
     1
 62
    -7
  6
Continuous
370
    -3
390
F
  0
LAYER
  5
78
330
2
100
AcDbSymbolTableRecord
100
AcDbLayerTableRecord
  2
04-00 Massivbau
 70
     0
 62
     7
  6
Continuous
370
    -3
390
F
  0
LAYER
  5
7A
330
2
100
AcDbSymbolTableRecord
100
AcDbLayerTableRecord
  2
A1------H2_______Schraffur_Filling_1_5
 70
     0
 62
     7
  6
Continuous
370
    -3
390
F
  0
LAYER
  5
86
330
2
100
AcDbSymbolTableRecord
100
AcDbLayerTableRecord
  2
08-00 Leitungen Rinnen Abläufe
 70
     0
 62
     7
  6
Continuous
370
    -3
390
F
  0
LAYER
  5
8B
330
2
100
AcDbSymbolTableRecord
100
AcDbLayerTableRecord
  2
A1E-----M5_______Rohbau
 70
     0
 62
     7
  6
Continuous
370
    -3
390
F
  0
LAYER
  5
A6
330
2
100
AcDbSymbolTableRecord
100
AcDbLayerTableRecord
  2
A1-----1H2_______Schraffur_1_5
 70
     0
 62
     7
  6
Continuous
370
    -3
390
F
  0
LAYER
  5
123
330
2
100
AcDbSymbolTableRecord
100
AcDbLayerTableRecord
  2
A1------T2_______Text_1_5
 70
     0
 62
     7
  6
Continuous
370
    -3
390
F
  0
ENDTAB
  0
TABLE
  2
STYLE
  5
3
330
0
100
AcDbSymbolTable
 70
     4
  0
STYLE
  5
11
330
3
100
AcDbSymbolTableRecord
100
AcDbTextStyleTableRecord
  2
Standard
 70
     0
 40
0.0
 41
1.0
 50
0.0
 71
     0
 42
0.2
  3
txt
  4

  0
STYLE
  5
141
330
3
100
AcDbSymbolTableRecord
100
AcDbTextStyleTableRecord
  2
ERSTELLTER_STIL_1
 70
     0
 40
0.0
 41
1.0
 50
0.0
 71
     0
 42
0.2
  3

  4

1001
ACAD
1000
Arial
1071
       34
  0
STYLE
  5
153
330
3
100
AcDbSymbolTableRecord
100
AcDbTextStyleTableRecord
  2
ERSTELLTER_STIL_3
 70
     0
 40
0.0
 41
1.0
 50
0.0
 71
     0
 42
0.2
  3

  4

1001
ACAD
1000
Arial
1071
 33554466
  0
STYLE
  5
177
330
3
100
AcDbSymbolTableRecord
100
AcDbTextStyleTableRecord
  2
ERSTELLTER_STIL_5
 70
     0
 40
0.0
 41
0.98
 50
0.0
 71
     0
 42
0.2
  3

  4

1001
ACAD
1000
Lucida Sans Unicode
1071
       34
  0
ENDTAB
  0
TABLE
  2
VIEW
  5
6
330
0
100
AcDbSymbolTable
 70
     0
  0
ENDTAB
  0
TABLE
  2
UCS
  5
7
330
0
100
AcDbSymbolTable
 70
     0
  0
ENDTAB
  0
TABLE
  2
APPID
  5
9
330
0
100
AcDbSymbolTable
 70
     2
  0
APPID
  5
12
330
9
100
AcDbSymbolTableRecord
100
AcDbRegAppTableRecord
  2
ACAD
 70
     0
  0
APPID
  5
20C
330
9
100
AcDbSymbolTableRecord
100
AcDbRegAppTableRecord
  2
ACAD_MLEADERVER
 70
     0
  0
ENDTAB
  0
TABLE
  2
DIMSTYLE
  5
A
330
0
100
AcDbSymbolTable
 70
     1
100
AcDbDimStyleTable
  0
DIMSTYLE
105
27
330
A
100
AcDbSymbolTableRecord
100
AcDbDimStyleTableRecord
  2
Standard
 70
     0
178
     0
340
11
  0
ENDTAB
  0
TABLE
  2
BLOCK_RECORD
  5
1
330
0
100
AcDbSymbolTable
 70
     2
  0
BLOCK_RECORD
  5
1F
330
1
100
AcDbSymbolTableRecord
100
AcDbBlockTableRecord
  2
*Model_Space
340
22
  0
BLOCK_RECORD
  5
1B
330
1
100
AcDbSymbolTableRecord
100
AcDbBlockTableRecord
  2
*Paper_Space
340
1E
  0
BLOCK_RECORD
  5
74
330
1
100
AcDbSymbolTableRecord
100
AcDbBlockTableRecord
  2
Zeichnung_1_1
340
0
102
{BLKREFS
331
17A
102
}
  0
BLOCK_RECORD
  5
17E
330
1
100
AcDbSymbolTableRecord
100
AcDbBlockTableRecord
  2
02.5 44. Detail L.1_STORY_MARKER
340
0
  0
ENDTAB
  0
ENDSEC
  0
SECTION
  2
BLOCKS
  0
BLOCK
  5
20
330
1F
100
AcDbEntity
  8
0
100
AcDbBlockBegin
  2
*Model_Space
 70
     0
 10
0.0
 20
0.0
 30
0.0
  3
*Model_Space
  1

  0
ENDBLK
  5
21
330
1F
100
AcDbEntity
  8
0
100
AcDbBlockEnd
  0
BLOCK
  5
1C
330
1B
100
AcDbEntity
 67
     1
  8
0
100
AcDbBlockBegin
  2
*Paper_Space
 70
     0
 10
0.0
 20
0.0
 30
0.0
  3
*Paper_Space
  1

  0
ENDBLK
  5
1D
330
1B
100
AcDbEntity
 67
     1
  8
0
100
AcDbBlockEnd
  0
BLOCK
  5
75
330
74
100
AcDbEntity
  8
0
100
AcDbBlockBegin
  2
Zeichnung_1_1
 70
     0
 10
1688.024586529066
 20
1652.125455953611
 30
0.0
  3
Zeichnung_1_1
  1

  0
HATCH
  5
77
330
74
100
AcDbEntity
  8
04-00 Massivbau
  6
Continuous
 62
   251
370
     9
100
AcDbHatch
 10
0.0
 20
0.0
 30
0.0
210
0.0
220
0.0
230
1.0
  2
27__gespr_nkelt_0001
 70
     0
 71
     0
 91
        2
 92
        3
 72
     1
 73
     1
 93
       12
 10
70.71045580271051
 20
165.2180243386761
 42
0.0
 10
70.7104469340798
 20
121.0971203358617
 42
0.0
 10
96.12364809039775
 20
121.0971203358617
 42
-0.7614750940677057
 10
89.19815827436372
 20
162.9817675153517
 42
0.0
 10
88.79474845751712
 20
162.9817675153517
 42
-0.1050658127031789
 10
98.39045580271066
 20
165.0206358069883
 42
-0.1274901206260315
 10
109.8542219631586
 20
162.0493067631736
 42
0.0
 10
109.8542225313137
 20
161.7527279037192
 42
-0.5563413903671105
 10
109.8542933100661
 20
124.8059761642699
 42
-0.1138794480296989
 10
100.6572635150216
 20
121.0971116459787
 42
0.0
 10
126.0704469340781
 20
121.0971116459787
 42
0.0
 10
126.0704558027101
 20
165.2180243386761
 42
0.0
 97
        0
 92
        2
 72
     1
 73
     1
 93
        3
 10
121.8543177487164
 20
143.9518771188244
 42
-0.0268721410399889
 10
121.9904558027096
 20
141.4206358069894
 42
-0.0268712950700589
 10
121.8543263078178
 20
138.8894738367648
 42
0.0
 97
        0
 75
     0
 76
     2
 52
0.0
 41
1.0
 77
     0
 78
     2
 53
44.99999999999999
 43
-3844.73959362758
 44
694.6443790408974
 45
-0.7636753236814714
 46
0.7636753236814714
 79
     4
 49
0.0
 49
-0.7199999999999999
 49
0.0
 49
-1.08
 53
110.0
 43
-3842.33959362758
 44
694.6443790408974
 45
1.014868030448781
 46
0.3693817547917222
 79
     4
 49
0.0
 49
-0.528
 49
0.0
 49
-0.9120000000000001
 98
        0
  0
HATCH
  5
79
330
74
100
AcDbEntity
  8
A1------H2_______Schraffur_Filling_1_5
  6
Continuous
 62
     7
370
    13
100
AcDbHatch
 10
0.0
 20
0.0
 30
0.0
210
0.0
220
0.0
230
1.0
  2
Beton_0001
 70
     0
 71
     0
 91
        1
 92
        3
 72
     0
 73
     1
 93
        8
 10
14.99999999999879
 20
188.3380192259432
 10
54.390451062023
 20
188.3380166220361
 10
54.390451062023
 20
196.3380159098818
 10
142.3904609989777
 20
196.3380159098818
 10
142.3904609989777
 20
188.3380166220361
 10
189.9999997704909
 20
188.3380242842443
 10
189.9999997704909
 20
214.8227783982162
 10
14.99999999999879
 20
214.8227783982162
 97
        0
 75
     0
 76
     2
 52
0.0
 41
1.0
 77
     0
 78
     2
 53
44.99999999999998
 43
1688.024586529066
 44
1652.125455953611
 45
-5.656854249492378
 46
5.656854249492382
 79
     0
 53
135.0000000000002
 43
1688.024586529066
 44
1652.125455953611
 45
5.656854249492363
 46
5.656854249492397
 79
     0
 98
        0
  0
HATCH
  5
7B
330
74
100
AcDbEntity
  8
A1------H2_______Schraffur_Filling_1_5
  6
Continuous
 62
     7
370
    13
100
AcDbHatch
 10
0.0
 20
0.0
 30
0.0
210
0.0
220
0.0
230
1.0
  2
Dämmstoff__EPS_horizonta_4F
 70
     0
 71
     0
 91
        1
 92
        3
 72
     0
 73
     1
 93
        4
 10
142.3904593434302
 20
188.3380243386752
 10
142.3904593434302
 20
196.3380164928503
 10
54.39045226282602
 20
196.3380164928503
 10
54.39045226282602
 20
188.3380243386752
 97
        0
 75
     0
 76
     2
 52
0.0
 41
1.0
 77
     0
 78
     1
 53
90.0
 43
112.2549698619957
 44
212.8162917133709
 45
-4.0
 46
0.0
 79
     0
 98
        0
  0
HATCH
  5
7C
330
74
100
AcDbEntity
  8
A1------H2_______Schraffur_Filling_1_5
  6
Continuous
 62
   254
370
    35
100
AcDbHatch
 10
0.0
 20
0.0
 30
0.0
210
0.0
220
0.0
230
1.0
  2
SOLID
 70
     1
 71
     0
 91
        1
 92
        3
 72
     0
 73
     1
 93
        4
 10
14.99999999999879
 20
110.7380722306528
 10
189.9462873828888
 20
110.7380722306528
 10
189.9462873828888
 20
113.5380722306534
 10
14.99999999999879
 20
113.5380722306534
 97
        0
 75
     0
 76
     1
 98
        0
  0
HATCH
  5
7D
330
74
100
AcDbEntity
  8
A1------H2_______Schraffur_Filling_1_5
  6
Continuous
 62
    21
370
    20
100
AcDbHatch
 10
0.0
 20
0.0
 30
0.0
210
0.0
220
0.0
230
1.0
  2
SOLID
 70
     1
 71
     0
 91
        1
 92
        3
 72
     0
 73
     1
 93
       82
 10
14.99999999999879
 20
108.5704046590918
 10
37.70066568048392
 20
108.9126813147723
 10
39.49832440369483
 20
109.0144403597912
 10
41.09246503686737
 20
109.1501826081158
 10
42.48289440462627
 20
109.1501826081158
 10
44.04324762034761
 20
109.0822135910265
 10
45.53562659802313
 20
109.0484235630968
 10
46.82449531709531
 20
109.0144403597912
 10
48.21512047070841
 20
109.0822135910265
 10
49.7412920867919
 20
109.0822135910265
 10
51.5729340133082
 20
109.2179558393511
 10
53.06531560146199
 20
109.2857290705864
 10
55.47332497749813
 20
109.2857290705864
 10
59.1692241433357
 20
109.1839700255675
 10
60.96688286654639
 20
109.0822135910265
 10
61.03582298147181
 20
109.0484235630968
 10
62.56219299388732
 20
109.1161967943322
 10
66.02176036054996
 20
109.0484235630968
 10
67.61570520786874
 20
109.0822135910265
 10
68.7012542332348
 20
109.0822135910265
 10
70.0918793868479
 20
109.1839700255675
 10
71.85555229627494
 20
109.2857290705864
 10
73.31394807064484
 20
109.2857290705864
 10
74.29754487561624
 20
109.2179558393511
 10
75.58641098421037
 20
109.0484235630968
 10
77.38406709694323
 20
109.0144403597912
 10
78.84246548179141
 20
108.9804571564856
 10
79.99558673158269
 20
108.8786981114667
 10
80.8436370740837
 20
108.8786981114667
 10
81.99676093435282
 20
108.8449080835372
 10
83.62488477083163
 20
108.8449080835372
 10
85.38856029073649
 20
108.8109222697535
 10
86.47391091977074
 20
108.8109222697535
 10
87.52527573502111
 20
108.8449080835372
 10
87.93230930461893
 20
108.8449080835372
 10
88.47508251206304
 20
108.8109222697535
 10
88.9838699057235
 20
108.8109222697535
 10
89.35691766153741
 20
108.7091658352126
 10
90.17097957977671
 20
108.6074094006717
 10
90.8830892776209
 20
108.6074094006717
 10
91.96843990665538
 20
108.5396335589583
 10
92.37547086577491
 20
108.5056503556527
 10
94.58016054810491
 20
108.573616762264
 10
96.31004081912442
 20
108.573616762264
 10
98.27723181858916
 20
108.6753758072829
 10
103.1951975701
 20
108.6753758072829
 10
105.9424646740201
 20
108.7091658352126
 10
108.7577007950298
 20
108.8109222697535
 10
111.8102398130507
 20
108.8109222697535
 10
114.6932439443396
 20
109.0144403597912
 10
117.1352391341591
 20
108.9804571564856
 10
120.018245875926
 20
108.9466645180779
 10
123.8848468121863
 20
109.0484235630968
 10
126.8696125989719
 20
109.2179558393511
 10
129.7526193407388
 20
109.319712273892
 10
132.1608245026287
 20
109.2179558393511
 10
135.1793803173442
 20
109.1501826081158
 10
137.9266422003083
 20
109.0484235630968
 10
140.4026232039117
 20
108.9804571564856
 10
141.9629711986767
 20
108.7771348523019
 10
142.3700021577963
 20
108.7771348523019
 10
142.9465680036481
 20
108.8449080835372
 10
143.5231286285439
 20
109.0144403597912
 10
143.8621931810522
 20
109.0484235630968
 10
144.6084818680562
 20
109.0822135910265
 10
144.9137537821568
 20
109.0822135910265
 10
145.1510566791683
 20
109.1161967943322
 10
145.6260592658551
 20
109.1161967943322
 10
145.8973479766503
 20
109.1501826081158
 10
159.3332096408142
 20
109.2504093025171
 10
159.3332096408142
 20
109.1604757230824
 10
161.4002409839284
 20
109.3205032487423
 10
169.8142137652559
 20
108.971662455922
 10
172.614215136343
 20
108.971662455922
 10
174.3088591745907
 20
109.3410085538555
 10
175.8257896983635
 20
109.0361621476776
 10
177.8257917964876
 20
109.0361621476776
 10
178.8442097682201
 20
109.3077406215368
 10
185.9999999999991
 20
109.3077412763461
 10
189.9462873828888
 20
109.3077412763461
 10
189.9462873828888
 20
110.7380737568275
 10
14.99999999999879
 20
110.7380737568275
 97
        0
 75
     0
 76
     1
 98
        0
  0
HATCH
  5
7E
330
74
100
AcDbEntity
  8
A1------H2_______Schraffur_Filling_1_5
  6
Continuous
 62
     7
370
    13
100
AcDbHatch
 10
0.0
 20
0.0
 30
0.0
210
0.0
220
0.0
230
1.0
  2
Dämmstoff__allgemein_hor_0A
 70
     0
 71
     0
 91
        1
 92
        3
 72
     0
 73
     1
 93
        4
 10
146.3904569329777
 20
113.538080076478
 10
146.3904481767908
 20
118.7380243388554
 10
50.39044872353604
 20
118.7380243388554
 10
50.39045747972337
 20
113.538080076478
 97
        0
 75
     0
 76
     2
 52
0.0
 41
1.0
 77
     0
 78
     1
 53
90.0
 43
62.55761937841275
 44
137.9740587164073
 45
-8.0
 46
0.0
 79
     0
 98
        0
  0
HATCH
  5
7F
330
74
100
AcDbEntity
  8
A1------H2_______Schraffur_Filling_1_5
  6
Continuous
 62
     7
370
    13
100
AcDbHatch
 10
0.0
 20
0.0
 30
0.0
210
0.0
220
0.0
230
1.0
  2
Dämmstoff__allgemein_hor_0A
 70
     0
 71
     0
 91
        1
 92
        3
 72
     0
 73
     1
 93
        6
 10
14.99999999999879
 20
113.5380722306534
 10
50.39045703487033
 20
113.5380722306534
 10
50.3904484473221
 20
120.7380243388552
 10
70.3904495872174
 20
120.7380243388552
 10
70.3904583404249
 20
185.5380241955709
 10
14.99999999999879
 20
185.5380241955709
 97
        0
 75
     0
 76
     2
 52
0.0
 41
1.0
 77
     0
 78
     1
 53
90.0
 43
66.40154046198043
 44
155.3822542829577
 45
-8.0
 46
0.0
 79
     0
 98
        0
  0
HATCH
  5
80
330
74
100
AcDbEntity
  8
A1------H2_______Schraffur_Filling_1_5
  6
Continuous
 62
     7
370
    13
100
AcDbHatch
 10
0.0
 20
0.0
 30
0.0
210
0.0
220
0.0
230
1.0
  2
Dämmstoff__allgemein_hor_0A
 70
     0
 71
     0
 91
        1
 92
        3
 72
     0
 73
     1
 93
        6
 10
126.3904558184947
 20
185.5380241955709
 10
126.390447128135
 20
120.7380243388552
 10
146.3904477619131
 20
120.7380243388552
 10
146.390456452268
 20
113.5380722306534
 10
189.9999997704909
 20
113.5380722306534
 10
189.9999997704909
 20
185.5380241955709
 97
        0
 75
     0
 76
     2
 52
0.0
 41
1.0
 77
     0
 78
     1
 53
90.0
 43
130.4079591585026
 44
154.5207511887758
 45
-8.000000000000004
 46
0.0
 79
     0
 98
        0
  0
HATCH
  5
81
330
74
100
AcDbEntity
  8
A1------H2_______Schraffur_Filling_1_5
  6
Continuous
 62
   254
370
    35
100
AcDbHatch
 10
0.0
 20
0.0
 30
0.0
210
0.0
220
0.0
230
1.0
  2
SOLID
 70
     1
 71
     0
 91
        1
 92
        3
 72
     0
 73
     1
 93
        4
 10
14.99999999999879
 20
185.5380243386759
 10
189.9999997704909
 20
185.5380243386759
 10
189.9999997704909
 20
188.3380243386752
 10
14.99999999999879
 20
188.3380243386752
 97
        0
 75
     0
 76
     1
 98
        0
  0
HATCH
  5
82
330
74
100
AcDbEntity
  8
A1------H2_______Schraffur_Filling_1_5
  6
Continuous
 62
     7
370
    13
100
AcDbHatch
 10
0.0
 20
0.0
 30
0.0
210
0.0
220
0.0
230
1.0
  2
Dämmstoff__EPS_horizonta_4F
 70
     0
 71
     0
 91
        1
 92
        3
 72
     0
 73
     1
 93
        4
 10
126.3904558027094
 20
165.5380243386761
 10
126.3904558027094
 20
185.5380243386759
 10
70.39045580270975
 20
185.5380243386759
 10
70.39045580270975
 20
165.5380243386761
 97
        0
 75
     0
 76
     2
 52
0.0
 41
1.0
 77
     0
 78
     1
 53
90.0
 43
120.2549663221093
 44
198.0162917133721
 45
-4.0
 46
0.0
 79
     0
 98
        0
  0
HATCH
  5
83
330
74
100
AcDbEntity
  8
A1------H2_______Schraffur_Filling_1_5
  6
Continuous
 62
   254
370
    35
100
AcDbHatch
 10
0.0
 20
0.0
 30
0.0
210
0.0
220
0.0
230
1.0
  2
SOLID
 70
     1
 71
     0
 91
        1
 92
        3
 72
     0
 73
     1
 93
        4
 10
50.39044872353604
 20
118.7380243388554
 10
146.3904481759559
 20
118.7380243388554
 10
146.3904481759559
 20
120.7380243388552
 10
50.39044872353604
 20
120.7380243388552
 97
        0
 75
     0
 76
     1
 98
        0
  0
LWPOLYLINE
  5
84
330
74
100
AcDbEntity
  8
A1------H2_______Schraffur_Filling_1_5
  6
Continuous
 62
     7
 48
1000.0
370
    25
100
AcDbPolyline
 90
        4
 70
   129
 43
0.0
 10
50.39044872353604
 20
118.7380243388554
 10
146.3904481759559
 20
118.7380243388554
 10
146.3904481759559
 20
120.7380243388552
 10
50.39044872353604
 20
120.7380243388552
  0
HATCH
  5
85
330
74
100
AcDbEntity
  8
08-00 Leitungen Rinnen Abläufe
  6
Continuous
 62
     7
370
    25
100
AcDbHatch
 10
0.0
 20
0.0
 30
0.0
210
0.0
220
0.0
230
1.0
  2
SOLID
 70
     1
 71
     0
 91
        2
 92
        3
 72
     1
 73
     1
 93
        2
 10
80.33411714213767
 20
143.2793300728323
 42
0.9999999999999999
 10
116.4467944632801
 20
143.2793300728323
 42
0.9999999999999999
 97
        0
 92
        2
 72
     1
 73
     1
 93
        2
 10
81.8081039715739
 20
143.2793300728323
 42
-0.9999999999999999
 10
114.9728076338465
 20
143.2793300728323
 42
-0.9999999999999999
 97
        0
 75
     0
 76
     1
 98
        0
  0
HATCH
  5
87
330
74
100
AcDbEntity
  8
08-00 Leitungen Rinnen Abläufe
  6
Continuous
 62
   250
370
     0
100
AcDbHatch
 10
0.0
 20
0.0
 30
0.0
210
0.0
220
0.0
230
1.0
  2
17__d_mmstoff_h_0001
 70
     0
 71
     0
 91
        2
 92
        3
 72
     1
 73
     1
 93
        2
 10
98.39045580271066
 20
165.0206358069883
 42
0.9999999999999999
 10
98.39045580271066
 20
121.5380243386761
 42
0.9999999999999999
 97
        0
 92
        2
 72
     1
 73
     1
 93
        2
 10
80.33411714213767
 20
143.2793300728323
 42
-1.0000000141605
 10
116.4467944632801
 20
143.2793300728323
 42
-1.0000000141605
 97
        0
 75
     0
 76
     2
 52
0.0
 41
1.0
 77
     0
 78
     1
 53
0.0
 43
-3534.185643951771
 44
648.8787299477033
 45
0.0
 46
1.473986829434377
 79
     0
 98
        0
  0
LWPOLYLINE
  5
88
330
74
100
AcDbEntity
  8
08-00 Leitungen Rinnen Abläufe
  6
Continuous
 62
     7
 48
1000.0
370
    25
100
AcDbPolyline
 90
        2
 70
   129
 43
0.0
 10
98.39045580271066
 20
165.0206358069883
 42
0.9999999999999999
 10
98.39045580271066
 20
121.5380243386761
 42
0.9999999999999999
  0
LWPOLYLINE
  5
89
330
74
100
AcDbEntity
  8
08-00 Leitungen Rinnen Abläufe
  6
Continuous
 62
     7
 48
1000.0
370
    25
100
AcDbPolyline
 90
        2
 70
   129
 43
0.0
 10
80.33411714213767
 20
143.2793300728323
 42
-1.0000000141605
 10
116.4467944632801
 20
143.2793300728323
 42
-1.0000000141605
  0
LINE
  5
8A
330
74
100
AcDbEntity
  8
A1E-----M5_______Rohbau
  6
Continuous
 62
     7
 48
1000.0
370
    60
100
AcDbLine
 10
54.39045226282602
 20
188.3380166197564
 30
0.0
 11
54.39045226401551
 21
196.3380164928503
 31
0.0
  0
LINE
  5
8C
330
74
100
AcDbEntity
  8
A1E-----M5_______Rohbau
  6
Continuous
 62
     7
 48
1000.0
370
    60
100
AcDbLine
 10
142.3904593425953
 20
188.3380166197564
 30
0.0
 11
142.3904593437848
 21
196.3380164898747
 31
0.0
  0
LINE
  5
8D
330
74
100
AcDbEntity
  8
A1E-----M5_______Rohbau
  6
Continuous
 62
     7
 48
1000.0
370
    60
100
AcDbLine
 10
54.39045226401551
 20
196.3380164928503
 30
0.0
 11
142.3904593437848
 21
196.3380164898747
 31
0.0
  0
LINE
  5
8E
330
74
100
AcDbEntity
  8
04-00 Massivbau
  6
Continuous
 62
     7
 48
1000.0
370
    25
100
AcDbLine
 10
126.3904558027094
 20
165.5380243386761
 30
0.0
 11
70.39045580270975
 21
165.5380243386761
 31
0.0
  0
LINE
  5
8F
330
74
100
AcDbEntity
  8
04-00 Massivbau
  6
Continuous
 62
     7
 48
1000.0
370
    30
100
AcDbLine
 10
146.3904481759559
 20
120.7380243388552
 30
0.0
 11
146.3904569321428
 21
113.5380722306534
 31
0.0
  0
LINE
  5
90
330
74
100
AcDbEntity
  8
04-00 Massivbau
  6
Continuous
 62
     7
 48
1000.0
370
    30
100
AcDbLine
 10
50.39044872353604
 20
120.7380243388552
 30
0.0
 11
50.39045747972338
 21
113.5380722306534
 31
0.0
  0
LINE
  5
92
330
74
100
AcDbEntity
  8
04-00 Massivbau
  6
strichlinie
 62
     1
 48
1000.0
370
    35
100
AcDbLine
 10
70.71045580271051
 20
165.2180243386761
 30
0.0
 11
70.71044704652319
 21
121.0971210323291
 31
0.0
  0
LINE
  5
93
330
74
100
AcDbEntity
  8
04-00 Massivbau
  6
strichlinie
 62
     1
 48
1000.0
370
    35
100
AcDbLine
 10
126.0704558027101
 20
165.2180243386761
 30
0.0
 11
126.070447046523
 21
121.0971210323291
 31
0.0
  0
LINE
  5
94
330
74
100
AcDbEntity
  8
04-00 Massivbau
  6
Continuous
 62
     7
 48
1000.0
370
    30
100
AcDbLine
 10
126.3904558027094
 20
185.5380243386759
 30
0.0
 11
126.3904470495021
 21
120.7380243388552
 31
0.0
  0
LINE
  5
95
330
74
100
AcDbEntity
  8
04-00 Massivbau
  6
Continuous
 62
     7
 48
1000.0
370
    30
100
AcDbLine
 10
70.39045580270975
 20
185.5380243386759
 30
0.0
 11
70.39044704950226
 21
120.7380243388556
 31
0.0
  0
LINE
  5
96
330
74
100
AcDbEntity
  8
04-00 Massivbau
  6
strichlinie
 62
     1
 48
1000.0
370
    35
100
AcDbLine
 10
70.71045580271051
 20
165.2180243386761
 30
0.0
 11
126.0704558027101
 21
165.2180243386761
 31
0.0
  0
LINE
  5
97
330
74
100
AcDbEntity
  8
A1E-----M5_______Rohbau
  6
Continuous
 62
     7
 48
1000.0
370
    13
100
AcDbLine
 10
78.84761272134222
 20
108.9804550431537
 30
0.0
 11
80.00073772134186
 21
108.8786972306535
 31
0.0
  0
LINE
  5
98
330
74
100
AcDbEntity
  8
A1E-----M5_______Rohbau
  6
Continuous
 62
     7
 48
1000.0
370
    13
100
AcDbLine
 10
80.00073772134186
 20
108.8786972306535
 30
0.0
 11
80.84878459634193
 21
108.8786972306535
 31
0.0
  0
LINE
  5
99
330
74
100
AcDbEntity
  8
A1E-----M5_______Rohbau
  6
Continuous
 62
     7
 48
1000.0
370
    13
100
AcDbLine
 10
80.84878459634193
 20
108.8786972306535
 30
0.0
 11
82.00190959634179
 21
108.8449081681531
 31
0.0
  0
LINE
  5
9A
330
74
100
AcDbEntity
  8
A1E-----M5_______Rohbau
  6
Continuous
 62
     7
 48
1000.0
370
    13
100
AcDbLine
 10
82.00190959634179
 20
108.8449081681531
 30
0.0
 11
83.63003459634166
 21
108.8449081681531
 31
0.0
  0
LINE
  5
9B
330
74
100
AcDbEntity
  8
A1E-----M5_______Rohbau
  6
Continuous
 62
     7
 48
1000.0
370
    13
100
AcDbLine
 10
83.63003459634166
 20
108.8449081681531
 30
0.0
 11
85.39370647134146
 21
108.8109237931532
 31
0.0
  0
LINE
  5
9C
330
74
100
AcDbEntity
  8
A1E-----M5_______Rohbau
  6
Continuous
 62
     7
 48
1000.0
370
    13
100
AcDbLine
 10
85.39370647134146
 20
108.8109237931532
 30
0.0
 11
86.47905803384148
 21
108.8109237931532
 31
0.0
  0
LINE
  5
9D
330
74
100
AcDbEntity
  8
A1E-----M5_______Rohbau
  6
Continuous
 62
     7
 48
1000.0
370
    13
100
AcDbLine
 10
86.47905803384148
 20
108.8109237931532
 30
0.0
 11
87.53042522134179
 21
108.8449081681531
 31
0.0
  0
LINE
  5
9E
330
74
100
AcDbEntity
  8
A1E-----M5_______Rohbau
  6
Continuous
 62
     7
 48
1000.0
370
    13
100
AcDbLine
 10
87.53042522134179
 20
108.8449081681531
 30
0.0
 11
87.93745647134155
 21
108.8449081681531
 31
0.0
  0
LINE
  5
9F
330
74
100
AcDbEntity
  8
A1E-----M5_______Rohbau
  6
Continuous
 62
     7
 48
1000.0
370
    13
100
AcDbLine
 10
87.93745647134155
 20
108.8449081681531
 30
0.0
 11
88.48022990884141
 21
108.8109237931532
 31
0.0
  0
LINE
  5
A0
330
74
100
AcDbEntity
  8
A1E-----M5_______Rohbau
  6
Continuous
 62
     7
 48
1000.0
370
    13
100
AcDbLine
 10
88.48022990884141
 20
108.8109237931532
 30
0.0
 11
88.98901897134203
 21
108.8109237931532
 31
0.0
  0
LINE
  5
A1
330
74
100
AcDbEntity
  8
A1E-----M5_______Rohbau
  6
Continuous
 62
     7
 48
1000.0
370
    13
100
AcDbLine
 10
88.98901897134203
 20
108.8109237931532
 30
0.0
 11
89.36206584634121
 21
108.7091659806529
 31
0.0
  0
LINE
  5
A2
330
74
100
AcDbEntity
  8
A1E-----M5_______Rohbau
  6
Continuous
 62
     7
 48
1000.0
370
    13
100
AcDbLine
 10
89.36206584634121
 20
108.7091659806529
 30
0.0
 11
90.17612834634224
 21
108.607408168153
 31
0.0
  0
LINE
  5
A3
330
74
100
AcDbEntity
  8
A1E-----M5_______Rohbau
  6
Continuous
 62
     7
 48
1000.0
370
    13
100
AcDbLine
 10
90.17612834634224
 20
108.607408168153
 30
0.0
 11
90.88823772134158
 21
108.607408168153
 31
0.0
  0
LINE
  5
A4
330
74
100
AcDbEntity
  8
A1E-----M5_______Rohbau
  6
Continuous
 62
     7
 48
1000.0
370
    13
100
AcDbLine
 10
90.88823772134158
 20
108.607408168153
 30
0.0
 11
91.9735892838418
 21
108.5396347306527
 31
0.0
  0
LINE
  5
A5
330
74
100
AcDbEntity
  8
A1-----1H2_______Schraffur_1_5
  6
Continuous
 62
     7
 48
1000.0
370
    13
100
AcDbLine
 10
87.33294623441168
 20
110.4298313318863
 30
0.0
 11
87.35294623441159
 21
110.4298313318863
 31
0.0
  0
LINE
  5
A7
330
74
100
AcDbEntity
  8
A1-----1H2_______Schraffur_1_5
  6
Continuous
 62
     7
 48
1000.0
370
    13
100
AcDbLine
 10
89.69294626433366
 20
110.5498314368316
 30
0.0
 11
89.7129462643329
 21
110.5498314368316
 31
0.0
  0
LINE
  5
A8
330
74
100
AcDbEntity
  8
A1-----1H2_______Schraffur_1_5
  6
Continuous
 62
     7
 48
1000.0
370
    13
100
AcDbLine
 10
81.17294616010471
 20
110.0298310566628
 30
0.0
 11
81.19294616010463
 21
110.0298310566628
 31
0.0
  0
LINE
  5
A9
330
74
100
AcDbEntity
  8
A1-----1H2_______Schraffur_1_5
  6
Continuous
 62
     7
 48
1000.0
370
    13
100
AcDbLine
 10
82.2329461898883
 20
109.7098310982274
 30
0.0
 11
82.25294618988754
 21
109.7098310982274
 31
0.0
  0
LINE
  5
AA
330
74
100
AcDbEntity
  8
A1-----1H2_______Schraffur_1_5
  6
Continuous
 62
     7
 48
1000.0
370
    13
100
AcDbLine
 10
79.51294615547666
 20
109.569830977247
 30
0.0
 11
79.53294615547657
 21
109.569830977247
 31
0.0
  0
LINE
  5
AB
330
74
100
AcDbEntity
  8
A1-----1H2_______Schraffur_1_5
  6
Continuous
 62
     7
 48
1000.0
370
    13
100
AcDbLine
 10
79.91294614307742
 20
109.9898310009904
 30
0.0
 11
79.932946143078
 21
109.9898310009904
 31
0.0
  0
LINE
  5
AC
330
74
100
AcDbEntity
  8
A1-----1H2_______Schraffur_1_5
  6
Continuous
 62
     7
 48
1000.0
370
    13
100
AcDbLine
 10
89.33294626421362
 20
110.4298314193086
 30
0.0
 11
89.3529462642142
 21
110.4298314193086
 31
0.0
  0
LINE
  5
AD
330
74
100
AcDbEntity
  8
A1E-----M5_______Rohbau
  6
Continuous
 62
     7
 48
1000.0
370
    13
100
AcDbLine
 10
37.70066801224492
 20
108.9126811627421
 30
0.0
 11
39.49832408303999
 21
109.0144394833456
 31
0.0
  0
LINE
  5
AE
330
74
100
AcDbEntity
  8
A1E-----M5_______Rohbau
  6
Continuous
 62
     7
 48
1000.0
370
    13
100
AcDbLine
 10
39.49832408303999
 20
109.0144394833456
 30
0.0
 11
41.09246351262641
 21
109.1501816027187
 31
0.0
  0
LINE
  5
AF
330
74
100
AcDbEntity
  8
A1E-----M5_______Rohbau
  6
Continuous
 62
     7
 48
1000.0
370
    13
100
AcDbLine
 10
41.09246351262641
 20
109.1501816027187
 30
0.0
 11
42.48289322530208
 21
109.1501816027187
 31
0.0
  0
LINE
  5
B0
330
74
100
AcDbEntity
  8
A1E-----M5_______Rohbau
  6
Continuous
 62
     7
 48
1000.0
370
    13
100
AcDbLine
 10
42.48289322530208
 20
109.1501816027187
 30
0.0
 11
44.04324688247962
 21
109.0822140051826
 31
0.0
  0
LINE
  5
B1
330
74
100
AcDbEntity
  8
A1E-----M5_______Rohbau
  6
Continuous
 62
     7
 48
1000.0
370
    13
100
AcDbLine
 10
44.04324688247962
 20
109.0822140051826
 30
0.0
 11
45.53562799146115
 21
109.0484232821152
 31
0.0
  0
LINE
  5
B2
330
74
100
AcDbEntity
  8
A1E-----M5_______Rohbau
  6
Continuous
 62
     7
 48
1000.0
370
    13
100
AcDbLine
 10
45.53562799146115
 20
109.0484232821152
 30
0.0
 11
46.82449493456331
 21
109.0144394833456
 31
0.0
  0
LINE
  5
B3
330
74
100
AcDbEntity
  8
A1E-----M5_______Rohbau
  6
Continuous
 62
     7
 48
1000.0
370
    13
100
AcDbLine
 10
46.82449493456331
 20
109.0144394833456
 30
0.0
 11
48.21512019826968
 21
109.0822140051826
 31
0.0
  0
LINE
  5
B4
330
74
100
AcDbEntity
  8
A1E-----M5_______Rohbau
  6
Continuous
 62
     7
 48
1000.0
370
    13
100
AcDbLine
 10
48.21512019826968
 20
109.0822140051826
 30
0.0
 11
49.74129203031907
 21
109.0822140051826
 31
0.0
  0
LINE
  5
B5
330
74
100
AcDbEntity
  8
A1E-----M5_______Rohbau
  6
Continuous
 62
     7
 48
1000.0
370
    13
100
AcDbLine
 10
49.74129203031907
 20
109.0822140051826
 30
0.0
 11
51.57293437521204
 21
109.2179561245557
 31
0.0
  0
LINE
  5
B6
330
74
100
AcDbEntity
  8
A1E-----M5_______Rohbau
  6
Continuous
 62
     7
 48
1000.0
370
    13
100
AcDbLine
 10
51.57293437521204
 20
109.2179561245557
 30
0.0
 11
53.06531548419358
 21
109.285728171062
 31
0.0
  0
LINE
  5
B7
330
74
100
AcDbEntity
  8
A1E-----M5_______Rohbau
  6
Continuous
 62
     7
 48
1000.0
370
    13
100
AcDbLine
 10
53.06531548419358
 20
109.285728171062
 30
0.0
 11
55.47332345225598
 21
109.285728171062
 31
0.0
  0
LINE
  5
B8
330
74
100
AcDbEntity
  8
A1E-----M5_______Rohbau
  6
Continuous
 62
     7
 48
1000.0
370
    13
100
AcDbLine
 10
55.47332345225598
 20
109.285728171062
 30
0.0
 11
59.16922535478841
 21
109.1839698504571
 31
0.0
  0
LINE
  5
B9
330
74
100
AcDbEntity
  8
A1E-----M5_______Rohbau
  6
Continuous
 62
     7
 48
1000.0
370
    13
100
AcDbLine
 10
59.16922535478841
 20
109.1839698504571
 30
0.0
 11
60.96688142558416
 21
109.0822140051826
 31
0.0
  0
LINE
  5
BA
330
74
100
AcDbEntity
  8
A1E-----M5_______Rohbau
  6
Continuous
 62
     7
 48
1000.0
370
    13
100
AcDbLine
 10
60.89874273488261
 20
109.0799487221601
 30
0.0
 11
62.56219189016154
 21
109.1161978039508
 31
0.0
  0
LINE
  5
BB
330
74
100
AcDbEntity
  8
A1E-----M5_______Rohbau
  6
Continuous
 62
     7
 48
1000.0
370
    13
100
AcDbLine
 10
62.56219189016154
 20
109.1161978039508
 30
0.0
 11
66.02176191237841
 21
109.0484232821152
 31
0.0
  0
LINE
  5
BC
330
74
100
AcDbEntity
  8
A1E-----M5_______Rohbau
  6
Continuous
 62
     7
 48
1000.0
370
    13
100
AcDbLine
 10
66.02176191237841
 20
109.0484232821152
 30
0.0
 11
67.61570579093367
 21
109.0822140051826
 31
0.0
  0
LINE
  5
BD
330
74
100
AcDbEntity
  8
A1E-----M5_______Rohbau
  6
Continuous
 62
     7
 48
1000.0
370
    13
100
AcDbLine
 10
67.61570579093367
 20
109.0822140051826
 30
0.0
 11
68.7012541191876
 21
109.0822140051826
 31
0.0
  0
LINE
  5
BE
330
74
100
AcDbEntity
  8
A1E-----M5_______Rohbau
  6
Continuous
 62
     7
 48
1000.0
370
    13
100
AcDbLine
 10
68.7012541191876
 20
109.0822140051826
 30
0.0
 11
70.0918793828933
 21
109.1839698504571
 31
0.0
  0
LINE
  5
BF
330
74
100
AcDbEntity
  8
A1E-----M5_______Rohbau
  6
Continuous
 62
     7
 48
1000.0
370
    13
100
AcDbLine
 10
70.0918793828933
 20
109.1839698504571
 30
0.0
 11
71.85555165492019
 21
109.285728171062
 31
0.0
  0
LINE
  5
C0
330
74
100
AcDbEntity
  8
A1E-----M5_______Rohbau
  6
Continuous
 62
     7
 48
1000.0
370
    13
100
AcDbLine
 10
71.85555165492019
 20
109.285728171062
 30
0.0
 11
73.31394896513288
 21
109.285728171062
 31
0.0
  0
LINE
  5
C1
330
74
100
AcDbEntity
  8
A1E-----M5_______Rohbau
  6
Continuous
 62
     7
 48
1000.0
370
    13
100
AcDbLine
 10
73.31394896513288
 20
109.285728171062
 30
0.0
 11
74.29754342175055
 21
109.2179561245557
 31
0.0
  0
LINE
  5
C2
330
74
100
AcDbEntity
  8
A1E-----M5_______Rohbau
  6
Continuous
 62
     7
 48
1000.0
370
    13
100
AcDbLine
 10
74.29754342175055
 20
109.2179561245557
 30
0.0
 11
75.5864103648527
 21
109.0484232821152
 31
0.0
  0
LINE
  5
C3
330
74
100
AcDbEntity
  8
A1E-----M5_______Rohbau
  6
Continuous
 62
     7
 48
1000.0
370
    13
100
AcDbLine
 10
75.5864103648527
 20
109.0484232821152
 30
0.0
 11
77.38406643564844
 21
109.0144394833456
 31
0.0
  0
LINE
  5
C4
330
74
100
AcDbEntity
  8
A1E-----M5_______Rohbau
  6
Continuous
 62
     7
 48
1000.0
370
    13
100
AcDbLine
 10
77.38406643564844
 20
109.0144394833456
 30
0.0
 11
78.84246374586112
 21
108.9804556845775
 31
0.0
  0
LINE
  5
C5
330
74
100
AcDbEntity
  8
A1E-----M5_______Rohbau
  6
Continuous
 62
     7
 48
1000.0
370
    13
100
AcDbLine
 10
78.84246374586112
 20
108.9804556845775
 30
0.0
 11
79.99558856959021
 21
108.8786973639726
 31
0.0
  0
LINE
  5
C6
330
74
100
AcDbEntity
  8
A1E-----M5_______Rohbau
  6
Continuous
 62
     7
 48
1000.0
370
    13
100
AcDbLine
 10
79.99558856959021
 20
108.8786973639726
 30
0.0
 11
80.84363645786551
 21
108.8786973639726
 31
0.0
  0
LINE
  5
C7
330
74
100
AcDbEntity
  8
A1E-----M5_______Rohbau
  6
Continuous
 62
     7
 48
1000.0
370
    13
100
AcDbLine
 10
80.84363645786551
 20
108.8786973639726
 30
0.0
 11
81.99676128159439
 21
108.8449091162345
 31
0.0
  0
LINE
  5
C8
330
74
100
AcDbEntity
  8
A1E-----M5_______Rohbau
  6
Continuous
 62
     7
 48
1000.0
370
    13
100
AcDbLine
 10
81.99676128159439
 20
108.8449091162345
 30
0.0
 11
83.62488698527892
 21
108.8449091162345
 31
0.0
  0
LINE
  5
C9
330
74
100
AcDbEntity
  8
A1E-----M5_______Rohbau
  6
Continuous
 62
     7
 48
1000.0
370
    13
100
AcDbLine
 10
83.62488698527892
 20
108.8449091162345
 30
0.0
 11
85.38855925730515
 21
108.8109228421372
 31
0.0
  0
LINE
  5
CA
330
74
100
AcDbEntity
  8
A1E-----M5_______Rohbau
  6
Continuous
 62
     7
 48
1000.0
370
    13
100
AcDbLine
 10
85.38855925730515
 20
108.8109228421372
 30
0.0
 11
86.47390955919798
 21
108.8109228421372
 31
0.0
  0
LINE
  5
CB
330
74
100
AcDbEntity
  8
A1E-----M5_______Rohbau
  6
Continuous
 62
     7
 48
1000.0
370
    13
100
AcDbLine
 10
86.47390955919798
 20
108.8109228421372
 30
0.0
 11
87.52527606232196
 21
108.8449091162345
 31
0.0
  0
LINE
  5
CC
330
74
100
AcDbEntity
  8
A1E-----M5_______Rohbau
  6
Continuous
 62
     7
 48
1000.0
370
    13
100
AcDbLine
 10
87.52527606232196
 20
108.8449091162345
 30
0.0
 11
87.93230934474039
 21
108.8449091162345
 31
0.0
  0
LINE
  5
CD
330
74
100
AcDbEntity
  8
A1E-----M5_______Rohbau
  6
Continuous
 62
     7
 48
1000.0
370
    13
100
AcDbLine
 10
87.93230934474039
 20
108.8449091162345
 30
0.0
 11
88.47508227120215
 21
108.8109228421372
 31
0.0
  0
LINE
  5
CE
330
74
100
AcDbEntity
  8
A1E-----M5_______Rohbau
  6
Continuous
 62
     7
 48
1000.0
370
    13
100
AcDbLine
 10
88.47508227120215
 20
108.8109228421372
 30
0.0
 11
88.98387139889574
 21
108.8109228421372
 31
0.0
  0
LINE
  5
CF
330
74
100
AcDbEntity
  8
A1E-----M5_______Rohbau
  6
Continuous
 62
     7
 48
1000.0
370
    13
100
AcDbLine
 10
88.98387139889574
 20
108.8109228421372
 30
0.0
 11
89.35691840721562
 21
108.7091669968614
 31
0.0
  0
LINE
  5
D0
330
74
100
AcDbEntity
  8
A1E-----M5_______Rohbau
  6
Continuous
 62
     7
 48
1000.0
370
    13
100
AcDbLine
 10
89.35691840721562
 20
108.7091669968614
 30
0.0
 11
90.170980021393
 21
108.6074086762579
 31
0.0
  0
LINE
  5
D1
330
74
100
AcDbEntity
  8
A1E-----M5_______Rohbau
  6
Continuous
 62
     7
 48
1000.0
370
    13
100
AcDbLine
 10
90.170980021393
 20
108.6074086762579
 30
0.0
 11
90.88309023926455
 21
108.6074086762579
 31
0.0
  0
LINE
  5
D2
330
74
100
AcDbEntity
  8
A1E-----M5_______Rohbau
  6
Continuous
 62
     7
 48
1000.0
370
    13
100
AcDbLine
 10
90.88309023926455
 20
108.6074086762579
 30
0.0
 11
91.96844054115738
 21
108.5396341544209
 31
0.0
  0
LINE
  5
D3
330
74
100
AcDbEntity
  8
A1E-----M5_______Rohbau
  6
Continuous
 62
     7
 48
1000.0
370
    13
100
AcDbLine
 10
91.96844054115738
 20
108.5396341544209
 30
0.0
 11
92.37547134824608
 21
108.5056503556527
 31
0.0
  0
LINE
  5
D4
330
74
100
AcDbEntity
  8
A1E-----M5_______Rohbau
  6
Continuous
 62
     7
 48
1000.0
370
    13
100
AcDbLine
 10
92.37547134824608
 20
108.5056503556527
 30
0.0
 11
94.58016070145958
 21
108.5736179531904
 31
0.0
  0
LINE
  5
D5
330
74
100
AcDbEntity
  8
A1E-----M5_______Rohbau
  6
Continuous
 62
     7
 48
1000.0
370
    13
100
AcDbLine
 10
94.58016070145958
 20
108.5736179531904
 30
0.0
 11
96.3100422504184
 21
108.5736179531904
 31
0.0
  0
LINE
  5
D6
330
74
100
AcDbEntity
  8
A1E-----M5_______Rohbau
  6
Continuous
 62
     7
 48
1000.0
370
    13
100
AcDbLine
 10
96.3100422504184
 20
108.5736179531904
 30
0.0
 11
98.2772311636546
 21
108.675376273794
 31
0.0
  0
LINE
  5
D7
330
74
100
AcDbEntity
  8
A1E-----M5_______Rohbau
  6
Continuous
 62
     7
 48
1000.0
370
    13
100
AcDbLine
 10
98.2772311636546
 20
108.675376273794
 30
0.0
 11
103.1951984960842
 21
108.675376273794
 31
0.0
  0
LINE
  5
D8
330
74
100
AcDbEntity
  8
A1E-----M5_______Rohbau
  6
Continuous
 62
     7
 48
1000.0
370
    13
100
AcDbLine
 10
103.1951984960842
 20
108.675376273794
 30
0.0
 11
105.9424652247287
 21
108.7091669968614
 31
0.0
  0
LINE
  5
D9
330
74
100
AcDbEntity
  8
A1E-----M5_______Rohbau
  6
Continuous
 62
     7
 48
1000.0
370
    13
100
AcDbLine
 10
105.9424652247287
 20
108.7091669968614
 30
0.0
 11
108.757699550911
 21
108.8109228421372
 31
0.0
  0
LINE
  5
DA
330
74
100
AcDbEntity
  8
A1E-----M5_______Rohbau
  6
Continuous
 62
     7
 48
1000.0
370
    13
100
AcDbLine
 10
108.757699550911
 20
108.8109228421372
 30
0.0
 11
111.8102387660393
 21
108.8109228421372
 31
0.0
  0
LINE
  5
DB
330
74
100
AcDbEntity
  8
A1E-----M5_______Rohbau
  6
Continuous
 62
     7
 48
1000.0
370
    13
100
AcDbLine
 10
111.8102387660393
 20
108.8109228421372
 30
0.0
 11
114.6932451387272
 21
109.0144394833456
 31
0.0
  0
LINE
  5
DC
330
74
100
AcDbEntity
  8
A1E-----M5_______Rohbau
  6
Continuous
 62
     7
 48
1000.0
370
    13
100
AcDbLine
 10
114.6932451387272
 20
109.0144394833456
 30
0.0
 11
117.1352369055583
 21
108.9804556845775
 31
0.0
  0
LINE
  5
DD
330
74
100
AcDbEntity
  8
A1E-----M5_______Rohbau
  6
Continuous
 62
     7
 48
1000.0
370
    13
100
AcDbLine
 10
117.1352369055583
 20
108.9804556845775
 30
0.0
 11
120.0182457535761
 21
108.9466649615103
 31
0.0
  0
LINE
  5
DE
330
74
100
AcDbEntity
  8
A1E-----M5_______Rohbau
  6
Continuous
 62
     7
 48
1000.0
370
    13
100
AcDbLine
 10
120.0182457535761
 20
108.9466649615103
 30
0.0
 11
123.8848465828817
 21
109.0484232821152
 31
0.0
  0
LINE
  5
DF
330
74
100
AcDbEntity
  8
A1E-----M5_______Rohbau
  6
Continuous
 62
     7
 48
1000.0
370
    13
100
AcDbLine
 10
123.8848465828817
 20
109.0484232821152
 30
0.0
 11
126.8696137515037
 21
109.2179561245557
 31
0.0
  0
LINE
  5
E0
330
74
100
AcDbEntity
  8
A1E-----M5_______Rohbau
  6
Continuous
 62
     7
 48
1000.0
370
    13
100
AcDbLine
 10
126.8696137515037
 20
109.2179561245557
 30
0.0
 11
129.7526201241923
 21
109.3197119698302
 31
0.0
  0
LINE
  5
E1
330
74
100
AcDbEntity
  8
A1E-----M5_______Rohbau
  6
Continuous
 62
     7
 48
1000.0
370
    13
100
AcDbLine
 10
129.7526201241923
 20
109.3197119698302
 30
0.0
 11
132.1608236432852
 21
109.2179561245557
 31
0.0
  0
LINE
  5
E2
330
74
100
AcDbEntity
  8
A1E-----M5_______Rohbau
  6
Continuous
 62
     7
 48
1000.0
370
    13
100
AcDbLine
 10
132.1608236432852
 20
109.2179561245557
 30
0.0
 11
135.1793790596447
 21
109.1501816027187
 31
0.0
  0
LINE
  5
E3
330
74
100
AcDbEntity
  8
A1E-----M5_______Rohbau
  6
Continuous
 62
     7
 48
1000.0
370
    13
100
AcDbLine
 10
135.1793790596447
 20
109.1501816027187
 30
0.0
 11
137.9266433129602
 21
109.0484232821152
 31
0.0
  0
LINE
  5
E4
330
74
100
AcDbEntity
  8
A1E-----M5_______Rohbau
  6
Continuous
 62
     7
 48
1000.0
370
    13
100
AcDbLine
 10
137.9266433129602
 20
109.0484232821152
 30
0.0
 11
140.4026213538885
 21
108.9804556845775
 31
0.0
  0
LINE
  5
E5
330
74
100
AcDbEntity
  8
A1E-----M5_______Rohbau
  6
Continuous
 62
     7
 48
1000.0
370
    13
100
AcDbLine
 10
140.4026213538885
 20
108.9804556845775
 30
0.0
 11
141.9629725357368
 21
108.7771345943991
 31
0.0
  0
LINE
  5
E6
330
74
100
AcDbEntity
  8
A1E-----M5_______Rohbau
  6
Continuous
 62
     7
 48
1000.0
370
    13
100
AcDbLine
 10
141.9629725357368
 20
108.7771345943991
 30
0.0
 11
142.3700033428261
 21
108.7771345943991
 31
0.0
  0
LINE
  5
E7
330
74
100
AcDbEntity
  8
A1E-----M5_______Rohbau
  6
Continuous
 62
     7
 48
1000.0
370
    13
100
AcDbLine
 10
142.3700033428261
 20
108.7771345943991
 30
0.0
 11
142.9465669923544
 21
108.8449091162345
 31
0.0
  0
LINE
  5
E8
330
74
100
AcDbEntity
  8
A1E-----M5_______Rohbau
  6
Continuous
 62
     7
 48
1000.0
370
    13
100
AcDbLine
 10
142.9465669923544
 20
108.8449091162345
 30
0.0
 11
143.5231281665546
 21
109.0144394833456
 31
0.0
  0
LINE
  5
E9
330
74
100
AcDbEntity
  8
A1E-----M5_______Rohbau
  6
Continuous
 62
     7
 48
1000.0
370
    13
100
AcDbLine
 10
143.5231281665546
 20
109.0144394833456
 30
0.0
 11
143.8621913761053
 21
109.0484232821152
 31
0.0
  0
LINE
  5
EA
330
74
100
AcDbEntity
  8
A1E-----M5_______Rohbau
  6
Continuous
 62
     7
 48
1000.0
370
    13
100
AcDbLine
 10
143.8621913761053
 20
109.0484232821152
 30
0.0
 11
144.6084809437764
 21
109.0822140051826
 31
0.0
  0
LINE
  5
EB
330
74
100
AcDbEntity
  8
A1E-----M5_______Rohbau
  6
Continuous
 62
     7
 48
1000.0
370
    13
100
AcDbLine
 10
144.6084809437764
 20
109.0822140051826
 30
0.0
 11
144.9137534302609
 21
109.0822140051826
 31
0.0
  0
LINE
  5
EC
330
74
100
AcDbEntity
  8
A1E-----M5_______Rohbau
  6
Continuous
 62
     7
 48
1000.0
370
    13
100
AcDbLine
 10
144.9137534302609
 20
109.0822140051826
 30
0.0
 11
145.1510583192075
 21
109.1161978039508
 31
0.0
  0
LINE
  5
ED
330
74
100
AcDbEntity
  8
A1E-----M5_______Rohbau
  6
Continuous
 62
     7
 48
1000.0
370
    13
100
AcDbLine
 10
145.1510583192075
 20
109.1161978039508
 30
0.0
 11
145.6260591991636
 21
109.1161978039508
 31
0.0
  0
LINE
  5
EE
330
74
100
AcDbEntity
  8
A1E-----M5_______Rohbau
  6
Continuous
 62
     7
 48
1000.0
370
    13
100
AcDbLine
 10
145.6260591991636
 20
109.1161978039508
 30
0.0
 11
145.8973478868786
 21
109.1501816027187
 31
0.0
  0
LINE
  5
EF
330
74
100
AcDbEntity
  8
A1E-----M5_______Rohbau
  6
Continuous
 62
     7
 48
1000.0
370
    13
100
AcDbLine
 10
145.8973478868786
 20
109.1501816027187
 30
0.0
 11
159.333211182856
 21
109.2504101696901
 31
0.0
  0
LINE
  5
F0
330
74
100
AcDbEntity
  8
A1E-----M5_______Rohbau
  6
Continuous
 62
     7
 48
1000.0
370
    13
100
AcDbLine
 10
159.333211182856
 20
109.2504101696901
 30
0.0
 11
159.333211182856
 21
109.1604764981282
 31
0.0
  0
LINE
  5
F1
330
74
100
AcDbEntity
  8
A1E-----M5_______Rohbau
  6
Continuous
 62
     7
 48
1000.0
370
    13
100
AcDbLine
 10
159.333211182856
 20
109.1604764981282
 30
0.0
 11
161.4002400363297
 21
109.3205040752721
 31
0.0
  0
LINE
  5
F2
330
74
100
AcDbEntity
  8
A1E-----M5_______Rohbau
  6
Continuous
 62
     7
 48
1000.0
370
    13
100
AcDbLine
 10
161.4002400363297
 20
109.3205040752721
 30
0.0
 11
169.8142142412848
 21
108.9716633141775
 31
0.0
  0
LINE
  5
F3
330
74
100
AcDbEntity
  8
A1E-----M5_______Rohbau
  6
Continuous
 62
     7
 48
1000.0
370
    13
100
AcDbLine
 10
169.8142142412848
 20
108.9716633141775
 30
0.0
 11
172.6142129143662
 21
108.9716633141775
 31
0.0
  0
LINE
  5
F4
330
74
100
AcDbEntity
  8
A1E-----M5_______Rohbau
  6
Continuous
 62
     7
 48
1000.0
370
    13
100
AcDbLine
 10
172.6142129143662
 20
108.9716633141775
 30
0.0
 11
174.3088581478276
 21
109.3410072295582
 31
0.0
  0
LINE
  5
F5
330
74
100
AcDbEntity
  8
A1E-----M5_______Rohbau
  6
Continuous
 62
     7
 48
1000.0
370
    13
100
AcDbLine
 10
174.3088581478276
 20
109.3410072295582
 30
0.0
 11
175.8257920501649
 21
109.0361629750787
 31
0.0
  0
LINE
  5
F6
330
74
100
AcDbEntity
  8
A1E-----M5_______Rohbau
  6
Continuous
 62
     7
 48
1000.0
370
    13
100
AcDbLine
 10
175.8257920501649
 20
109.0361629750787
 30
0.0
 11
177.8257914559844
 21
109.0361629750787
 31
0.0
  0
LINE
  5
F7
330
74
100
AcDbEntity
  8
A1E-----M5_______Rohbau
  6
Continuous
 62
     7
 48
1000.0
370
    13
100
AcDbLine
 10
177.8257914559844
 20
109.0361629750787
 30
0.0
 11
178.8442088480722
 21
109.3077412763461
 31
0.0
  0
LINE
  5
F8
330
74
100
AcDbEntity
  8
A1E-----M5_______Rohbau
  6
Continuous
 62
     7
 48
1000.0
370
    13
100
AcDbLine
 10
178.8442088480722
 20
109.3077412763461
 30
0.0
 11
189.9462873828888
 21
109.3077412763461
 31
0.0
  0
LINE
  5
F9
330
74
100
AcDbEntity
  8
A1E-----M5_______Rohbau
  6
Continuous
 62
     7
 48
1000.0
370
    13
100
AcDbLine
 10
180.2892997906287
 20
110.7380733006365
 30
0.0
 11
14.99999999999879
 21
110.7380733006365
 31
0.0
  0
LINE
  5
FA
330
74
100
AcDbEntity
  8
A1E-----M5_______Rohbau
  6
Continuous
 62
     7
 48
1000.0
370
    60
100
AcDbLine
 10
142.3904593425953
 20
188.3380166197564
 30
0.0
 11
189.9999997704909
 21
188.3380166197564
 31
0.0
  0
LINE
  5
FB
330
74
100
AcDbEntity
  8
04-00 Massivbau
  6
Continuous
 62
     7
 48
1000.0
370
    30
100
AcDbLine
 10
50.39044872353604
 20
120.7380243388552
 30
0.0
 11
146.3904481759559
 21
120.7380243388552
 31
0.0
  0
LINE
  5
FC
330
74
100
AcDbEntity
  8
A1E-----M5_______Rohbau
  6
Continuous
 62
     7
 48
1000.0
370
    13
100
AcDbLine
 10
15.95965342232408
 20
108.6413924750258
 30
0.0
 11
20.87762075475364
 21
108.6413924750258
 31
0.0
  0
LINE
  5
FD
330
74
100
AcDbEntity
  8
A1E-----M5_______Rohbau
  6
Continuous
 62
     7
 48
1000.0
370
    13
100
AcDbLine
 10
20.87762075475364
 20
108.6413924750258
 30
0.0
 11
23.62488748339842
 21
108.6751831980932
 31
0.0
  0
LINE
  5
FE
330
74
100
AcDbEntity
  8
A1E-----M5_______Rohbau
  6
Continuous
 62
     7
 48
1000.0
370
    13
100
AcDbLine
 10
23.62488748339842
 20
108.6751831980932
 30
0.0
 11
26.44012180958
 21
108.7769390433691
 31
0.0
  0
LINE
  5
FF
330
74
100
AcDbEntity
  8
A1E-----M5_______Rohbau
  6
Continuous
 62
     7
 48
1000.0
370
    13
100
AcDbLine
 10
26.44012180958
 20
108.7769390433691
 30
0.0
 11
29.49266102470882
 21
108.7769390433691
 31
0.0
  0
LINE
  5
100
330
74
100
AcDbEntity
  8
A1E-----M5_______Rohbau
  6
Continuous
 62
     7
 48
1000.0
370
    13
100
AcDbLine
 10
29.49266102470882
 20
108.7769390433691
 30
0.0
 11
32.37566739739606
 21
108.9804556845775
 31
0.0
  0
LINE
  5
101
330
74
100
AcDbEntity
  8
A1E-----M5_______Rohbau
  6
Continuous
 62
     7
 48
1000.0
370
    13
100
AcDbLine
 10
32.37566739739606
 20
108.9804556845775
 30
0.0
 11
34.8176591642273
 21
108.9464718858095
 31
0.0
  0
LINE
  5
102
330
74
100
AcDbEntity
  8
A1E-----M5_______Rohbau
  6
Continuous
 62
     7
 48
1000.0
370
    13
100
AcDbLine
 10
34.8176591642273
 20
108.9464718858095
 30
0.0
 11
37.70066801224492
 21
108.9126811627421
 31
0.0
  0
LINE
  5
103
330
74
100
AcDbEntity
  8
A1E-----M5_______Rohbau
  6
Continuous
 62
     7
 48
1000.0
370
    20
100
AcDbLine
 10
85.97313248187399
 20
122.8160114541856
 30
0.0
 11
85.9732318127453
 21
100.8771954888346
 31
0.0
  0
CIRCLE
  5
104
330
74
100
AcDbEntity
  8
A1E-----M5_______Rohbau
  6
Continuous
 62
     7
 48
1000.0
370
    20
100
AcDbCircle
 10
85.97312976529503
 20
123.4160114541794
 30
0.0
 40
0.6000000000000001
  0
HATCH
  5
105
330
74
100
AcDbEntity
  8
A1E-----M5_______Rohbau
  6
Continuous
 62
     7
370
    20
100
AcDbHatch
 10
0.0
 20
0.0
 30
0.0
210
0.0
220
0.0
230
1.0
  2
SOLID
 70
     1
 71
     0
 91
        1
 92
        3
 72
     0
 73
     1
 93
       16
 10
85.37312976529488
 20
123.4160114541794
 10
85.41880205268492
 20
123.1864013940978
 10
85.54886569262487
 20
122.9917473815092
 10
85.74351970521343
 20
122.8616837415695
 10
85.97312976529503
 20
122.8160114541794
 10
86.20273982537663
 20
122.8616837415695
 10
86.39739383796518
 20
122.9917473815092
 10
86.52745747790513
 20
123.1864013940978
 10
86.57312976529496
 20
123.4160114541794
 10
86.52745747790513
 20
123.645621514261
 10
86.39739383796518
 20
123.8402755268495
 10
86.20273982537663
 20
123.9703391667892
 10
85.97312976529503
 20
124.0160114541795
 10
85.74351970521343
 20
123.9703391667892
 10
85.54886569262487
 20
123.8402755268495
 10
85.41880205268492
 20
123.645621514261
 97
        0
 75
     0
 76
     1
 98
        0
  0
LINE
  5
106
330
74
100
AcDbEntity
  8
A1E-----M5_______Rohbau
  6
Continuous
 62
     7
 48
1000.0
370
    20
100
AcDbLine
 10
92.18180888301795
 20
123.835134527067
 30
0.0
 11
92.18190182667318
 21
100.87713979908
 31
0.0
  0
CIRCLE
  5
107
330
74
100
AcDbEntity
  8
A1E-----M5_______Rohbau
  6
Continuous
 62
     7
 48
1000.0
370
    20
100
AcDbCircle
 10
92.18180645396478
 20
124.435134527062
 30
0.0
 40
0.6000000000000001
  0
HATCH
  5
108
330
74
100
AcDbEntity
  8
A1E-----M5_______Rohbau
  6
Continuous
 62
     7
370
    20
100
AcDbHatch
 10
0.0
 20
0.0
 30
0.0
210
0.0
220
0.0
230
1.0
  2
SOLID
 70
     1
 71
     0
 91
        1
 92
        3
 72
     0
 73
     1
 93
       16
 10
91.58180645396463
 20
124.435134527062
 10
91.62747874135468
 20
124.2055244669804
 10
91.75754238129463
 20
124.0108704543918
 10
91.95219639388318
 20
123.8808068144519
 10
92.18180645396478
 20
123.8351345270619
 10
92.41141651404638
 20
123.8808068144519
 10
92.60607052663494
 20
124.0108704543918
 10
92.73613416657467
 20
124.2055244669804
 10
92.78180645396472
 20
124.435134527062
 10
92.73613416657467
 20
124.6647445871436
 10
92.60607052663494
 20
124.8593985997322
 10
92.41141651404638
 20
124.9894622396719
 10
92.18180645396478
 20
125.0351345270619
 10
91.95219639388318
 20
124.9894622396719
 10
91.75754238129463
 20
124.8593985997322
 10
91.62747874135468
 20
124.6647445871436
 97
        0
 75
     0
 76
     1
 98
        0
  0
LINE
  5
109
330
74
100
AcDbEntity
  8
A1E-----M5_______Rohbau
  6
Continuous
 62
     7
 48
1000.0
370
    20
100
AcDbLine
 10
98.39045242342736
 20
142.6793300728211
 30
0.0
 11
98.39056465204999
 21
100.8771168749103
 31
0.0
  0
CIRCLE
  5
10A
330
74
100
AcDbEntity
  8
A1E-----M5_______Rohbau
  6
Continuous
 62
     7
 48
1000.0
370
    20
100
AcDbCircle
 10
98.39045081257547
 20
143.279330072819
 30
0.0
 40
0.6000000000000001
  0
HATCH
  5
10B
330
74
100
AcDbEntity
  8
A1E-----M5_______Rohbau
  6
Continuous
 62
     7
370
    20
100
AcDbHatch
 10
0.0
 20
0.0
 30
0.0
210
0.0
220
0.0
230
1.0
  2
SOLID
 70
     1
 71
     0
 91
        1
 92
        3
 72
     0
 73
     1
 93
       16
 10
97.79045081257532
 20
143.279330072819
 10
97.83612309996559
 20
143.0497200127374
 10
97.96618673990531
 20
142.8550660001489
 10
98.16084075249387
 20
142.7250023602089
 10
98.39045081257547
 20
142.6793300728189
 10
98.62006087265706
 20
142.7250023602089
 10
98.81471488524562
 20
142.8550660001489
 10
98.94477852518536
 20
143.0497200127374
 10
98.9904508125754
 20
143.279330072819
 10
98.94477852518536
 20
143.5089401329006
 10
98.81471488524562
 20
143.7035941454892
 10
98.62006087265706
 20
143.8336577854289
 10
98.39045081257547
 20
143.879330072819
 10
98.16084075249387
 20
143.8336577854289
 10
97.96618673990531
 20
143.7035941454892
 10
97.83612309996559
 20
143.5089401329006
 97
        0
 75
     0
 76
     1
 98
        0
  0
LINE
  5
10C
330
74
100
AcDbEntity
  8
A1E-----M5_______Rohbau
  6
Continuous
 62
     7
 48
1000.0
370
    20
100
AcDbLine
 10
156.2778485684346
 20
151.4515772165874
 30
0.0
 11
156.2779599363464
 21
100.8771560564294
 31
0.0
  0
CIRCLE
  5
10D
330
74
100
AcDbEntity
  8
A1E-----M5_______Rohbau
  6
Continuous
 62
     7
 48
1000.0
370
    20
100
AcDbCircle
 10
156.2778472471986
 20
152.051577216586
 30
0.0
 40
0.6000000000000001
  0
HATCH
  5
10E
330
74
100
AcDbEntity
  8
A1E-----M5_______Rohbau
  6
Continuous
 62
     7
370
    20
100
AcDbHatch
 10
0.0
 20
0.0
 30
0.0
210
0.0
220
0.0
230
1.0
  2
SOLID
 70
     1
 71
     0
 91
        1
 92
        3
 72
     0
 73
     1
 93
       16
 10
155.6778472471985
 20
152.051577216586
 10
155.7235195345885
 20
151.8219671565044
 10
155.8535831745285
 20
151.6273131439159
 10
156.048237187117
 20
151.4972495039761
 10
156.2778472471986
 20
151.4515772165859
 10
156.5074573072802
 20
151.4972495039761
 10
156.7021113198688
 20
151.6273131439159
 10
156.8321749598085
 20
151.8219671565044
 10
156.8778472471986
 20
152.051577216586
 10
156.8321749598085
 20
152.2811872766676
 10
156.7021113198688
 20
152.4758412892562
 10
156.5074573072802
 20
152.6059049291959
 10
156.2778472471986
 20
152.651577216586
 10
156.048237187117
 20
152.6059049291959
 10
155.8535831745285
 20
152.4758412892562
 10
155.7235195345885
 20
152.2811872766676
 97
        0
 75
     0
 76
     1
 98
        0
  0
LINE
  5
10F
330
74
100
AcDbEntity
  8
A1E-----M5_______Rohbau
  6
Continuous
 62
     7
 48
1000.0
370
    20
100
AcDbLine
 10
162.4865725637505
 20
111.6279187906617
 30
0.0
 11
162.4866368666586
 21
100.8771560564294
 31
0.0
  0
CIRCLE
  5
110
330
74
100
AcDbEntity
  8
A1E-----M5_______Rohbau
  6
Continuous
 62
     7
 48
1000.0
370
    20
100
AcDbCircle
 10
162.4865689750057
 20
112.227918790651
 30
0.0
 40
0.6000000000000001
  0
HATCH
  5
111
330
74
100
AcDbEntity
  8
A1E-----M5_______Rohbau
  6
Continuous
 62
     7
370
    20
100
AcDbHatch
 10
0.0
 20
0.0
 30
0.0
210
0.0
220
0.0
230
1.0
  2
SOLID
 70
     1
 71
     0
 91
        1
 92
        3
 72
     0
 73
     1
 93
       16
 10
161.8865689750055
 20
112.227918790651
 10
161.9322412623958
 20
111.9983087305694
 10
162.0623049023355
 20
111.8036547179808
 10
162.2569589149241
 20
111.6735910780409
 10
162.4865689750057
 20
111.6279187906508
 10
162.7161790350873
 20
111.6735910780409
 10
162.9108330476759
 20
111.8036547179808
 10
163.0408966876156
 20
111.9983087305694
 10
163.0865689750056
 20
112.227918790651
 10
163.0408966876156
 20
112.4575288507326
 10
162.9108330476759
 20
112.6521828633211
 10
162.7161790350873
 20
112.7822465032609
 10
162.4865689750057
 20
112.8279187906509
 10
162.2569589149241
 20
112.7822465032609
 10
162.0623049023355
 20
112.6521828633211
 10
161.9322412623958
 20
112.4575288507326
 97
        0
 75
     0
 76
     1
 98
        0
  0
LINE
  5
112
330
74
100
AcDbEntity
  8
A1E-----M5_______Rohbau
  6
Continuous
 62
     7
 48
1000.0
370
    20
100
AcDbLine
 10
168.6952529826273
 20
110.987103050713
 30
0.0
 11
168.6953194272971
 21
100.8771560564294
 31
0.0
  0
CIRCLE
  5
113
330
74
100
AcDbEntity
  8
A1E-----M5_______Rohbau
  6
Continuous
 62
     7
 48
1000.0
370
    20
100
AcDbCircle
 10
168.6952490393028
 20
111.5871030507001
 30
0.0
 40
0.6000000000000001
  0
HATCH
  5
114
330
74
100
AcDbEntity
  8
A1E-----M5_______Rohbau
  6
Continuous
 62
     7
370
    20
100
AcDbHatch
 10
0.0
 20
0.0
 30
0.0
210
0.0
220
0.0
230
1.0
  2
SOLID
 70
     1
 71
     0
 91
        1
 92
        3
 72
     0
 73
     1
 93
       16
 10
168.0952490393028
 20
111.5871030507001
 10
168.1409213266929
 20
111.3574929906185
 10
168.2709849666326
 20
111.1628389780299
 10
168.4656389792212
 20
111.03277533809
 10
168.6952490393028
 20
110.9871030506999
 10
168.9248590993844
 20
111.03277533809
 10
169.1195131119729
 20
111.1628389780299
 10
169.2495767519127
 20
111.3574929906185
 10
169.2952490393027
 20
111.5871030507001
 10
169.2495767519127
 20
111.8167131107817
 10
169.1195131119729
 20
112.0113671233702
 10
168.9248590993844
 20
112.14143076331
 10
168.6952490393028
 20
112.1871030507
 10
168.4656389792212
 20
112.14143076331
 10
168.2709849666326
 20
112.0113671233702
 10
168.1409213266929
 20
111.8167131107817
 97
        0
 75
     0
 76
     1
 98
        0
  0
LINE
  5
115
330
74
100
AcDbEntity
  8
A1E-----M5_______Rohbau
  6
Continuous
 62
     7
 48
1000.0
370
    20
100
AcDbLine
 10
174.9039364070186
 20
110.187103050714
 30
0.0
 11
174.9040021418096
 21
100.8771560564294
 31
0.0
  0
CIRCLE
  5
116
330
74
100
AcDbEntity
  8
A1E-----M5_______Rohbau
  6
Continuous
 62
     7
 48
1000.0
370
    20
100
AcDbCircle
 10
174.9039321705954
 20
110.7871030506991
 30
0.0
 40
0.6000000000000001
  0
HATCH
  5
117
330
74
100
AcDbEntity
  8
A1E-----M5_______Rohbau
  6
Continuous
 62
     7
370
    20
100
AcDbHatch
 10
0.0
 20
0.0
 30
0.0
210
0.0
220
0.0
230
1.0
  2
SOLID
 70
     1
 71
     0
 91
        1
 92
        3
 72
     0
 73
     1
 93
       16
 10
174.3039321705955
 20
110.7871030506991
 10
174.3496044579855
 20
110.5574929906175
 10
174.4796680979252
 20
110.3628389780289
 10
174.6743221105138
 20
110.2327753380892
 10
174.9039321705954
 20
110.1871030506989
 10
175.133542230677
 20
110.2327753380892
 10
175.3281962432656
 20
110.3628389780289
 10
175.4582598832053
 20
110.5574929906175
 10
175.5039321705956
 20
110.7871030506991
 10
175.4582598832053
 20
111.0167131107807
 10
175.3281962432656
 20
111.2113671233692
 10
175.133542230677
 20
111.3414307633089
 10
174.9039321705954
 20
111.387103050699
 10
174.6743221105138
 20
111.3414307633089
 10
174.4796680979252
 20
111.2113671233692
 10
174.3496044579855
 20
111.0167131107807
 97
        0
 75
     0
 76
     1
 98
        0
  0
LINE
  5
118
330
74
100
AcDbEntity
  8
A1E-----M5_______Rohbau
  6
Continuous
 62
     7
 48
1000.0
370
    20
100
AcDbLine
 10
181.1127294428274
 20
110.1381124821592
 30
0.0
 11
181.1126977532582
 21
100.8771560564294
 31
0.0
  0
CIRCLE
  5
119
330
74
100
AcDbEntity
  8
A1E-----M5_______Rohbau
  6
Continuous
 62
     7
 48
1000.0
370
    20
100
AcDbCircle
 10
181.1127314959353
 20
110.7381124821556
 30
0.0
 40
0.6000000000000001
  0
HATCH
  5
11A
330
74
100
AcDbEntity
  8
A1E-----M5_______Rohbau
  6
Continuous
 62
     7
370
    20
100
AcDbHatch
 10
0.0
 20
0.0
 30
0.0
210
0.0
220
0.0
230
1.0
  2
SOLID
 70
     1
 71
     0
 91
        1
 92
        3
 72
     0
 73
     1
 93
       16
 10
180.5127314959352
 20
110.7381124821556
 10
180.5584037833252
 20
110.508502422074
 10
180.6884674232652
 20
110.3138484094854
 10
180.8831214358537
 20
110.1837847695457
 10
181.1127314959353
 20
110.1381124821557
 10
181.3423415560169
 20
110.1837847695457
 10
181.5369955686055
 20
110.3138484094854
 10
181.6670592085452
 20
110.508502422074
 10
181.7127314959353
 20
110.7381124821556
 10
181.6670592085452
 20
110.9677225422372
 10
181.5369955686055
 20
111.1623765548258
 10
181.3423415560169
 20
111.2924401947655
 10
181.1127314959353
 20
111.3381124821555
 10
180.8831214358537
 20
111.2924401947655
 10
180.6884674232652
 20
111.1623765548258
 10
180.5584037833252
 20
110.9677225422372
 97
        0
 75
     0
 76
     1
 98
        0
  0
LINE
  5
11B
330
74
100
AcDbEntity
  8
A1E-----M5_______Rohbau
  6
Continuous
 62
     7
 48
1000.0
370
    20
100
AcDbLine
 10
187.3213205378144
 20
108.4851931408353
 30
0.0
 11
187.3213694556974
 21
100.8771560564294
 31
0.0
  0
CIRCLE
  5
11C
330
74
100
AcDbEntity
  8
A1E-----M5_______Rohbau
  6
Continuous
 62
     7
 48
1000.0
370
    20
100
AcDbCircle
 10
187.3213166799559
 20
109.085193140823
 30
0.0
 40
0.6000000000000001
  0
HATCH
  5
11D
330
74
100
AcDbEntity
  8
A1E-----M5_______Rohbau
  6
Continuous
 62
     7
370
    20
100
AcDbHatch
 10
0.0
 20
0.0
 30
0.0
210
0.0
220
0.0
230
1.0
  2
SOLID
 70
     1
 71
     0
 91
        1
 92
        3
 72
     0
 73
     1
 93
       16
 10
186.7213166799559
 20
109.085193140823
 10
186.766988967346
 20
108.8555830807414
 10
186.8970526072857
 20
108.6609290681528
 10
187.0917066198743
 20
108.5308654282131
 10
187.3213166799559
 20
108.4851931408228
 10
187.5509267400375
 20
108.5308654282131
 10
187.745580752626
 20
108.6609290681528
 10
187.8756443925658
 20
108.8555830807414
 10
187.921316679956
 20
109.085193140823
 10
187.8756443925658
 20
109.3148032009046
 10
187.745580752626
 20
109.5094572134931
 10
187.5509267400375
 20
109.6395208534329
 10
187.3213166799559
 20
109.6851931408229
 10
187.0917066198743
 20
109.6395208534329
 10
186.8970526072857
 20
109.5094572134931
 10
186.766988967346
 20
109.3148032009046
 97
        0
 75
     0
 76
     1
 98
        0
  0
LINE
  5
11E
330
74
100
AcDbEntity
  8
04-00 Massivbau
  6
Continuous
 62
     7
 48
1000.0
370
    25
100
AcDbLine
 10
54.39045226282602
 20
188.3380166197564
 30
0.0
 11
142.3904593425953
 21
188.3380166197564
 31
0.0
  0
LINE
  5
11F
330
74
100
AcDbEntity
  8
A1E-----M5_______Rohbau
  6
Continuous
 62
     7
 48
1000.0
370
    20
100
AcDbLine
 10
150.069151819026
 20
186.2852946901641
 30
0.0
 11
150.0692781488258
 21
100.8771560564294
 31
0.0
  0
CIRCLE
  5
120
330
74
100
AcDbEntity
  8
A1E-----M5_______Rohbau
  6
Continuous
 62
     7
 48
1000.0
370
    20
100
AcDbCircle
 10
150.0691509315477
 20
186.8852946901636
 30
0.0
 40
0.6000000000000001
  0
HATCH
  5
121
330
74
100
AcDbEntity
  8
A1E-----M5_______Rohbau
  6
Continuous
 62
     7
370
    20
100
AcDbHatch
 10
0.0
 20
0.0
 30
0.0
210
0.0
220
0.0
230
1.0
  2
SOLID
 70
     1
 71
     0
 91
        1
 92
        3
 72
     0
 73
     1
 93
       16
 10
149.4691509315478
 20
186.8852946901636
 10
149.5148232189378
 20
186.655684630082
 10
149.6448868588776
 20
186.4610306174934
 10
149.8395408714661
 20
186.3309669775535
 10
150.0691509315477
 20
186.2852946901634
 10
150.2987609916293
 20
186.3309669775535
 10
150.4934150042179
 20
186.4610306174934
 10
150.6234786441576
 20
186.655684630082
 10
150.6691509315476
 20
186.8852946901636
 10
150.6234786441576
 20
187.1149047502452
 10
150.4934150042179
 20
187.3095587628337
 10
150.2987609916293
 20
187.4396224027735
 10
150.0691509315477
 20
187.4852946901635
 10
149.8395408714661
 20
187.4396224027735
 10
149.6448868588776
 20
187.3095587628337
 10
149.5148232189378
 20
187.1149047502452
 97
        0
 75
     0
 76
     1
 98
        0
  0
LINE
  5
122
330
74
100
AcDbEntity
  8
A1------T2_______Text_1_5
  6
Continuous
 62
   252
 48
1000.0
370
    80
100
AcDbLine
 10
189.9999999999991
 20
231.5629086884923
 30
0.0
 11
14.99999999999879
 21
231.5629086884923
 31
0.0
  0
LINE
  5
125
330
74
100
AcDbEntity
  8
08-00 Leitungen Rinnen Abläufe
  6
achsen
 62
     7
 48
1000.0
370
    25
100
AcDbLine
 10
86.03067306733148
 20
143.2793300728323
 30
0.0
 11
110.7502385380905
 21
143.2793300728323
 31
0.0
  0
LINE
  5
126
330
74
100
AcDbEntity
  8
08-00 Leitungen Rinnen Abläufe
  6
achsen
 62
     7
 48
1000.0
370
    25
100
AcDbLine
 10
98.39045580271066
 20
155.639112808212
 30
0.0
 11
98.39045580271066
 21
130.9195473374518
 31
0.0
  0
LINE
  5
127
330
74
100
AcDbEntity
  8
A1E-----M5_______Rohbau
  6
Continuous
 62
     7
 48
1000.0
370
    20
100
AcDbLine
 10
73.55581789597099
 20
119.0692049132878
 30
0.0
 11
73.55591245487858
 21
100.8771905577932
 31
0.0
  0
CIRCLE
  5
128
330
74
100
AcDbEntity
  8
A1E-----M5_______Rohbau
  6
Continuous
 62
     7
 48
1000.0
370
    20
100
AcDbCircle
 10
73.55581477727613
 20
119.6692049132797
 30
0.0
 40
0.6000000000000001
  0
HATCH
  5
129
330
74
100
AcDbEntity
  8
A1E-----M5_______Rohbau
  6
Continuous
 62
     7
370
    20
100
AcDbHatch
 10
0.0
 20
0.0
 30
0.0
210
0.0
220
0.0
230
1.0
  2
SOLID
 70
     1
 71
     0
 91
        1
 92
        3
 72
     0
 73
     1
 93
       16
 10
72.95581477727598
 20
119.6692049132797
 10
73.00148706466602
 20
119.4395948531981
 10
73.13155070460597
 20
119.2449408406095
 10
73.32620471719453
 20
119.1148772006696
 10
73.55581477727613
 20
119.0692049132795
 10
73.78542483735772
 20
119.1148772006696
 10
73.98007884994628
 20
119.2449408406095
 10
74.11014248988623
 20
119.4395948531981
 10
74.15581477727606
 20
119.6692049132797
 10
74.11014248988623
 20
119.8988149733613
 10
73.98007884994628
 20
120.0934689859499
 10
73.78542483735772
 20
120.2235326258896
 10
73.55581477727613
 20
120.2692049132796
 10
73.32620471719453
 20
120.2235326258896
 10
73.13155070460597
 20
120.0934689859499
 10
73.00148706466602
 20
119.8988149733613
 97
        0
 75
     0
 76
     1
 98
        0
  0
LINE
  5
12A
330
74
100
AcDbEntity
  8
04-00 Massivbau
  6
Continuous
 62
     7
 48
1000.0
370
    30
100
AcDbLine
 10
14.99999999999879
 20
185.5380243386759
 30
0.0
 11
189.9999997704909
 21
185.5380243386759
 31
0.0
  0
LINE
  5
12C
330
74
100
AcDbEntity
  8
A1E-----M5_______Rohbau
  6
STRICHLINIE_S4
 62
     7
 48
1000.0
370
    13
100
AcDbLine
 10
14.99999999999879
 20
111.5380722306538
 30
0.0
 11
189.9462873828888
 21
111.5380722306538
 31
0.0
  0
LINE
  5
12D
330
74
100
AcDbEntity
  8
A1E-----M5_______Rohbau
  6
Continuous
 62
     7
 48
1000.0
370
    25
100
AcDbLine
 10
14.99999999999879
 20
110.7380722306528
 30
0.0
 11
189.9462873828888
 21
110.7380722306528
 31
0.0
  0
LINE
  5
12E
330
74
100
AcDbEntity
  8
A1E-----M5_______Rohbau
  6
Continuous
 62
     7
 48
1000.0
370
    60
100
AcDbLine
 10
14.99999999999879
 20
188.3380166197564
 30
0.0
 11
54.39045226282602
 21
188.3380166197564
 31
0.0
  0
LINE
  5
12F
330
74
100
AcDbEntity
  8
04-00 Massivbau
  6
Continuous
 62
     7
 48
1000.0
370
    30
100
AcDbLine
 10
14.99999999999879
 20
113.5380722306534
 30
0.0
 11
189.9462873828888
 21
113.5380722306534
 31
0.0
  0
LINE
  5
130
330
74
100
AcDbEntity
  8
A1E-----M5_______Rohbau
  6
Continuous
 62
     7
 48
1000.0
370
    13
100
AcDbLine
 10
14.99999999999879
 20
108.5917517313433
 30
0.0
 11
15.95965342232408
 21
108.6413924750258
 31
0.0
  0
LINE
  5
131
330
74
100
AcDbEntity
  8
A1E-----M5_______Rohbau
  6
Continuous
 62
     7
 48
1000.0
370
    20
100
AcDbLine
 10
79.76446953458449
 20
123.2348700120729
 30
0.0
 11
70.81471272946405
 21
132.1846268171931
 31
0.0
  0
CIRCLE
  5
132
330
74
100
AcDbEntity
  8
A1E-----M5_______Rohbau
  6
Continuous
 62
     7
 48
1000.0
370
    20
100
AcDbCircle
 10
70.39044866075206
 20
132.6088908859051
 30
0.0
 40
0.6000000000000001
  0
HATCH
  5
133
330
74
100
AcDbEntity
  8
A1E-----M5_______Rohbau
  6
Continuous
 62
     7
370
    20
100
AcDbHatch
 10
0.0
 20
0.0
 30
0.0
210
0.0
220
0.0
230
1.0
  2
SOLID
 70
     1
 71
     0
 91
        1
 92
        3
 72
     0
 73
     1
 93
       16
 10
69.79044866075212
 20
132.6088908859051
 10
69.83612094814195
 20
132.3792808258235
 10
69.9661845880819
 20
132.184626813235
 10
70.16083860067046
 20
132.0545631732952
 10
70.39044866075206
 20
132.0088908859049
 10
70.62005872083365
 20
132.0545631732952
 10
70.81471273342221
 20
132.184626813235
 10
70.94477637336216
 20
132.3792808258235
 10
70.990448660752
 20
132.6088908859051
 10
70.94477637336216
 20
132.8385009459867
 10
70.81471273342221
 20
133.0331549585753
 10
70.62005872083365
 20
133.163218598515
 10
70.39044866075206
 20
133.208890885905
 10
70.16083860067046
 20
133.163218598515
 10
69.9661845880819
 20
133.0331549585753
 10
69.83612094814195
 20
132.8385009459867
 97
        0
 75
     0
 76
     1
 98
        0
  0
LINE
  5
134
330
74
100
AcDbEntity
  8
A1------T2_______Text_1_5
  6
Continuous
 62
     7
 48
1000.0
370
    20
100
AcDbLine
 10
48.89044872353598
 20
80.66642247729683
 30
0.0
 11
50.39044872353604
 21
80.66642247729683
 31
0.0
  0
LINE
  5
135
330
74
100
AcDbEntity
  8
A1------T2_______Text_1_5
  6
Continuous
 62
     7
 48
1000.0
370
    20
100
AcDbLine
 10
50.39044872353604
 20
80.66642247729683
 30
0.0
 11
70.39044704950226
 21
80.66642247729683
 31
0.0
  0
LINE
  5
136
330
74
100
AcDbEntity
  8
A1------T2_______Text_1_5
  6
Continuous
 62
     7
 48
1000.0
370
    60
100
AcDbLine
 10
51.39044872353616
 20
81.6664224772967
 30
0.0
 11
49.39044872353593
 21
79.66642247729672
 31
0.0
  0
LINE
  5
137
330
74
100
AcDbEntity
  8
A1------T2_______Text_1_5
  6
Continuous
 62
     7
 48
1000.0
370
    20
100
AcDbLine
 10
50.39044872353604
 20
78.79142247729676
 30
0.0
 11
50.39044872353604
 21
92.06953701977993
 31
0.0
  0
LINE
  5
138
330
74
100
AcDbEntity
  8
A1------T2_______Text_1_5
  6
Continuous
 62
     7
 48
1000.0
370
    20
100
AcDbLine
 10
70.39044704950226
 20
78.79142247729676
 30
0.0
 11
70.39044704950226
 21
92.06953701977993
 31
0.0
  0
LINE
  5
139
330
74
100
AcDbEntity
  8
A1------T2_______Text_1_5
  6
Continuous
 62
     7
 48
1000.0
370
    20
100
AcDbLine
 10
70.39044704950226
 20
80.66642247729683
 30
0.0
 11
126.3904470495021
 21
80.66642247729683
 31
0.0
  0
LINE
  5
13A
330
74
100
AcDbEntity
  8
A1------T2_______Text_1_5
  6
Continuous
 62
     7
 48
1000.0
370
    60
100
AcDbLine
 10
71.39044704950237
 20
81.6664224772967
 30
0.0
 11
69.39044704950214
 21
79.66642247729672
 31
0.0
  0
LINE
  5
13B
330
74
100
AcDbEntity
  8
A1------T2_______Text_1_5
  6
Continuous
 62
     7
 48
1000.0
370
    20
100
AcDbLine
 10
126.3904470495021
 20
78.79142247729676
 30
0.0
 11
126.3904470495021
 21
92.06953701977993
 31
0.0
  0
LINE
  5
13C
330
74
100
AcDbEntity
  8
A1------T2_______Text_1_5
  6
Continuous
 62
     7
 48
1000.0
370
    20
100
AcDbLine
 10
126.3904470495021
 20
80.66642247729683
 30
0.0
 11
146.3904481759559
 21
80.66642247729683
 31
0.0
  0
LINE
  5
13D
330
74
100
AcDbEntity
  8
A1------T2_______Text_1_5
  6
Continuous
 62
     7
 48
1000.0
370
    60
100
AcDbLine
 10
127.3904470495022
 20
81.6664224772967
 30
0.0
 11
125.3904470495022
 21
79.66642247729672
 31
0.0
  0
LINE
  5
13E
330
74
100
AcDbEntity
  8
A1------T2_______Text_1_5
  6
Continuous
 62
     7
 48
1000.0
370
    60
100
AcDbLine
 10
145.3904481759558
 20
79.66642247729672
 30
0.0
 11
147.3904481759558
 21
81.6664224772967
 31
0.0
  0
LINE
  5
13F
330
74
100
AcDbEntity
  8
A1------T2_______Text_1_5
  6
Continuous
 62
     7
 48
1000.0
370
    20
100
AcDbLine
 10
146.3904481759559
 20
80.66642247729683
 30
0.0
 11
147.890448175956
 21
80.66642247729683
 31
0.0
  0
LINE
  5
140
330
74
100
AcDbEntity
  8
A1------T2_______Text_1_5
  6
Continuous
 62
     7
 48
1000.0
370
    20
100
AcDbLine
 10
146.3904481759559
 20
78.79142247729676
 30
0.0
 11
146.3904481759559
 21
92.06953701977993
 31
0.0
  0
MTEXT
  5
142
102
{ACAD_XDICTIONARY
360
18E
102
}
330
74
100
AcDbEntity
  8
A1------T2_______Text_1_5
  6
Continuous
 62
     7
370
    25
100
AcDbMText
 10
52.54555558525742
 20
82.74941015330639
 30
0.0
 40
2.5
 41
19.81475
 71
     7
 72
     1
  1
{\A1;mind. 50 mm}
  7
ERSTELLTER_STIL_1
 73
     1
 44
1.0
  0
MTEXT
  5
143
102
{ACAD_XDICTIONARY
360
190
102
}
330
74
100
AcDbEntity
  8
A1------T2_______Text_1_5
  6
Continuous
 62
     7
370
    25
100
AcDbMText
 10
92.50734756636558
 20
82.74941015330639
 30
0.0
 40
2.5
 41
12.38505
 71
     7
 72
     1
  1
{\A1;140 mm}
  7
ERSTELLTER_STIL_1
 73
     1
 44
1.0
  0
MTEXT
  5
144
102
{ACAD_XDICTIONARY
360
192
102
}
330
74
100
AcDbEntity
  8
A1------T2_______Text_1_5
  6
Continuous
 62
     7
370
    25
100
AcDbMText
 10
124.8782559765968
 20
82.74941015330639
 30
0.0
 40
2.5
 41
19.81475
 71
     7
 72
     1
  1
{\A1;mind. 50 mm}
  7
ERSTELLTER_STIL_1
 73
     1
 44
1.0
  0
LINE
  5
145
330
74
100
AcDbEntity
  8
A1------T2_______Text_1_5
  6
Continuous
 62
     7
 48
1000.0
370
    20
100
AcDbLine
 10
38.10932535332224
 20
112.0380722306533
 30
0.0
 11
38.10932535332224
 21
113.5380722306534
 31
0.0
  0
LINE
  5
146
330
74
100
AcDbEntity
  8
A1------T2_______Text_1_5
  6
Continuous
 62
     7
 48
1000.0
370
    20
100
AcDbLine
 10
38.10932535332224
 20
113.5380722306534
 30
0.0
 11
38.10932535332224
 21
121.5380243386761
 31
0.0
  0
LINE
  5
147
330
74
100
AcDbEntity
  8
A1------T2_______Text_1_5
  6
Continuous
 62
     7
 48
1000.0
370
    60
100
AcDbLine
 10
37.10932535332213
 20
114.5380722306535
 30
0.0
 11
39.10932535332257
 21
112.5380722306535
 31
0.0
  0
LINE
  5
148
330
74
100
AcDbEntity
  8
A1------T2_______Text_1_5
  6
Continuous
 62
     7
 48
1000.0
370
    60
100
AcDbLine
 10
39.10932535332257
 20
120.5380243386762
 30
0.0
 11
37.10932535332213
 21
122.538024338676
 31
0.0
  0
LINE
  5
149
330
74
100
AcDbEntity
  8
A1------T2_______Text_1_5
  6
Continuous
 62
     7
 48
1000.0
370
    20
100
AcDbLine
 10
38.10932535332224
 20
121.5380243386761
 30
0.0
 11
38.10932535332224
 21
123.0380243386762
 31
0.0
  0
LINE
  5
14A
330
74
100
AcDbEntity
  8
A1------T2_______Text_1_5
  6
Continuous
 62
     7
 48
1000.0
370
    20
100
AcDbLine
 10
45.17750621785632
 20
113.5380722306534
 30
0.0
 11
36.23432535332216
 21
113.5380722306534
 31
0.0
  0
LINE
  5
14B
330
74
100
AcDbEntity
  8
A1------T2_______Text_1_5
  6
Continuous
 62
     7
 48
1000.0
370
    20
100
AcDbLine
 10
45.17750621785632
 20
121.5380243386761
 30
0.0
 11
36.23432535332216
 21
121.5380243386761
 31
0.0
  0
MTEXT
  5
14C
102
{ACAD_XDICTIONARY
360
194
102
}
330
74
100
AcDbEntity
  8
A1------T2_______Text_1_5
  6
Continuous
 62
     7
370
    25
100
AcDbMText
 10
37.60932532724514
 20
123.7515179590507
 30
0.0
 40
2.5
 41
19.81475
 71
     7
 72
     1
  1
{\A1;mind. 20 mm}
  7
ERSTELLTER_STIL_1
 11
6.123233995736766E-17
 21
1.0
 31
0.0
 73
     1
 44
1.0
  0
MTEXT
  5
14D
102
{ACAD_XDICTIONARY
360
196
102
}
330
74
100
AcDbEntity
  8
A1------T2_______Text_1_5
  6
Continuous
 62
     7
370
    25
100
AcDbMText
 10
135.4056391840206
 20
54.7257020401236
 30
0.0
 40
2.2
 41
0.0
 71
     4
 72
     1
  1
{\A1;1\U+22127}
  7
ERSTELLTER_STIL_1
 73
     1
 44
1.0
  0
MTEXT
  5
14E
102
{ACAD_XDICTIONARY
360
198
102
}
330
74
100
AcDbEntity
  8
A1------T2_______Text_1_5
  6
Continuous
 62
     7
370
    25
100
AcDbMText
 10
145.0749956610924
 20
54.60537848628242
 30
0.0
 40
2.2
 41
0.0
 71
     4
 72
     1
  1
{\A1;RÖFIX Systemaufbau}
  7
ERSTELLTER_STIL_1
 73
     1
 44
1.0
  0
MTEXT
  5
14F
102
{ACAD_XDICTIONARY
360
19A
102
}
330
74
100
AcDbEntity
  8
A1------T2_______Text_1_5
  6
Continuous
 62
     7
370
    25
100
AcDbMText
 10
145.0749956610924
 20
44.74823731787501
 30
0.0
 40
2.2
 41
0.0
 71
     4
 72
     1
  1
{\A1;Kleben mit RÖFIX Systemkleber}
  7
ERSTELLTER_STIL_1
 73
     1
 44
1.0
  0
MTEXT
  5
150
102
{ACAD_XDICTIONARY
360
19C
102
}
330
74
100
AcDbEntity
  8
A1------T2_______Text_1_5
  6
Continuous
 62
     7
370
    25
100
AcDbMText
 10
136.8843318125013
 20
44.850135734445
 30
0.0
 40
2.2
 41
0.0
 71
     4
 72
     1
  1
{\A1;\W1.09140x;68}
  7
ERSTELLTER_STIL_1
 73
     1
 44
1.0
  0
MTEXT
  5
151
102
{ACAD_XDICTIONARY
360
19E
102
}
330
74
100
AcDbEntity
  8
A1------T2_______Text_1_5
  6
Continuous
 62
     7
370
    25
100
AcDbMText
 10
145.0749956610924
 20
39.62253762896711
 30
0.0
 40
2.2
 41
0.0
 71
     4
 72
     1
  1
{\A1;Rohrummantelung Neopren 10 mm}
  7
ERSTELLTER_STIL_1
 73
     1
 44
1.0
  0
MTEXT
  5
152
102
{ACAD_XDICTIONARY
360
1A0
102
}
330
74
100
AcDbEntity
  8
A1------T2_______Text_1_5
  6
Continuous
 62
     7
370
    25
100
AcDbMText
 10
136.8843318125013
 20
39.92157312520288
 30
0.0
 40
2.2
 41
0.0
 71
     4
 72
     1
  1
{\A1;\W1.09140x;69}
  7
ERSTELLTER_STIL_1
 73
     1
 44
1.0
  0
MTEXT
  5
154
102
{ACAD_XDICTIONARY
360
1A2
102
}
330
74
100
AcDbEntity
  8
A1------T2_______Text_1_5
  6
Continuous
 62
     7
370
    25
100
AcDbMText
 10
145.0749956610924
 20
32.76175565055404
 30
0.0
 40
2.2
 41
0.0
 71
     4
 72
     1
  1
{\A1;Fallrohr Geberit }{\A1;\Ftxt.shx;Ø }{\A1;90 mm}\P{\A1;\fArial|b1|i0|c0|p34;(keine Rohrschellen)}
  7
ERSTELLTER_STIL_1
 73
     1
 44
0.9731391585419901
  0
MTEXT
  5
155
102
{ACAD_XDICTIONARY
360
1A4
102
}
330
74
100
AcDbEntity
  8
A1------T2_______Text_1_5
  6
Continuous
 62
     7
370
    25
100
AcDbMText
 10
136.8843318125013
 20
34.99301051596108
 30
0.0
 40
2.2
 41
0.0
 71
     4
 72
     1
  1
{\A1;\W1.09140x;70}
  7
ERSTELLTER_STIL_1
 73
     1
 44
1.0
  0
MTEXT
  5
156
102
{ACAD_XDICTIONARY
360
1A6
102
}
330
74
100
AcDbEntity
  8
A1------T2_______Text_1_5
  6
Continuous
 62
     7
370
    25
100
AcDbMText
 10
145.0749956610924
 20
49.69444185532491
 30
0.0
 40
2.2
 41
0.0
 71
     4
 72
     1
  1
{\A1;Beschichten mit RÖFIX Optiflex{\A1;\H0.66000x;\S® ^  ;} }
  7
ERSTELLTER_STIL_1
 73
     1
 44
1.0
  0
MTEXT
  5
157
102
{ACAD_XDICTIONARY
360
1A8
102
}
330
74
100
AcDbEntity
  8
A1------T2_______Text_1_5
  6
Continuous
 62
     7
370
    25
100
AcDbMText
 10
136.9503170212809
 20
49.79707268766197
 30
0.0
 40
2.2
 41
0.0
 71
     4
 72
     1
  1
{\A1;\W1.09140x;11}
  7
ERSTELLTER_STIL_1
 73
     1
 44
1.0
  0
MTEXT
  5
158
102
{ACAD_XDICTIONARY
360
1AA
102
}
330
74
100
AcDbEntity
  8
A1------T2_______Text_1_5
  6
Continuous
 62
     7
370
    25
100
AcDbMText
 10
145.0749956610924
 20
25.83679147589228
 30
0.0
 40
2.2
 41
0.0
 71
     4
 72
     1
  1
{\A1;Polyurethanschaum}
  7
ERSTELLTER_STIL_1
 73
     1
 44
1.0
  0
MTEXT
  5
159
102
{ACAD_XDICTIONARY
360
1AC
102
}
330
74
100
AcDbEntity
  8
A1------T2_______Text_1_5
  6
Continuous
 62
     7
370
    25
100
AcDbMText
 10
136.9503156532459
 20
26.15424578833612
 30
0.0
 40
2.2
 41
0.0
 71
     4
 72
     1
  1
{\A1;\W1.09140x;71}
  7
ERSTELLTER_STIL_1
 73
     1
 44
1.0
  0
MTEXT
  5
15A
102
{ACAD_XDICTIONARY
360
1AE
102
}
330
74
100
AcDbEntity
  8
A1------T2_______Text_1_5
  6
Continuous
 62
     7
370
    25
100
AcDbMText
 10
78.0707250520749
 20
98.0041970462998
 30
0.0
 40
2.200000000000001
 41
0.0
 71
     4
 72
     1
  1
{\A1;11}
  7
ERSTELLTER_STIL_1
 73
     1
 44
1.0
  0
MTEXT
  5
15B
102
{ACAD_XDICTIONARY
360
1B0
102
}
330
74
100
AcDbEntity
  8
A1------T2_______Text_1_5
  6
Continuous
 62
     7
370
    25
100
AcDbMText
 10
84.28978073675464
 20
97.91549496517314
 30
0.0
 40
2.200000000000001
 41
0.0
 71
     4
 72
     1
  1
{\A1;71}
  7
ERSTELLTER_STIL_1
 73
     1
 44
1.0
  0
MTEXT
  5
15C
102
{ACAD_XDICTIONARY
360
1B2
102
}
330
74
100
AcDbEntity
  8
A1------T2_______Text_1_5
  6
Continuous
 62
     7
370
    25
100
AcDbMText
 10
90.6658951564141
 20
97.98569713042487
 30
0.0
 40
2.2
 41
0.0
 71
     4
 72
     1
  1
{\A1;69}
  7
ERSTELLTER_STIL_1
 73
     1
 44
1.0
  0
MTEXT
  5
15D
102
{ACAD_XDICTIONARY
360
1B4
102
}
330
74
100
AcDbEntity
  8
A1------T2_______Text_1_5
  6
Continuous
 62
     7
370
    25
100
AcDbMText
 10
96.15014300472957
 20
97.90381881744207
 30
0.0
 40
2.2
 41
0.0
 71
     4
 72
     1
  1
{\A1;70}
  7
ERSTELLTER_STIL_1
 73
     1
 44
1.0
  0
MTEXT
  5
15E
102
{ACAD_XDICTIONARY
360
1B6
102
}
330
74
100
AcDbEntity
  8
A1------T2_______Text_1_5
  6
Continuous
 62
     7
370
    25
100
AcDbMText
 10
155.4310379681323
 20
97.92227537742768
 30
0.0
 40
2.2
 41
0.0
 71
     4
 72
     1
  1
{\A1;2}
  7
ERSTELLTER_STIL_1
 73
     1
 44
1.0
  0
MTEXT
  5
15F
102
{ACAD_XDICTIONARY
360
1B8
102
}
330
74
100
AcDbEntity
  8
A1------T2_______Text_1_5
  6
Continuous
 62
     7
370
    25
100
AcDbMText
 10
161.6397212535261
 20
97.8144632055882
 30
0.0
 40
2.2
 41
0.0
 71
     4
 72
     1
  1
{\A1;3}
  7
ERSTELLTER_STIL_1
 73
     1
 44
1.0
  0
MTEXT
  5
160
102
{ACAD_XDICTIONARY
360
1BA
102
}
330
74
100
AcDbEntity
  8
A1------T2_______Text_1_5
  6
Continuous
 62
     7
370
    25
100
AcDbMText
 10
167.8484045389197
 20
97.92229166251651
 30
0.0
 40
2.2
 41
0.0
 71
     4
 72
     1
  1
{\A1;4}
  7
ERSTELLTER_STIL_1
 73
     1
 44
1.0
  0
MTEXT
  5
161
102
{ACAD_XDICTIONARY
360
1BC
102
}
330
74
100
AcDbEntity
  8
A1------T2_______Text_1_5
  6
Continuous
 62
     7
370
    25
100
AcDbMText
 10
174.0570878243135
 20
97.8220210951322
 30
0.0
 40
2.2
 41
0.0
 71
     4
 72
     1
  1
{\A1;5}
  7
ERSTELLTER_STIL_1
 73
     1
 44
1.0
  0
MTEXT
  5
162
102
{ACAD_XDICTIONARY
360
1BE
102
}
330
74
100
AcDbEntity
  8
A1------T2_______Text_1_5
  6
Continuous
 62
     7
370
    25
100
AcDbMText
 10
180.2657711097073
 20
97.8220210951322
 30
0.0
 40
2.2
 41
0.0
 71
     4
 72
     1
  1
{\A1;6}
  7
ERSTELLTER_STIL_1
 73
     1
 44
1.0
  0
MTEXT
  5
163
102
{ACAD_XDICTIONARY
360
1C0
102
}
330
74
100
AcDbEntity
  8
A1------T2_______Text_1_5
  6
Continuous
 62
     7
370
    25
100
AcDbMText
 10
186.4744543951011
 20
97.92229166251651
 30
0.0
 40
2.2
 41
0.0
 71
     4
 72
     1
  1
{\A1;7}
  7
ERSTELLTER_STIL_1
 73
     1
 44
1.0
  0
MTEXT
  5
164
102
{ACAD_XDICTIONARY
360
1C2
102
}
330
74
100
AcDbEntity
  8
A1------T2_______Text_1_5
  6
Continuous
 62
     7
370
    25
100
AcDbMText
 10
149.2223546827385
 20
97.92227537742768
 30
0.0
 40
2.2
 41
0.0
 71
     4
 72
     1
  1
{\A1;1}
  7
ERSTELLTER_STIL_1
 73
     1
 44
1.0
  0
LINE
  5
165
330
74
100
AcDbEntity
  8
A1------T2_______Text_1_5
  6
Continuous
 62
   255
 48
1000.0
370
     5
100
AcDbLine
 10
14.99999999999879
 20
246.0538635803866
 30
0.0
 11
121.7916666666656
 21
246.0538635803866
 31
0.0
  0
LINE
  5
166
330
74
100
AcDbEntity
  8
A1------T2_______Text_1_5
  6
Continuous
 62
   255
 48
1000.0
370
     5
100
AcDbLine
 10
121.7916666666656
 20
246.0538635803866
 30
0.0
 11
121.7916666666656
 21
251.5831378742528
 31
0.0
  0
LINE
  5
167
330
74
100
AcDbEntity
  8
A1------T2_______Text_1_5
  6
Continuous
 62
   255
 48
1000.0
370
     5
100
AcDbLine
 10
121.7916666666656
 20
251.5831378742528
 30
0.0
 11
14.99999999999879
 21
251.5831378742528
 31
0.0
  0
LINE
  5
168
330
74
100
AcDbEntity
  8
A1------T2_______Text_1_5
  6
Continuous
 62
   255
 48
1000.0
370
     5
100
AcDbLine
 10
14.99999999999879
 20
251.5831378742528
 30
0.0
 11
14.99999999999879
 21
246.0538635803866
 31
0.0
  0
MTEXT
  5
169
102
{ACAD_XDICTIONARY
360
1C4
102
}
330
74
100
AcDbEntity
  8
A1------T2_______Text_1_5
  6
Continuous
 62
     7
370
    25
100
AcDbMText
 10
14.99999999999879
 20
249.0599085182342
 30
0.0
 40
3.999897337962963
 41
0.0
 71
     4
 72
     1
  1
{\A1;\W0.93383x;L. Sonderl}{\A1;\fArial|b0|i0|c0|p0;\W0.93383x;ö}{\A1;\W0.93383x;sung Fallrohr}
 73
     1
 44
1.0
  0
LINE
  5
16A
330
74
100
AcDbEntity
  8
A1------T2_______Text_1_5
  6
Continuous
 62
   255
 48
1000.0
370
     5
100
AcDbLine
 10
14.99999999999879
 20
233.1391472200215
 30
0.0
 11
192.7597883780614
 21
233.1391472200215
 31
0.0
  0
LINE
  5
16B
330
74
100
AcDbEntity
  8
A1------T2_______Text_1_5
  6
Continuous
 62
   255
 48
1000.0
370
     5
100
AcDbLine
 10
192.7597883780614
 20
233.1391472200215
 30
0.0
 11
192.7597883780614
 21
241.3217984866156
 31
0.0
  0
LINE
  5
16C
330
74
100
AcDbEntity
  8
A1------T2_______Text_1_5
  6
Continuous
 62
   255
 48
1000.0
370
     5
100
AcDbLine
 10
192.7597883780614
 20
241.3217984866156
 30
0.0
 11
14.99999999999879
 21
241.3217984866156
 31
0.0
  0
LINE
  5
16D
330
74
100
AcDbEntity
  8
A1------T2_______Text_1_5
  6
Continuous
 62
   255
 48
1000.0
370
     5
100
AcDbLine
 10
14.99999999999879
 20
241.3217984866156
 30
0.0
 11
14.99999999999879
 21
233.1391472200215
 31
0.0
  0
MTEXT
  5
16E
102
{ACAD_XDICTIONARY
360
1C6
102
}
330
74
100
AcDbEntity
  8
A1------T2_______Text_1_5
  6
Continuous
 62
     7
370
    25
100
AcDbMText
 10
14.99999999999879
 20
237.4394016116156
 30
0.0
 40
2.999999999999997
 41
0.0
 71
     4
 72
     1
  3
{\A1;\W0.93383x;L.1^I }{\A1;\H1.00004x;\W0.93383x;Fallrohr }{\A1;\H1.00000x;\W0.93383x;Ø}{\A1;\H1.00004x;\W0.93383x; 90 mm in EPS Aussenw}{\A1;\fArial|b0|i0|c0|p0;\H1.00004x;\W0.93383x;ä}{\A1;\H1.00004x;\W0.93383x;rmed}{\A1;\fArial|b0|i0|c0|p0;\H1.00
  3
004x;\W0.93383x;ä}{\A1;\H1.00004x;\W0.93383x;mmsystem}\P{\A1;\H1.00004x;\W0.93383x;           }{\A1;\H0.93333x;\W0.93383x; (Installationen in der D}{\A1;\fArial|b0|i0|c0|p0;\H0.93333x;\W0.93383x;ä}{\A1;\H0.93333x;\W0.93383x;mmebene sind Notl}{\A1;\f
  1
Arial|b0|i0|c0|p0;\H0.93333x;\W0.93383x;ö}{\A1;\H0.93333x;\W0.93383x;sungen, m}{\A1;\fArial|b0|i0|c0|p0;\H0.93333x;\W0.93383x;ü}{\A1;\H0.93333x;\W0.93383x;ssen Bauphysikalisch berechnet werden.}
 73
     1
 44
0.7397885616449723
  0
LINE
  5
16F
330
74
100
AcDbEntity
  8
A1------T2_______Text_1_5
  6
Continuous
 62
   255
 48
1000.0
370
     5
100
AcDbLine
 10
14.99999999999879
 20
224.5676610519176
 30
0.0
 11
105.887033423292
 21
224.5676610519176
 31
0.0
  0
LINE
  5
170
330
74
100
AcDbEntity
  8
A1------T2_______Text_1_5
  6
Continuous
 62
   255
 48
1000.0
370
     5
100
AcDbLine
 10
105.887033423292
 20
224.5676610519176
 30
0.0
 11
105.887033423292
 21
228.0236846701862
 31
0.0
  0
LINE
  5
171
330
74
100
AcDbEntity
  8
A1------T2_______Text_1_5
  6
Continuous
 62
   255
 48
1000.0
370
     5
100
AcDbLine
 10
105.887033423292
 20
228.0236846701862
 30
0.0
 11
14.99999999999879
 21
228.0236846701862
 31
0.0
  0
LINE
  5
172
330
74
100
AcDbEntity
  8
A1------T2_______Text_1_5
  6
Continuous
 62
   255
 48
1000.0
370
     5
100
AcDbLine
 10
14.99999999999879
 20
228.0236846701862
 30
0.0
 11
14.99999999999879
 21
224.5676610519176
 31
0.0
  0
MTEXT
  5
173
102
{ACAD_XDICTIONARY
360
1C8
102
}
330
74
100
AcDbEntity
  8
A1------T2_______Text_1_5
  6
Continuous
 62
     7
370
    25
100
AcDbMText
 10
14.99999999999879
 20
226.2792016666075
 30
0.0
 40
2.50009201388889
 41
0.0
 71
     4
 72
     1
  1
{\A1;\W0.93383x;Datum 08.07.2019}
 73
     1
 44
1.0
  0
MTEXT
  5
174
102
{ACAD_XDICTIONARY
360
1CA
102
}
330
74
100
AcDbEntity
  8
A1------T2_______Text_1_5
  6
Continuous
 62
     7
370
    25
100
AcDbMText
 10
97.84827598650935
 20
175.1946647937868
 30
0.0
 40
2.2
 41
0.0
 71
     5
 72
     1
  1
{\A1;PUR-Dämmplatte \U+2137 0.023 W/mK}
  7
ERSTELLTER_STIL_1
 73
     1
 44
1.0
  0
MTEXT
  5
175
102
{ACAD_XDICTIONARY
360
1CC
102
}
330
74
100
AcDbEntity
  8
A1------T2_______Text_1_5
  6
Continuous
 62
     7
370
    25
100
AcDbMText
 10
98.39045580271055
 20
191.5867728214188
 30
0.0
 40
2.2
 41
0.0
 71
     5
 72
     1
  1
{\A1;Einlage XPS gemäss Bauphysiker}
  7
ERSTELLTER_STIL_1
 73
     1
 44
1.0
  0
MTEXT
  5
176
102
{ACAD_XDICTIONARY
360
1CE
102
}
330
74
100
AcDbEntity
  8
A1------T2_______Text_1_5
  6
Continuous
 62
     7
370
    25
100
AcDbMText
 10
71.86206248887284
 20
97.9857482378255
 30
0.0
 40
2.200000000000001
 41
0.0
 71
     4
 72
     1
  1
{\A1;68}
  7
ERSTELLTER_STIL_1
 73
     1
 44
1.0
  0
MTEXT
  5
178
102
{ACAD_XDICTIONARY
360
1D0
102
}
330
74
100
AcDbEntity
  8
A1------T2_______Text_1_5
  6
Continuous
 62
     7
370
    25
100
AcDbMText
 10
121.4354047612258
 20
116.0215128560294
 30
0.0
 40
2.200120659722222
 41
0.0
 71
     5
 72
     1
  1
{\A1;EPS-Dämmplatte }{\A1;\fLucida Sans Unicode|b0|i0|c0|p34;\H1.02857x;\U+2137}{\A1;\H1.00000x; 0.030 W/mK}
  7
ERSTELLTER_STIL_1
 73
     1
 44
1.0
  0
LINE
  5
179
330
74
100
AcDbEntity
  8
A1E-----M5_______Rohbau
  6
Continuous
 62
     7
 48
1000.0
370
    20
100
AcDbLine
 10
79.76446953458449
 20
123.2348700120729
 30
0.0
 11
79.76457501808065
 21
100.877220898747
 31
0.0
  0
ENDBLK
  5
76
330
74
100
AcDbEntity
  8
0
100
AcDbBlockEnd
  0
BLOCK
  5
17F
330
17E
100
AcDbEntity
  8
0
100
AcDbBlockBegin
  2
02.5 44. Detail L.1_STORY_MARKER
 70
     0
 10
0.0
 20
0.0
 30
0.0
  3
02.5 44. Detail L.1_STORY_MARKER
  1

  0
ENDBLK
  5
180
330
17E
100
AcDbEntity
  8
0
100
AcDbBlockEnd
  0
ENDSEC
  0
SECTION
  2
ENTITIES
  0
VIEWPORT
  5
6E
102
{ACAD_XDICTIONARY
360
18C
102
}
330
1B
100
AcDbEntity
 67
     1
  8
0
  6
Continuous
370
     0
100
AcDbViewport
 10
105.0
 20
148.5
 30
0.0
 40
0.252
 41
0.3564
 68
     1
 69
     1
 12
105.0
 22
148.5
 13
0.0
 23
0.0
 14
0.5
 24
0.5
 15
0.0
 25
0.0
 16
0.0
 26
0.0
 36
1.0
 17
0.0
 27
0.0
 37
0.0
 42
50.0
 43
0.0
 44
0.0
 45
0.3564
 50
0.0
 51
0.0
 72
   100
 90
   557152
  1

281
     0
 71
     1
 74
     0
110
0.0
120
0.0
130
0.0
111
1.0
121
0.0
131
0.0
112
0.0
122
1.0
132
0.0
 79
     0
146
0.0
  0
LINE
  5
6F
330
1B
100
AcDbEntity
 67
     1
  8
FORMAT
  6
Continuous
 62
     7
 48
1000.0
370
    13
100
AcDbLine
 10
15.0
 20
215.0
 30
0.0
 11
190.0
 21
215.0
 31
0.0
  0
LINE
  5
71
330
1B
100
AcDbEntity
 67
     1
  8
FORMAT
  6
Continuous
 62
     7
 48
1000.0
370
    13
100
AcDbLine
 10
190.0
 20
215.0
 30
0.0
 11
190.0
 21
25.0
 31
0.0
  0
LINE
  5
72
330
1B
100
AcDbEntity
 67
     1
  8
FORMAT
  6
Continuous
 62
     7
 48
1000.0
370
    13
100
AcDbLine
 10
190.0
 20
25.0
 30
0.0
 11
15.0
 21
25.0
 31
0.0
  0
LINE
  5
73
330
1B
100
AcDbEntity
 67
     1
  8
FORMAT
  6
Continuous
 62
     7
 48
1000.0
370
    13
100
AcDbLine
 10
15.0
 20
25.0
 30
0.0
 11
15.0
 21
215.0
 31
0.0
  0
INSERT
  5
17A
102
{ACAD_XDICTIONARY
360
17B
102
}
330
1B
100
AcDbEntity
 67
     1
  8
0
  6
Continuous
 62
     1
 48
1000.0
370
    35
100
AcDbBlockReference
  2
Zeichnung_1_1
 10
1688.024586529066
 20
1652.125455953611
 30
0.0
  0
ENDSEC
  0
SECTION
  2
OBJECTS
  0
DICTIONARY
  5
C
330
0
100
AcDbDictionary
281
     1
  3
ACAD_GROUP
350
D
  3
ACAD_LAYOUT
350
1A
  3
ACAD_MATERIAL
350
43
  3
ACAD_MLEADERSTYLE
350
6B
  3
ACAD_MLINESTYLE
350
17
  3
ACAD_PLOTSETTINGS
350
19
  3
ACAD_PLOTSTYLENAME
350
E
  3
ACAD_SCALELIST
350
47
  3
ACAD_TABLESTYLE
350
69
  3
ACAD_VISUALSTYLE
350
2A
  3
AcDbVariableDictionary
350
184
  3
ACDB_RECOMPOSE_DATA
350
20F
  3
WATERMARKS
350
182
  0
DICTIONARY
  5
1D2
330
8
100
AcDbDictionary
280
     1
281
     1
  3
ACAD_XREC_ROUNDTRIP
360
1D3
  0
DICTIONARY
  5
18E
330
142
100
AcDbDictionary
280
     1
281
     1
  3
ACAD_MTEXT_RT
360
18F
  0
DICTIONARY
  5
190
330
143
100
AcDbDictionary
280
     1
281
     1
  3
ACAD_MTEXT_RT
360
191
  0
DICTIONARY
  5
192
330
144
100
AcDbDictionary
280
     1
281
     1
  3
ACAD_MTEXT_RT
360
193
  0
DICTIONARY
  5
194
330
14C
100
AcDbDictionary
280
     1
281
     1
  3
ACAD_MTEXT_RT
360
195
  0
DICTIONARY
  5
196
330
14D
100
AcDbDictionary
280
     1
281
     1
  3
ACAD_MTEXT_RT
360
197
  0
DICTIONARY
  5
198
330
14E
100
AcDbDictionary
280
     1
281
     1
  3
ACAD_MTEXT_RT
360
199
  0
DICTIONARY
  5
19A
330
14F
100
AcDbDictionary
280
     1
281
     1
  3
ACAD_MTEXT_RT
360
19B
  0
DICTIONARY
  5
19C
330
150
100
AcDbDictionary
280
     1
281
     1
  3
ACAD_MTEXT_RT
360
19D
  0
DICTIONARY
  5
19E
330
151
100
AcDbDictionary
280
     1
281
     1
  3
ACAD_MTEXT_RT
360
19F
  0
DICTIONARY
  5
1A0
330
152
100
AcDbDictionary
280
     1
281
     1
  3
ACAD_MTEXT_RT
360
1A1
  0
DICTIONARY
  5
1A2
330
154
100
AcDbDictionary
280
     1
281
     1
  3
ACAD_MTEXT_RT
360
1A3
  0
DICTIONARY
  5
1A4
330
155
100
AcDbDictionary
280
     1
281
     1
  3
ACAD_MTEXT_RT
360
1A5
  0
DICTIONARY
  5
1A6
330
156
100
AcDbDictionary
280
     1
281
     1
  3
ACAD_MTEXT_RT
360
1A7
  0
DICTIONARY
  5
1A8
330
157
100
AcDbDictionary
280
     1
281
     1
  3
ACAD_MTEXT_RT
360
1A9
  0
DICTIONARY
  5
1AA
330
158
100
AcDbDictionary
280
     1
281
     1
  3
ACAD_MTEXT_RT
360
1AB
  0
DICTIONARY
  5
1AC
330
159
100
AcDbDictionary
280
     1
281
     1
  3
ACAD_MTEXT_RT
360
1AD
  0
DICTIONARY
  5
1AE
330
15A
100
AcDbDictionary
280
     1
281
     1
  3
ACAD_MTEXT_RT
360
1AF
  0
DICTIONARY
  5
1B0
330
15B
100
AcDbDictionary
280
     1
281
     1
  3
ACAD_MTEXT_RT
360
1B1
  0
DICTIONARY
  5
1B2
330
15C
100
AcDbDictionary
280
     1
281
     1
  3
ACAD_MTEXT_RT
360
1B3
  0
DICTIONARY
  5
1B4
330
15D
100
AcDbDictionary
280
     1
281
     1
  3
ACAD_MTEXT_RT
360
1B5
  0
DICTIONARY
  5
1B6
330
15E
100
AcDbDictionary
280
     1
281
     1
  3
ACAD_MTEXT_RT
360
1B7
  0
DICTIONARY
  5
1B8
330
15F
100
AcDbDictionary
280
     1
281
     1
  3
ACAD_MTEXT_RT
360
1B9
  0
DICTIONARY
  5
1BA
330
160
100
AcDbDictionary
280
     1
281
     1
  3
ACAD_MTEXT_RT
360
1BB
  0
DICTIONARY
  5
1BC
330
161
100
AcDbDictionary
280
     1
281
     1
  3
ACAD_MTEXT_RT
360
1BD
  0
DICTIONARY
  5
1BE
330
162
100
AcDbDictionary
280
     1
281
     1
  3
ACAD_MTEXT_RT
360
1BF
  0
DICTIONARY
  5
1C0
330
163
100
AcDbDictionary
280
     1
281
     1
  3
ACAD_MTEXT_RT
360
1C1
  0
DICTIONARY
  5
1C2
330
164
100
AcDbDictionary
280
     1
281
     1
  3
ACAD_MTEXT_RT
360
1C3
  0
DICTIONARY
  5
1C4
330
169
100
AcDbDictionary
280
     1
281
     1
  3
ACAD_MTEXT_RT
360
1C5
  0
DICTIONARY
  5
1C6
330
16E
100
AcDbDictionary
280
     1
281
     1
  3
ACAD_MTEXT_RT
360
1C7
  0
DICTIONARY
  5
1C8
330
173
100
AcDbDictionary
280
     1
281
     1
  3
ACAD_MTEXT_RT
360
1C9
  0
DICTIONARY
  5
1CA
330
174
100
AcDbDictionary
280
     1
281
     1
  3
ACAD_MTEXT_RT
360
1CB
  0
DICTIONARY
  5
1CC
330
175
100
AcDbDictionary
280
     1
281
     1
  3
ACAD_MTEXT_RT
360
1CD
  0
DICTIONARY
  5
1CE
330
176
100
AcDbDictionary
280
     1
281
     1
  3
ACAD_MTEXT_RT
360
1CF
  0
DICTIONARY
  5
1D0
330
178
100
AcDbDictionary
280
     1
281
     1
  3
ACAD_MTEXT_RT
360
1D1
  0
DICTIONARY
  5
18C
330
6E
100
AcDbDictionary
280
     1
281
     1
  3
ACAD_XREC_ROUNDTRIP
360
18D
  0
DICTIONARY
  5
17B
330
17A
100
AcDbDictionary
280
     1
281
     1
  3
ACAD_FILTER
360
17C
  0
DICTIONARY
  5
D
102
{ACAD_REACTORS
330
C
102
}
330
C
100
AcDbDictionary
281
     1
  0
DICTIONARY
  5
1A
102
{ACAD_REACTORS
330
C
102
}
330
C
100
AcDbDictionary
281
     1
  3
02.5 44. Detail L.1
350
1E
  3
Model
350
22
  0
DICTIONARY
  5
43
102
{ACAD_REACTORS
330
C
102
}
330
C
100
AcDbDictionary
281
     1
  3
ByBlock
350
45
  3
ByLayer
350
44
  3
Global
350
46
  0
DICTIONARY
  5
6B
102
{ACAD_REACTORS
330
C
102
}
330
C
100
AcDbDictionary
281
     1
  3
Standard
350
6C
  0
DICTIONARY
  5
17
102
{ACAD_REACTORS
330
C
102
}
330
C
100
AcDbDictionary
281
     1
  3
Standard
350
18
  0
DICTIONARY
  5
19
102
{ACAD_REACTORS
330
C
102
}
330
C
100
AcDbDictionary
281
     1
  0
ACDBDICTIONARYWDFLT
  5
E
102
{ACAD_REACTORS
330
C
102
}
330
C
100
AcDbDictionary
281
     1
  3
Normal
350
F
100
AcDbDictionaryWithDefault
340
F
  0
DICTIONARY
  5
47
102
{ACAD_REACTORS
330
C
102
}
330
C
100
AcDbDictionary
281
     1
  3
A0
350
48
  3
A1
350
49
  3
A2
350
4A
  3
A3
350
4B
  3
A4
350
4C
  3
A5
350
4D
  3
A6
350
4E
  3
A7
350
4F
  3
A8
350
50
  3
A9
350
51
  3
B0
350
52
  3
B1
350
53
  3
B2
350
54
  3
B3
350
55
  3
B4
350
56
  3
B5
350
57
  3
B6
350
58
  3
B7
350
59
  3
B8
350
5A
  3
B9
350
5B
  3
C0
350
5C
  3
C1
350
5D
  3
C2
350
5E
  3
C3
350
5F
  3
C4
350
60
  3
C5
350
61
  3
C6
350
62
  3
C7
350
63
  3
C8
350
64
  3
C9
350
65
  3
D0
350
66
  3
D1
350
67
  3
D2
350
68
  0
DICTIONARY
  5
69
102
{ACAD_REACTORS
330
C
102
}
330
C
100
AcDbDictionary
281
     1
  3
Standard
350
6A
  0
DICTIONARY
  5
2A
102
{ACAD_REACTORS
330
C
102
}
330
C
100
AcDbDictionary
281
     1
  3
2dWireframe
350
2F
  3
Basic
350
32
  3
Brighten
350
36
  3
ColorChange
350
3A
  3
Conceptual
350
34
  3
Dim
350
35
  3
EdgeColorOff
350
3D
  3
Facepattern
350
39
  3
Flat
350
2B
  3
FlatWithEdges
350
2C
  3
Gouraud
350
2D
  3
GouraudWithEdges
350
2E
  3
Hidden
350
31
  3
JitterOff
350
3B
  3
Linepattern
350
38
  3
OverhangOff
350
3C
  3
Realistic
350
33
  3
Shaded
350
42
  3
Shaded with edges
350
41
  3
Shades of Gray
350
3E
  3
Sketchy
350
3F
  3
Thicken
350
37
  3
Wireframe
350
30
  3
X-Ray
350
40
  0
DICTIONARY
  5
184
102
{ACAD_REACTORS
330
C
102
}
330
C
100
AcDbDictionary
281
     1
  3
CANNOSCALE
350
1D4
  3
CMLEADERSTYLE
350
186
  3
CTABLESTYLE
350
185
  3
DIMASSOC
350
18A
  3
HIDETEXT
350
18B
  3
MSLTSCALE
350
1D5
  3
XCLIPFRAME
350
187
  0
XRECORD
  5
20F
102
{ACAD_REACTORS
330
C
102
}
330
C
100
AcDbXrecord
280
     1
 90
        1
330
174
330
175
330
173
330
176
330
14D
330
14C
330
142
330
144
330
143
330
14E
330
178
330
152
330
150
330
151
330
14F
330
159
330
154
330
155
330
158
330
156
330
157
330
15A
330
15C
330
15B
330
15D
330
15E
330
15F
330
160
330
161
330
162
330
163
330
164
330
169
330
16E
  0
DICTIONARY
  5
182
102
{ACAD_REACTORS
330
C
102
}
330
C
100
AcDbDictionary
281
     1
  3
AC_WATERMARK
350
183
  0
XRECORD
  5
1D3
102
{ACAD_REACTORS
330
1D2
102
}
330
1D2
100
AcDbXrecord
280
     1
102
VTR_0.000_0.000_1.000_1.000_VISUALSTYLE
340
2F
102
VTR_0.000_0.000_1.000_1.000_GRIDDISPLAY
 70
     3
102
VTR_0.000_0.000_1.000_1.000_GRIDMAJOR
 70
     5
102
VTR_0.000_0.000_1.000_1.000_DEFAULTLIGHTING
280
     1
102
VTR_0.000_0.000_1.000_1.000_DEFAULTLIGHTINGTYPE
 70
     1
102
VTR_0.000_0.000_1.000_1.000_BRIGHTNESS
141
0.0
102
VTR_0.000_0.000_1.000_1.000_CONTRAST
142
0.0
  0
XRECORD
  5
18F
102
{ACAD_REACTORS
330
18E
102
}
330
18E
100
AcDbXrecord
280
     1
 40
12186.0
  1
\A1;{\pql;\fArial|b0|i0|c0|p34;mind. 50 mm}
  0
XRECORD
  5
191
102
{ACAD_REACTORS
330
190
102
}
330
190
100
AcDbXrecord
280
     1
 40
6112.0
  1
\A1;{\pql;\fArial|b0|i0|c0|p34;140 mm}
  0
XRECORD
  5
193
102
{ACAD_REACTORS
330
192
102
}
330
192
100
AcDbXrecord
280
     1
 40
12186.0
  1
\A1;{\pql;\fArial|b0|i0|c0|p34;mind. 50 mm}
  0
XRECORD
  5
195
102
{ACAD_REACTORS
330
194
102
}
330
194
100
AcDbXrecord
280
     1
 40
12150.0
  1
\A1;{\pql;\fArial|b0|i0|c0|p34;mind. 20 mm}
  0
XRECORD
  5
197
102
{ACAD_REACTORS
330
196
102
}
330
196
100
AcDbXrecord
280
     1
 40
7931.0
  1
\A1;{\pql;\fArial|b0|i0|c0|p34;1\U+22127}
  0
XRECORD
  5
199
102
{ACAD_REACTORS
330
198
102
}
330
198
100
AcDbXrecord
280
     1
 40
28920.0
  1
\A1;{\pql;\fArial|b0|i0|c0|p34;RÖFIX Systemaufbau}
  0
XRECORD
  5
19B
102
{ACAD_REACTORS
330
19A
102
}
330
19A
100
AcDbXrecord
280
     1
 40
58289.0
  1
\A1;{\pql;\fArial|b0|i0|c0|p34;Kleben mit RÖFIX Systemkleber}
  0
XRECORD
  5
19D
102
{ACAD_REACTORS
330
19C
102
}
330
19C
100
AcDbXrecord
280
     1
 40
13048.0
  1
\A1;{\W1.091396x;\pql;\fArial|b0|i0|c0|p34;68}
  0
XRECORD
  5
19F
102
{ACAD_REACTORS
330
19E
102
}
330
19E
100
AcDbXrecord
280
     1
 40
57580.0
  1
\A1;{\pql;\fArial|b0|i0|c0|p34;Rohrummantelung Neopren 10 mm}
  0
XRECORD
  5
1A1
102
{ACAD_REACTORS
330
1A0
102
}
330
1A0
100
AcDbXrecord
280
     1
 40
13066.0
  1
\A1;{\W1.091396x;\pql;\fArial|b0|i0|c0|p34;69}
  0
XRECORD
  5
1A3
102
{ACAD_REACTORS
330
1A2
102
}
330
1A2
100
AcDbXrecord
280
     1
 40
461088.0
  1
\A1;{\pql;\fArial|b0|i0|c0|p34;Fallrohr Geberit \Ftxt.shx;Ø \fArial|b0|i0|c0|p34;90 mm\P\pql;\fArial|b1|i0|c0|p34;(keine Rohrschellen)}
  0
XRECORD
  5
1A5
102
{ACAD_REACTORS
330
1A4
102
}
330
1A4
100
AcDbXrecord
280
     1
 40
12921.0
  1
\A1;{\W1.091396x;\pql;\fArial|b0|i0|c0|p34;70}
  0
XRECORD
  5
1A7
102
{ACAD_REACTORS
330
1A6
102
}
330
1A6
100
AcDbXrecord
280
     1
 40
135423.0
  1
\A1;{\pql;\fArial|b0|i0|c0|p34;Beschichten mit RÖFIX Optiflex\fArial|b0|i0|c0|p34;\A1{\H.66x;\S® ^  ;}\fArial|b0|i0|c0|p34; }
  0
XRECORD
  5
1A9
102
{ACAD_REACTORS
330
1A8
102
}
330
1A8
100
AcDbXrecord
280
     1
 40
12837.0
  1
\A1;{\W1.091396x;\pql;\fArial|b0|i0|c0|p34;11}
  0
XRECORD
  5
1AB
102
{ACAD_REACTORS
330
1AA
102
}
330
1AA
100
AcDbXrecord
280
     1
 40
29401.0
  1
\A1;{\pql;\fArial|b0|i0|c0|p34;Polyurethanschaum}
  0
XRECORD
  5
1AD
102
{ACAD_REACTORS
330
1AC
102
}
330
1AC
100
AcDbXrecord
280
     1
 40
12939.0
  1
\A1;{\W1.091396x;\pql;\fArial|b0|i0|c0|p34;71}
  0
XRECORD
  5
1AF
102
{ACAD_REACTORS
330
1AE
102
}
330
1AE
100
AcDbXrecord
280
     1
 40
2630.0
  1
\A1;{\pql;\fArial|b0|i0|c0|p34;11}
  0
XRECORD
  5
1B1
102
{ACAD_REACTORS
330
1B0
102
}
330
1B0
100
AcDbXrecord
280
     1
 40
2666.0
  1
\A1;{\pql;\fArial|b0|i0|c0|p34;71}
  0
XRECORD
  5
1B3
102
{ACAD_REACTORS
330
1B2
102
}
330
1B2
100
AcDbXrecord
280
     1
 40
2716.0
  1
\A1;{\pql;\fArial|b0|i0|c0|p34;69}
  0
XRECORD
  5
1B5
102
{ACAD_REACTORS
330
1B4
102
}
330
1B4
100
AcDbXrecord
280
     1
 40
2659.0
  1
\A1;{\pql;\fArial|b0|i0|c0|p34;70}
  0
XRECORD
  5
1B7
102
{ACAD_REACTORS
330
1B6
102
}
330
1B6
100
AcDbXrecord
280
     1
 40
2168.0
  1
\A1;{\pql;\fArial|b0|i0|c0|p34;2}
  0
XRECORD
  5
1B9
102
{ACAD_REACTORS
330
1B8
102
}
330
1B8
100
AcDbXrecord
280
     1
 40
2174.0
  1
\A1;{\pql;\fArial|b0|i0|c0|p34;3}
  0
XRECORD
  5
1BB
102
{ACAD_REACTORS
330
1BA
102
}
330
1BA
100
AcDbXrecord
280
     1
 40
2180.0
  1
\A1;{\pql;\fArial|b0|i0|c0|p34;4}
  0
XRECORD
  5
1BD
102
{ACAD_REACTORS
330
1BC
102
}
330
1BC
100
AcDbXrecord
280
     1
 40
2186.0
  1
\A1;{\pql;\fArial|b0|i0|c0|p34;5}
  0
XRECORD
  5
1BF
102
{ACAD_REACTORS
330
1BE
102
}
330
1BE
100
AcDbXrecord
280
     1
 40
2192.0
  1
\A1;{\pql;\fArial|b0|i0|c0|p34;6}
  0
XRECORD
  5
1C1
102
{ACAD_REACTORS
330
1C0
102
}
330
1C0
100
AcDbXrecord
280
     1
 40
2198.0
  1
\A1;{\pql;\fArial|b0|i0|c0|p34;7}
  0
XRECORD
  5
1C3
102
{ACAD_REACTORS
330
1C2
102
}
330
1C2
100
AcDbXrecord
280
     1
 40
2162.0
  1
\A1;{\pql;\fArial|b0|i0|c0|p34;1}
  0
XRECORD
  5
1C5
102
{ACAD_REACTORS
330
1C4
102
}
330
1C4
100
AcDbXrecord
280
     1
 40
377456.0
  1
\A1;{\W0.933831x;\pql;\Ftxt.shx;L. Sonderlösung Fallrohr}
  0
XRECORD
  5
1C7
102
{ACAD_REACTORS
330
1C6
102
}
330
1C6
100
AcDbXrecord
280
     1
 40
18552185.0
  1
\A1;{\W0.933831x;\pql;\Ftxt.shx;L.1^I \Ftxt.shx;\H1.000037x;Fallrohr \Ftxt.shx;\H0.999963x;Ø\Ftxt.shx;\H1.000037x; 90 mm in EPS Aussenwärmedämmsystem\P\pql;\Ftxt.shx;           \Ftxt.shx;\H0.933299x; \Ftxt.shx;(Installationen in der Dämmebene sind Not
  1
lösungen, müssen Bauphysikalisch berechnet werden.}
  0
XRECORD
  5
1C9
102
{ACAD_REACTORS
330
1C8
102
}
330
1C8
100
AcDbXrecord
280
     1
 40
37297.0
  1
\A1;{\W0.933831x;\pql;\Ftxt.shx;Datum 08.07.2019}
  0
XRECORD
  5
1CB
102
{ACAD_REACTORS
330
1CA
102
}
330
1CA
100
AcDbXrecord
280
     1
 40
53634.0
  1
\A1;{\pqc;\fArial|b0|i0|c0|p34;PUR-Dämmplatte \fArial|b0|i0|c0|p34;\U+2137\fArial|b0|i0|c0|p34; 0.023 W/mK}
  0
XRECORD
  5
1CD
102
{ACAD_REACTORS
330
1CC
102
}
330
1CC
100
AcDbXrecord
280
     1
 40
62830.0
  1
\A1;{\pqc;\fArial|b0|i0|c0|p34;Einlage XPS gemäss Bauphysiker}
  0
XRECORD
  5
1CF
102
{ACAD_REACTORS
330
1CE
102
}
330
1CE
100
AcDbXrecord
280
     1
 40
2709.0
  1
\A1;{\pql;\fArial|b0|i0|c0|p34;68}
  0
XRECORD
  5
1D1
102
{ACAD_REACTORS
330
1D0
102
}
330
1D0
100
AcDbXrecord
280
     1
 40
428322.0
  1
\A1;{\pqc;\fArial|b0|i0|c0|p34;EPS-Dämmplatte \fLucida Sans Unicode|b0|i0|c0|p34;\H1.028571x;\U+2137\fArial|b0|i0|c0|p34;\H0.972222x; 0.030 W/mK}
  0
XRECORD
  5
18D
102
{ACAD_REACTORS
330
18C
102
}
330
18C
100
AcDbXrecord
280
     1
102
VISUALSTYLE
340
2F
102
GRIDDISPLAY
 70
     2
102
GRIDMAJOR
 70
     5
102
DEFAULTLIGHTING
280
     1
102
DEFAULTLIGHTINGTYPE
 70
     1
102
BRIGHTNESS
141
0.0
102
CONTRAST
142
0.0
  0
DICTIONARY
  5
17C
102
{ACAD_REACTORS
330
17B
102
}
330
17B
100
AcDbDictionary
280
     1
281
     1
  3
SPATIAL
360
17D
  0
LAYOUT
  5
1E
102
{ACAD_REACTORS
330
1A
102
}
330
1A
100
AcDbPlotSettings
  1

  2
none_device
  4

  6

 40
0.0
 41
0.0
 42
0.0
 43
0.0
 44
210.0
 45
297.0
 46
0.0
 47
0.0
 48
0.0
 49
0.0
140
0.0
141
0.0
142
1.0
143
1.0
 70
   688
 72
     1
 73
     0
 74
     5
  7

 75
    16
147
1.0
148
0.0
149
0.0
100
AcDbLayout
  1
02.5 44. Detail L.1
 70
     0
 71
     1
 10
0.0
 20
0.0
 11
12.0
 21
9.0
 12
0.0
 22
0.0
 32
0.0
 14
1.000000000000000E+20
 24
1.000000000000000E+20
 34
1.000000000000000E+20
 15
-1.000000000000000E+20
 25
-1.000000000000000E+20
 35
-1.000000000000000E+20
146
0.0
 13
0.0
 23
0.0
 33
0.0
 16
1.0
 26
0.0
 36
0.0
 17
0.0
 27
1.0
 37
0.0
 76
     0
330
1B
331
6E
  0
LAYOUT
  5
22
102
{ACAD_REACTORS
330
1A
102
}
330
1A
100
AcDbPlotSettings
  1

  2
none_device
  4
Letter_(8.50_x_11.00_Inches)
  6

 40
6.35
 41
6.35
 42
6.35000508
 43
6.35000508
 44
215.9
 45
279.4
 46
0.0
 47
0.0
 48
0.0
 49
0.0
140
0.0
141
0.0
142
1.0
143
1.0
 70
  1712
 72
     0
 73
     0
 74
     0
  7

 75
     0
147
1.0
148
0.0
149
0.0
100
AcDbLayout
  1
Model
 70
     1
 71
     0
 10
0.0
 20
0.0
 11
12.0
 21
9.0
 12
0.0
 22
0.0
 32
0.0
 14
1.000000000000000E+20
 24
1.000000000000000E+20
 34
1.000000000000000E+20
 15
-1.000000000000000E+20
 25
-1.000000000000000E+20
 35
-1.000000000000000E+20
146
0.0
 13
0.0
 23
0.0
 33
0.0
 16
1.0
 26
0.0
 36
0.0
 17
0.0
 27
1.0
 37
0.0
 76
     0
330
1F
331
29
  0
MATERIAL
  5
45
102
{ACAD_REACTORS
330
43
102
}
102
{ACAD_XDICTIONARY
360
208
102
}
330
43
100
AcDbMaterial
  1
ByBlock
  0
MATERIAL
  5
44
102
{ACAD_REACTORS
330
43
102
}
102
{ACAD_XDICTIONARY
360
206
102
}
330
43
100
AcDbMaterial
  1
ByLayer
  0
MATERIAL
  5
46
102
{ACAD_REACTORS
330
43
102
}
102
{ACAD_XDICTIONARY
360
20A
102
}
330
43
100
AcDbMaterial
  1
Global
  0
MLEADERSTYLE
  5
6C
102
{ACAD_REACTORS
330
6B
102
}
102
{ACAD_XDICTIONARY
360
20D
102
}
330
6B
100
AcDbMLeaderStyle
170
     2
171
     1
172
     0
 90
        2
 40
0.0
 41
0.0
173
     1
 91
-1056964608
340
14
 92
       -2
290
     1
 42
0.09
291
     1
 43
0.36
  3
Standard
341
0
 44
0.18
300

342
11
174
     1
178
     6
175
     1
176
     0
 93
-1056964608
 45
0.18
292
     0
297
     0
 46
0.18
343
0
 94
-1056964608
 47
1.0
 49
1.0
140
1.0
293
     1
141
0.0
294
     1
177
     0
142
1.0
295
     0
296
     0
143
0.125
1001
ACAD_MLEADERVER
1070
     2
  0
MLINESTYLE
  5
18
102
{ACAD_REACTORS
330
17
102
}
330
17
100
AcDbMlineStyle
  2
Standard
 70
     0
  3

 62
   256
 51
90.0
 52
90.0
 71
     2
 49
0.5
 62
   256
  6
BYLAYER
 49
-0.5
 62
   256
  6
BYLAYER
  0
ACDBPLACEHOLDER
  5
F
102
{ACAD_REACTORS
330
E
102
}
330
E
  0
SCALE
  5
48
102
{ACAD_REACTORS
330
47
102
}
330
47
100
AcDbScale
 70
     0
300
1:1
140
1.0
141
1.0
290
     1
  0
SCALE
  5
49
102
{ACAD_REACTORS
330
47
102
}
330
47
100
AcDbScale
 70
     0
300
1:2
140
1.0
141
2.0
290
     0
  0
SCALE
  5
4A
102
{ACAD_REACTORS
330
47
102
}
330
47
100
AcDbScale
 70
     0
300
1:4
140
1.0
141
4.0
290
     0
  0
SCALE
  5
4B
102
{ACAD_REACTORS
330
47
102
}
330
47
100
AcDbScale
 70
     0
300
1:5
140
1.0
141
5.0
290
     0
  0
SCALE
  5
4C
102
{ACAD_REACTORS
330
47
102
}
330
47
100
AcDbScale
 70
     0
300
1:8
140
1.0
141
8.0
290
     0
  0
SCALE
  5
4D
102
{ACAD_REACTORS
330
47
102
}
330
47
100
AcDbScale
 70
     0
300
1:10
140
1.0
141
10.0
290
     0
  0
SCALE
  5
4E
102
{ACAD_REACTORS
330
47
102
}
330
47
100
AcDbScale
 70
     0
300
1:16
140
1.0
141
16.0
290
     0
  0
SCALE
  5
4F
102
{ACAD_REACTORS
330
47
102
}
330
47
100
AcDbScale
 70
     0
300
1:20
140
1.0
141
20.0
290
     0
  0
SCALE
  5
50
102
{ACAD_REACTORS
330
47
102
}
330
47
100
AcDbScale
 70
     0
300
1:30
140
1.0
141
30.0
290
     0
  0
SCALE
  5
51
102
{ACAD_REACTORS
330
47
102
}
330
47
100
AcDbScale
 70
     0
300
1:40
140
1.0
141
40.0
290
     0
  0
SCALE
  5
52
102
{ACAD_REACTORS
330
47
102
}
330
47
100
AcDbScale
 70
     0
300
1:50
140
1.0
141
50.0
290
     0
  0
SCALE
  5
53
102
{ACAD_REACTORS
330
47
102
}
330
47
100
AcDbScale
 70
     0
300
1:100
140
1.0
141
100.0
290
     0
  0
SCALE
  5
54
102
{ACAD_REACTORS
330
47
102
}
330
47
100
AcDbScale
 70
     0
300
2:1
140
2.0
141
1.0
290
     0
  0
SCALE
  5
55
102
{ACAD_REACTORS
330
47
102
}
330
47
100
AcDbScale
 70
     0
300
4:1
140
4.0
141
1.0
290
     0
  0
SCALE
  5
56
102
{ACAD_REACTORS
330
47
102
}
330
47
100
AcDbScale
 70
     0
300
8:1
140
8.0
141
1.0
290
     0
  0
SCALE
  5
57
102
{ACAD_REACTORS
330
47
102
}
330
47
100
AcDbScale
 70
     0
300
10:1
140
10.0
141
1.0
290
     0
  0
SCALE
  5
58
102
{ACAD_REACTORS
330
47
102
}
330
47
100
AcDbScale
 70
     0
300
100:1
140
100.0
141
1.0
290
     0
  0
SCALE
  5
59
102
{ACAD_REACTORS
330
47
102
}
330
47
100
AcDbScale
 70
     0
300
1/128" = 1'-0"
140
0.0078125
141
12.0
290
     0
  0
SCALE
  5
5A
102
{ACAD_REACTORS
330
47
102
}
330
47
100
AcDbScale
 70
     0
300
1/64" = 1'-0"
140
0.015625
141
12.0
290
     0
  0
SCALE
  5
5B
102
{ACAD_REACTORS
330
47
102
}
330
47
100
AcDbScale
 70
     0
300
1/32" = 1'-0"
140
0.03125
141
12.0
290
     0
  0
SCALE
  5
5C
102
{ACAD_REACTORS
330
47
102
}
330
47
100
AcDbScale
 70
     0
300
1/16" = 1'-0"
140
0.0625
141
12.0
290
     0
  0
SCALE
  5
5D
102
{ACAD_REACTORS
330
47
102
}
330
47
100
AcDbScale
 70
     0
300
3/32" = 1'-0"
140
0.09375
141
12.0
290
     0
  0
SCALE
  5
5E
102
{ACAD_REACTORS
330
47
102
}
330
47
100
AcDbScale
 70
     0
300
1/8" = 1'-0"
140
0.125
141
12.0
290
     0
  0
SCALE
  5
5F
102
{ACAD_REACTORS
330
47
102
}
330
47
100
AcDbScale
 70
     0
300
3/16" = 1'-0"
140
0.1875
141
12.0
290
     0
  0
SCALE
  5
60
102
{ACAD_REACTORS
330
47
102
}
330
47
100
AcDbScale
 70
     0
300
1/4" = 1'-0"
140
0.25
141
12.0
290
     0
  0
SCALE
  5
61
102
{ACAD_REACTORS
330
47
102
}
330
47
100
AcDbScale
 70
     0
300
3/8" = 1'-0"
140
0.375
141
12.0
290
     0
  0
SCALE
  5
62
102
{ACAD_REACTORS
330
47
102
}
330
47
100
AcDbScale
 70
     0
300
1/2" = 1'-0"
140
0.5
141
12.0
290
     0
  0
SCALE
  5
63
102
{ACAD_REACTORS
330
47
102
}
330
47
100
AcDbScale
 70
     0
300
3/4" = 1'-0"
140
0.75
141
12.0
290
     0
  0
SCALE
  5
64
102
{ACAD_REACTORS
330
47
102
}
330
47
100
AcDbScale
 70
     0
300
1" = 1'-0"
140
1.0
141
12.0
290
     0
  0
SCALE
  5
65
102
{ACAD_REACTORS
330
47
102
}
330
47
100
AcDbScale
 70
     0
300
1-1/2" = 1'-0"
140
1.5
141
12.0
290
     0
  0
SCALE
  5
66
102
{ACAD_REACTORS
330
47
102
}
330
47
100
AcDbScale
 70
     0
300
3" = 1'-0"
140
3.0
141
12.0
290
     0
  0
SCALE
  5
67
102
{ACAD_REACTORS
330
47
102
}
330
47
100
AcDbScale
 70
     0
300
6" = 1'-0"
140
6.0
141
12.0
290
     0
  0
SCALE
  5
68
102
{ACAD_REACTORS
330
47
102
}
330
47
100
AcDbScale
 70
     0
300
1'-0" = 1'-0"
140
12.0
141
12.0
290
     0
  0
TABLESTYLE
  5
6A
102
{ACAD_REACTORS
330
69
102
}
330
69
100
AcDbTableStyle
  3
Standard
 70
     0
 71
     0
 40
0.06
 41
0.06
280
     0
281
     0
  7
Standard
140
0.18
170
     2
 62
     0
 63
   257
283
     0
274
    -2
284
     1
 64
     0
275
    -2
285
     1
 65
     0
276
    -2
286
     1
 66
     0
277
    -2
287
     1
 67
     0
278
    -2
288
     1
 68
     0
279
    -2
289
     1
 69
     0
  7
Standard
140
0.25
170
     5
 62
     0
 63
   257
283
     0
274
    -2
284
     1
 64
     0
275
    -2
285
     1
 65
     0
276
    -2
286
     1
 66
     0
277
    -2
287
     1
 67
     0
278
    -2
288
     1
 68
     0
279
    -2
289
     1
 69
     0
  7
Standard
140
0.18
170
     5
 62
     0
 63
   257
283
     0
274
    -2
284
     1
 64
     0
275
    -2
285
     1
 65
     0
276
    -2
286
     1
 66
     0
277
    -2
287
     1
 67
     0
278
    -2
288
     1
 68
     0
279
    -2
289
     1
 69
     0
  0
VISUALSTYLE
  5
2F
102
{ACAD_REACTORS
330
2A
102
}
102
{ACAD_XDICTIONARY
360
1DE
102
}
330
2A
100
AcDbVisualStyle
  2
2dWireframe
 70
     4
 71
     0
 72
     2
 73
     0
 90
        0
 40
0.6
 41
30.0
 62
     5
 63
     7
 74
     1
 91
        4
 64
     7
 65
   257
 75
     1
175
     1
 42
1.0
 92
        0
 66
   257
 43
1.0
 76
     1
 77
     6
 78
     2
 67
     7
 79
     5
170
     0
171
     0
290
     0
174
     0
 93
        1
 44
0.0
173
     0
291
     0
 45
0.0
1001
ACAD
1000
AcDbSavedByObjectVersion
1070
     0
  0
VISUALSTYLE
  5
32
102
{ACAD_REACTORS
330
2A
102
}
102
{ACAD_XDICTIONARY
360
1E4
102
}
330
2A
100
AcDbVisualStyle
  2
Basic
 70
     7
 71
     1
 72
     0
 73
     1
 90
        0
 40
0.6
 41
30.0
 62
     5
 63
     7
 74
     0
 91
        4
 64
     7
 65
   257
 75
     1
175
     1
 42
1.0
 92
        8
 66
     7
 43
1.0
 76
     1
 77
     6
 78
     2
 67
     7
 79
     5
170
     0
171
     0
290
     0
174
     0
 93
        1
 44
0.0
173
     0
291
     1
 45
0.0
1001
ACAD
1000
AcDbSavedByObjectVersion
1070
     0
  0
VISUALSTYLE
  5
36
102
{ACAD_REACTORS
330
2A
102
}
102
{ACAD_XDICTIONARY
360
1EC
102
}
330
2A
100
AcDbVisualStyle
  2
Brighten
 70
    12
 71
     2
 72
     2
 73
     0
 90
        0
 40
0.6
 41
30.0
 62
     5
 63
     7
 74
     1
 91
        4
 64
     7
 65
   257
 75
     1
175
     1
 42
1.0
 92
        8
 66
     7
 43
1.0
 76
     1
 77
     6
 78
     2
 67
     7
 79
     5
170
     0
171
     0
290
     0
174
     0
 93
        1
 44
50.0
173
     0
291
     1
 45
0.0
1001
ACAD
1000
AcDbSavedByObjectVersion
1070
     0
  0
VISUALSTYLE
  5
3A
102
{ACAD_REACTORS
330
2A
102
}
102
{ACAD_XDICTIONARY
360
1F4
102
}
330
2A
100
AcDbVisualStyle
  2
ColorChange
 70
    16
 71
     2
 72
     2
 73
     3
 90
        0
 40
0.6
 41
30.0
 62
     5
 63
     8
 74
     1
 91
        4
 64
     7
 65
   257
 75
     1
175
     1
 42
1.0
 92
        8
 66
     8
 43
1.0
 76
     1
 77
     6
 78
     2
 67
     7
 79
     5
170
     0
171
     0
290
     0
174
     0
 93
        1
 44
0.0
173
     0
291
     1
 45
0.0
1001
ACAD
1000
AcDbSavedByObjectVersion
1070
     0
  0
VISUALSTYLE
  5
34
102
{ACAD_REACTORS
330
2A
102
}
102
{ACAD_XDICTIONARY
360
1E8
102
}
330
2A
100
AcDbVisualStyle
  2
Conceptual
 70
     9
 71
     3
 72
     2
 73
     0
 90
        0
 40
0.6
 41
30.0
 62
     5
 63
     7
 74
     2
 91
        2
 64
     7
 65
   257
 75
     1
175
     1
 42
179.0
 92
        8
 66
     7
 43
1.0
 76
     1
 77
     6
 78
     2
 67
     7
 79
     3
170
     0
171
     0
290
     0
174
     0
 93
        1
 44
0.0
173
     0
291
     0
 45
0.0
1001
ACAD
1000
AcDbSavedByObjectVersion
1070
     0
  0
VISUALSTYLE
  5
35
102
{ACAD_REACTORS
330
2A
102
}
102
{ACAD_XDICTIONARY
360
1EA
102
}
330
2A
100
AcDbVisualStyle
  2
Dim
 70
    11
 71
     2
 72
     2
 73
     0
 90
        0
 40
0.6
 41
30.0
 62
     5
 63
     7
 74
     1
 91
        4
 64
     7
 65
   257
 75
     1
175
     1
 42
1.0
 92
        8
 66
     7
 43
1.0
 76
     1
 77
     6
 78
     2
 67
     7
 79
     5
170
     0
171
     0
290
     0
174
     0
 93
        1
 44
-50.0
173
     0
291
     1
 45
0.0
1001
ACAD
1000
AcDbSavedByObjectVersion
1070
     0
  0
VISUALSTYLE
  5
3D
102
{ACAD_REACTORS
330
2A
102
}
102
{ACAD_XDICTIONARY
360
1FA
102
}
330
2A
100
AcDbVisualStyle
  2
EdgeColorOff
 70
    22
 71
     2
 72
     2
 73
     0
 90
        0
 40
0.6
 41
30.0
 62
     5
 63
     7
 74
     1
 91
        4
 64
     7
 65
   257
 75
     1
175
     1
 42
1.0
 92
        8
 66
     7
 43
1.0
 76
     1
 77
     6
 78
     2
 67
     7
 79
     5
170
     0
171
     0
290
     0
174
     0
 93
        1
 44
0.0
173
     0
291
     1
 45
0.0
1001
ACAD
1000
AcDbSavedByObjectVersion
1070
     0
  0
VISUALSTYLE
  5
39
102
{ACAD_REACTORS
330
2A
102
}
102
{ACAD_XDICTIONARY
360
1F2
102
}
330
2A
100
AcDbVisualStyle
  2
Facepattern
 70
    15
 71
     2
 72
     2
 73
     0
 90
        0
 40
0.6
 41
30.0
 62
     5
 63
     7
 74
     1
 91
        4
 64
     7
 65
   257
 75
     1
175
     1
 42
1.0
 92
        8
 66
     7
 43
1.0
 76
     1
 77
     6
 78
     2
 67
     7
 79
     5
170
     0
171
     0
290
     0
174
     0
 93
        1
 44
0.0
173
     0
291
     1
 45
0.0
1001
ACAD
1000
AcDbSavedByObjectVersion
1070
     0
  0
VISUALSTYLE
  5
2B
102
{ACAD_REACTORS
330
2A
102
}
102
{ACAD_XDICTIONARY
360
1D6
102
}
330
2A
100
AcDbVisualStyle
  2
Flat
 70
     0
 71
     2
 72
     1
 73
     1
 90
        2
 40
0.6
 41
30.0
 62
     5
 63
     7
 74
     0
 91
        0
 64
     7
 65
   257
 75
     1
175
     1
 42
1.0
 92
        8
 66
     7
 43
1.0
 76
     1
 77
     6
 78
     2
 67
     7
 79
     5
170
     0
171
     0
290
     0
174
     0
 93
       13
 44
0.0
173
     0
291
     1
 45
0.0
1001
ACAD
1000
AcDbSavedByObjectVersion
1070
     0
  0
VISUALSTYLE
  5
2C
102
{ACAD_REACTORS
330
2A
102
}
102
{ACAD_XDICTIONARY
360
1D8
102
}
330
2A
100
AcDbVisualStyle
  2
FlatWithEdges
 70
     1
 71
     2
 72
     1
 73
     1
 90
        2
 40
0.6
 41
30.0
 62
     5
 63
     7
 74
     1
 91
        0
 64
     7
 65
   257
 75
     1
175
     1
 42
1.0
 92
        0
 66
   257
 43
1.0
 76
     1
 77
     6
 78
     2
 67
     7
 79
     5
170
     0
171
     0
290
     0
174
     0
 93
       13
 44
0.0
173
     0
291
     1
 45
0.0
1001
ACAD
1000
AcDbSavedByObjectVersion
1070
     0
  0
VISUALSTYLE
  5
2D
102
{ACAD_REACTORS
330
2A
102
}
102
{ACAD_XDICTIONARY
360
1DA
102
}
330
2A
100
AcDbVisualStyle
  2
Gouraud
 70
     2
 71
     2
 72
     2
 73
     1
 90
        2
 40
0.6
 41
30.0
 62
     5
 63
     7
 74
     0
 91
        0
 64
     7
 65
   257
 75
     1
175
     1
 42
1.0
 92
        0
 66
     7
 43
1.0
 76
     1
 77
     6
 78
     2
 67
     7
 79
     5
170
     0
171
     0
290
     0
174
     0
 93
       13
 44
0.0
173
     0
291
     1
 45
0.0
1001
ACAD
1000
AcDbSavedByObjectVersion
1070
     0
  0
VISUALSTYLE
  5
2E
102
{ACAD_REACTORS
330
2A
102
}
102
{ACAD_XDICTIONARY
360
1DC
102
}
330
2A
100
AcDbVisualStyle
  2
GouraudWithEdges
 70
     3
 71
     2
 72
     2
 73
     1
 90
        2
 40
0.6
 41
30.0
 62
     5
 63
     7
 74
     1
 91
        0
 64
     7
 65
   257
 75
     1
175
     1
 42
1.0
 92
        0
 66
   257
 43
1.0
 76
     1
 77
     6
 78
     2
 67
     7
 79
     5
170
     0
171
     0
290
     0
174
     0
 93
       13
 44
0.0
173
     0
291
     1
 45
0.0
1001
ACAD
1000
AcDbSavedByObjectVersion
1070
     0
  0
VISUALSTYLE
  5
31
102
{ACAD_REACTORS
330
2A
102
}
102
{ACAD_XDICTIONARY
360
1E2
102
}
330
2A
100
AcDbVisualStyle
  2
Hidden
 70
     6
 71
     1
 72
     2
 73
     2
 90
        0
 40
0.6
 41
30.0
 62
     5
 63
     7
 74
     2
 91
        2
 64
     7
 65
   257
 75
     2
175
     1
 42
40.0
 92
        0
 66
   257
 43
1.0
 76
     1
 77
     6
 78
     2
 67
     7
 79
     3
170
     0
171
     0
290
     0
174
     0
 93
        1
 44
0.0
173
     0
291
     0
 45
0.0
1001
ACAD
1000
AcDbSavedByObjectVersion
1070
     0
  0
VISUALSTYLE
  5
3B
102
{ACAD_REACTORS
330
2A
102
}
102
{ACAD_XDICTIONARY
360
1F6
102
}
330
2A
100
AcDbVisualStyle
  2
JitterOff
 70
    20
 71
     2
 72
     2
 73
     0
 90
        0
 40
0.6
 41
30.0
 62
     5
 63
     7
 74
     1
 91
        4
 64
     7
 65
   257
 75
     1
175
     1
 42
1.0
 92
       10
 66
     7
 43
1.0
 76
     1
 77
     6
 78
     2
 67
     7
 79
     5
170
     0
171
     0
290
     0
174
     0
 93
        1
 44
0.0
173
     0
291
     1
 45
0.0
1001
ACAD
1000
AcDbSavedByObjectVersion
1070
     0
  0
VISUALSTYLE
  5
38
102
{ACAD_REACTORS
330
2A
102
}
102
{ACAD_XDICTIONARY
360
1F0
102
}
330
2A
100
AcDbVisualStyle
  2
Linepattern
 70
    14
 71
     2
 72
     2
 73
     0
 90
        0
 40
0.6
 41
30.0
 62
     5
 63
     7
 74
     1
 91
        4
 64
     7
 65
   257
 75
     7
175
     7
 42
1.0
 92
        8
 66
     7
 43
1.0
 76
     1
 77
     6
 78
     2
 67
     7
 79
     5
170
     0
171
     0
290
     0
174
     0
 93
        1
 44
0.0
173
     0
291
     1
 45
0.0
1001
ACAD
1000
AcDbSavedByObjectVersion
1070
     0
  0
VISUALSTYLE
  5
3C
102
{ACAD_REACTORS
330
2A
102
}
102
{ACAD_XDICTIONARY
360
1F8
102
}
330
2A
100
AcDbVisualStyle
  2
OverhangOff
 70
    21
 71
     2
 72
     2
 73
     0
 90
        0
 40
0.6
 41
30.0
 62
     5
 63
     7
 74
     1
 91
        4
 64
     7
 65
   257
 75
     1
175
     1
 42
1.0
 92
        9
 66
     7
 43
1.0
 76
     1
 77
     6
 78
     2
 67
     7
 79
     5
170
     0
171
     0
290
     0
174
     0
 93
        1
 44
0.0
173
     0
291
     1
 45
0.0
1001
ACAD
1000
AcDbSavedByObjectVersion
1070
     0
  0
VISUALSTYLE
  5
33
102
{ACAD_REACTORS
330
2A
102
}
102
{ACAD_XDICTIONARY
360
1E6
102
}
330
2A
100
AcDbVisualStyle
  2
Realistic
 70
     8
 71
     2
 72
     3
 73
     0
 90
        2
 40
0.6
 41
30.0
 62
     5
 63
     7
 74
     0
 91
        0
 64
     7
 65
   257
 75
     1
175
     1
 42
1.0
 92
        8
 66
   257
 43
1.0
 76
     1
 77
     6
 78
     2
 67
     7
 79
     3
170
     0
171
     0
290
     0
174
     0
 93
       13
 44
0.0
173
     0
291
     0
 45
0.0
1001
ACAD
1000
AcDbSavedByObjectVersion
1070
     0
  0
VISUALSTYLE
  5
42
102
{ACAD_REACTORS
330
2A
102
}
102
{ACAD_XDICTIONARY
360
204
102
}
330
2A
100
AcDbVisualStyle
  2
Shaded
 70
    27
 71
     2
 72
     2
 73
     1
 90
        2
 40
0.6
 41
30.0
 62
     5
 63
     7
 74
     0
 91
        4
 64
     7
 65
   257
 75
     1
175
     1
 42
1.0
 92
        8
 66
   257
 43
1.0
 76
     1
 77
     6
 78
     2
 67
     8
 79
     3
170
     0
171
     0
290
     0
174
     0
 93
        5
 44
0.0
173
     0
291
     0
 45
0.0
1001
ACAD
1000
AcDbSavedByObjectVersion
1070
     0
  0
VISUALSTYLE
  5
41
102
{ACAD_REACTORS
330
2A
102
}
102
{ACAD_XDICTIONARY
360
202
102
}
330
2A
100
AcDbVisualStyle
  2
Shaded with edges
 70
    26
 71
     2
 72
     2
 73
     1
 90
        2
 40
0.6
 41
30.0
 62
     5
 63
     7
 74
     1
 91
       10
 64
     7
 65
   257
 75
     2
175
     1
 42
1.0
 92
        8
 66
   257
 43
1.0
 76
     1
 77
     6
 78
     2
 67
     7
 79
     3
170
     0
171
     0
290
     0
174
     0
 93
        5
 44
0.0
173
     0
291
     0
 45
0.0
1001
ACAD
1000
AcDbSavedByObjectVersion
1070
     0
  0
VISUALSTYLE
  5
3E
102
{ACAD_REACTORS
330
2A
102
}
102
{ACAD_XDICTIONARY
360
1FC
102
}
330
2A
100
AcDbVisualStyle
  2
Shades of Gray
 70
    23
 71
     2
 72
     2
 73
     3
 90
        0
 40
0.6
 41
30.0
 62
     5
 63
     7
 74
     2
 91
        2
 64
     7
 65
     7
 75
     1
175
     1
 42
40.0
 92
        8
 66
     7
 43
1.0
 76
     1
 77
     6
 78
     2
 67
     7
 79
     3
170
     0
171
     0
290
     0
174
     0
 93
        1
 44
0.0
173
     0
291
     0
 45
0.0
1001
ACAD
1000
AcDbSavedByObjectVersion
1070
     0
  0
VISUALSTYLE
  5
3F
102
{ACAD_REACTORS
330
2A
102
}
102
{ACAD_XDICTIONARY
360
1FE
102
}
330
2A
100
AcDbVisualStyle
  2
Sketchy
 70
    24
 71
     1
 72
     2
 73
     2
 90
        0
 40
0.6
 41
30.0
 62
     5
 63
     7
 74
     2
 91
        2
 64
     7
 65
     7
 75
     1
175
     1
 42
40.0
 92
       11
 66
     7
 43
1.0
 76
     1
 77
     6
 78
     2
 67
     7
 79
     6
170
     0
171
     0
290
     0
174
     0
 93
        1
 44
0.0
173
     0
291
     0
 45
0.0
1001
ACAD
1000
AcDbSavedByObjectVersion
1070
     0
  0
VISUALSTYLE
  5
37
102
{ACAD_REACTORS
330
2A
102
}
102
{ACAD_XDICTIONARY
360
1EE
102
}
330
2A
100
AcDbVisualStyle
  2
Thicken
 70
    13
 71
     2
 72
     2
 73
     0
 90
        0
 40
0.6
 41
30.0
 62
     5
 63
     7
 74
     1
 91
        4
 64
     7
 65
   257
 75
     1
175
     1
 42
1.0
 92
       12
 66
     7
 43
1.0
 76
     1
 77
     6
 78
     2
 67
     7
 79
     5
170
     0
171
     0
290
     0
174
     0
 93
        1
 44
0.0
173
     0
291
     1
 45
0.0
1001
ACAD
1000
AcDbSavedByObjectVersion
1070
     0
  0
VISUALSTYLE
  5
30
102
{ACAD_REACTORS
330
2A
102
}
102
{ACAD_XDICTIONARY
360
1E0
102
}
330
2A
100
AcDbVisualStyle
  2
Wireframe
 70
     5
 71
     0
 72
     2
 73
     0
 90
        0
 40
0.6
 41
30.0
 62
     5
 63
     7
 74
     1
 91
        4
 64
     7
 65
   257
 75
     1
175
     1
 42
1.0
 92
        0
 66
   257
 43
1.0
 76
     1
 77
     6
 78
     2
 67
     7
 79
     3
170
     0
171
     0
290
     0
174
     0
 93
        1
 44
0.0
173
     0
291
     0
 45
0.0
1001
ACAD
1000
AcDbSavedByObjectVersion
1070
     0
  0
VISUALSTYLE
  5
40
102
{ACAD_REACTORS
330
2A
102
}
102
{ACAD_XDICTIONARY
360
200
102
}
330
2A
100
AcDbVisualStyle
  2
X-Ray
 70
    25
 71
     2
 72
     2
 73
     1
 90
        1
 40
0.5
 41
30.0
 62
     5
 63
     7
 74
     1
 91
        0
 64
     7
 65
   257
 75
     1
175
     1
 42
1.0
 92
        8
 66
     7
 43
1.0
 76
     1
 77
     6
 78
     2
 67
     7
 79
     3
170
     0
171
     0
290
     0
174
     0
 93
       13
 44
0.0
173
     0
291
     0
 45
0.0
1001
ACAD
1000
AcDbSavedByObjectVersion
1070
     0
  0
DICTIONARYVAR
  5
1D4
102
{ACAD_REACTORS
330
184
102
}
330
184
100
DictionaryVariables
280
     0
  1
1:1
  0
DICTIONARYVAR
  5
186
102
{ACAD_REACTORS
330
184
102
}
330
184
100
DictionaryVariables
280
     0
  1
Standard
  0
DICTIONARYVAR
  5
185
102
{ACAD_REACTORS
330
184
102
}
330
184
100
DictionaryVariables
280
     0
  1
Standard
  0
DICTIONARYVAR
  5
18A
102
{ACAD_REACTORS
330
184
102
}
330
184
100
DictionaryVariables
280
     0
  1
2
  0
DICTIONARYVAR
  5
18B
102
{ACAD_REACTORS
330
184
102
}
330
184
100
DictionaryVariables
280
     0
  1
1
  0
DICTIONARYVAR
  5
1D5
102
{ACAD_REACTORS
330
184
102
}
330
184
100
DictionaryVariables
280
     0
  1
1
  0
DICTIONARYVAR
  5
187
102
{ACAD_REACTORS
330
184
102
}
330
184
100
DictionaryVariables
280
     0
  1
0
  0
XRECORD
  5
183
102
{ACAD_REACTORS
330
182
102
}
330
182
100
AcDbXrecord
280
     1
1000
Diese DWG-Datei wurde mit ARCHICAD(TM)® erstellt
  0
SPATIAL_FILTER
  5
17D
102
{ACAD_REACTORS
330
17C
102
}
330
17C
100
AcDbFilter
100
AcDbSpatialFilter
 70
     4
 10
0.0
 20
0.0000976562495314
 10
210.0
 20
0.0000976562495314
 10
210.0
 20
296.9999999999999
 10
0.0
 20
296.9999999999999
210
0.0
220
0.0
230
1.0
 11
0.0
 21
0.0
 31
0.0
 71
     1
 72
     0
 73
     0
 40
1.0
 40
0.0
 40
0.0
 40
0.0
 40
0.0
 40
1.0
 40
0.0
 40
0.0
 40
0.0
 40
0.0
 40
1.0
 40
0.0
 40
1.0
 40
0.0
 40
0.0
 40
0.0
 40
0.0
 40
1.0
 40
0.0
 40
0.0
 40
0.0
 40
0.0
 40
1.0
 40
0.0
  0
DICTIONARY
  5
208
330
45
100
AcDbDictionary
280
     1
281
     1
  3
ACAD_XREC_ROUNDTRIP
360
209
  0
DICTIONARY
  5
206
330
44
100
AcDbDictionary
280
     1
281
     1
  3
ACAD_XREC_ROUNDTRIP
360
207
  0
DICTIONARY
  5
20A
330
46
100
AcDbDictionary
280
     1
281
     1
  3
ACAD_XREC_ROUNDTRIP
360
20B
  0
DICTIONARY
  5
20D
330
6C
100
AcDbDictionary
280
     1
281
     1
  3
ACAD_XREC_ROUNDTRIP
360
20E
  0
DICTIONARY
  5
1DE
330
2F
100
AcDbDictionary
280
     1
281
     1
  3
ACAD_XREC_ROUNDTRIP
360
1DF
  0
DICTIONARY
  5
1E4
330
32
100
AcDbDictionary
280
     1
281
     1
  3
ACAD_XREC_ROUNDTRIP
360
1E5
  0
DICTIONARY
  5
1EC
330
36
100
AcDbDictionary
280
     1
281
     1
  3
ACAD_XREC_ROUNDTRIP
360
1ED
  0
DICTIONARY
  5
1F4
330
3A
100
AcDbDictionary
280
     1
281
     1
  3
ACAD_XREC_ROUNDTRIP
360
1F5
  0
DICTIONARY
  5
1E8
330
34
100
AcDbDictionary
280
     1
281
     1
  3
ACAD_XREC_ROUNDTRIP
360
1E9
  0
DICTIONARY
  5
1EA
330
35
100
AcDbDictionary
280
     1
281
     1
  3
ACAD_XREC_ROUNDTRIP
360
1EB
  0
DICTIONARY
  5
1FA
330
3D
100
AcDbDictionary
280
     1
281
     1
  3
ACAD_XREC_ROUNDTRIP
360
1FB
  0
DICTIONARY
  5
1F2
330
39
100
AcDbDictionary
280
     1
281
     1
  3
ACAD_XREC_ROUNDTRIP
360
1F3
  0
DICTIONARY
  5
1D6
330
2B
100
AcDbDictionary
280
     1
281
     1
  3
ACAD_XREC_ROUNDTRIP
360
1D7
  0
DICTIONARY
  5
1D8
330
2C
100
AcDbDictionary
280
     1
281
     1
  3
ACAD_XREC_ROUNDTRIP
360
1D9
  0
DICTIONARY
  5
1DA
330
2D
100
AcDbDictionary
280
     1
281
     1
  3
ACAD_XREC_ROUNDTRIP
360
1DB
  0
DICTIONARY
  5
1DC
330
2E
100
AcDbDictionary
280
     1
281
     1
  3
ACAD_XREC_ROUNDTRIP
360
1DD
  0
DICTIONARY
  5
1E2
330
31
100
AcDbDictionary
280
     1
281
     1
  3
ACAD_XREC_ROUNDTRIP
360
1E3
  0
DICTIONARY
  5
1F6
330
3B
100
AcDbDictionary
280
     1
281
     1
  3
ACAD_XREC_ROUNDTRIP
360
1F7
  0
DICTIONARY
  5
1F0
330
38
100
AcDbDictionary
280
     1
281
     1
  3
ACAD_XREC_ROUNDTRIP
360
1F1
  0
DICTIONARY
  5
1F8
330
3C
100
AcDbDictionary
280
     1
281
     1
  3
ACAD_XREC_ROUNDTRIP
360
1F9
  0
DICTIONARY
  5
1E6
330
33
100
AcDbDictionary
280
     1
281
     1
  3
ACAD_XREC_ROUNDTRIP
360
1E7
  0
DICTIONARY
  5
204
330
42
100
AcDbDictionary
280
     1
281
     1
  3
ACAD_XREC_ROUNDTRIP
360
205
  0
DICTIONARY
  5
202
330
41
100
AcDbDictionary
280
     1
281
     1
  3
ACAD_XREC_ROUNDTRIP
360
203
  0
DICTIONARY
  5
1FC
330
3E
100
AcDbDictionary
280
     1
281
     1
  3
ACAD_XREC_ROUNDTRIP
360
1FD
  0
DICTIONARY
  5
1FE
330
3F
100
AcDbDictionary
280
     1
281
     1
  3
ACAD_XREC_ROUNDTRIP
360
1FF
  0
DICTIONARY
  5
1EE
330
37
100
AcDbDictionary
280
     1
281
     1
  3
ACAD_XREC_ROUNDTRIP
360
1EF
  0
DICTIONARY
  5
1E0
330
30
100
AcDbDictionary
280
     1
281
     1
  3
ACAD_XREC_ROUNDTRIP
360
1E1
  0
DICTIONARY
  5
200
330
40
100
AcDbDictionary
280
     1
281
     1
  3
ACAD_XREC_ROUNDTRIP
360
201
  0
XRECORD
  5
209
102
{ACAD_REACTORS
330
208
102
}
330
208
100
AcDbXrecord
280
     1
102
MATERIAL
148
0.0
149
0.0
149
0.0
 93
        0
 94
      127
282
     0
 72
     1
 77
     1
171
     1
175
     1
179
     1
273
     0
  0
XRECORD
  5
207
102
{ACAD_REACTORS
330
206
102
}
330
206
100
AcDbXrecord
280
     1
102
MATERIAL
148
0.0
149
0.0
149
0.0
 93
        0
 94
      127
282
     0
 72
     1
 77
     1
171
     1
175
     1
179
     1
273
     0
  0
XRECORD
  5
20B
102
{ACAD_REACTORS
330
20A
102
}
330
20A
100
AcDbXrecord
280
     1
102
MATERIAL
148
0.0
149
0.0
149
0.0
 93
        0
 94
      127
282
     0
 72
     1
 77
     1
171
     1
175
     1
179
     1
273
     0
  0
XRECORD
  5
20E
102
{ACAD_REACTORS
330
20D
102
}
330
20D
100
AcDbXrecord
280
     1
102
ACAD_ROUNDTRIP_2010_MLEADER_STYLE
  0
XRECORD
  5
1DF
102
{ACAD_REACTORS
330
1DE
102
}
330
1DE
100
AcDbXrecord
280
     1
102
RTVSPropertyOp0
 70
     1
102
RTVSPropertyOp1
 70
     1
102
RTVSPropertyOp2
 70
     1
102
RTVSPropertyOp3
 70
     1
102
RTVSPropertyOp4
 70
     1
102
RTVSPropertyOp5
 70
     1
102
RTVSPropertyOp6
 70
     1
102
RTVSPropertyOp7
 70
     1
102
RTVSPropertyOp8
 70
     1
102
RTVSPropertyOp9
 70
     1
102
RTVSPropertyOp10
 70
     1
102
RTVSPropertyOp11
 70
     1
102
RTVSPropertyOp12
 70
     1
102
RTVSPropertyOp13
 70
     1
102
RTVSPropertyOp14
 70
     1
102
RTVSPropertyOp15
 70
     1
102
RTVSPropertyOp16
 70
     1
102
RTVSPropertyOp17
 70
     1
102
RTVSPropertyOp18
 70
     1
102
RTVSPropertyOp19
 70
     1
102
RTVSPropertyOp20
 70
     1
102
RTVSPropertyOp21
 70
     1
102
RTVSPropertyOp22
 70
     1
102
RTVSPropertyOp23
 70
     1
102
RTVSPropertyOp24
 70
     1
102
RTVSPropertyOp25
 70
     1
102
RTVSPropertyOp26
 70
     1
102
RTVSPropertyOp27
 70
     1
102
RTVSPropertyOp28
 70
     1
102
RTVSPropertyOp29
 70
     1
102
RTVSPropertyOp30
 70
     1
102
RTVSPropertyOp31
 70
     1
102
RTVSPropertyOp32
 70
     1
102
RTVSPropertyOp33
 70
     1
102
RTVSPropertyOp34
 70
     1
102
RTVSPropertyOp35
 70
     1
102
RTVSPropertyOp36
 70
     1
102
RTVSPropertyOp37
 70
     1
102
RTVSPropertyOp38
 70
     1
102
RTVSPropertyOp39
 70
     1
102
RTVSPropertyOp40
 70
     1
102
RTVSPropertyOp41
 70
     1
102
RTVSPropertyOp42
 70
     1
102
RTVSPropertyOp43
 70
     1
102
RTVSPropertyOp44
 70
     1
102
RTVSPropertyOp45
 70
     1
102
RTVSPropertyOp46
 70
     1
102
RTVSPropertyOp47
 70
     1
102
RTVSPropertyOp48
 70
     1
102
RTVSPropertyOp49
 70
     1
102
RTVSPropertyOp50
 70
     1
102
RTVSPropertyOp51
 70
     0
102
RTVSPropertyOp52
 70
     0
102
RTVSPropertyOp53
 70
     1
102
RTVSPropertyOp54
 70
     1
102
RTVSPropertyOp55
 70
     1
102
RTVSPropertyOp56
 70
     1
102
RTVSPropertyOp57
 70
     1
102
RTVSPost2010Prop28
280
     1
102
RTVSPost2010PropOp28
 70
     1
102
RTVSPost2010Prop29
280
     1
102
RTVSPost2010PropOp29
 70
     1
102
RTVSPost2010Prop30
280
     0
102
RTVSPost2010PropOp30
 70
     1
102
RTVSPost2010Prop31
280
     0
102
RTVSPost2010PropOp31
 70
     1
102
RTVSPost2010Prop32
280
     0
102
RTVSPost2010PropOp32
 70
     1
102
RTVSPost2010Prop33
280
     0
102
RTVSPost2010PropOp33
 70
     1
102
RTVSPost2010Prop34
280
     0
102
RTVSPost2010PropOp34
 70
     1
102
RTVSPost2010Prop35
280
     0
102
RTVSPost2010PropOp35
 70
     1
102
RTVSPost2010Prop36
280
     0
102
RTVSPost2010PropOp36
 70
     1
102
RTVSPost2010Prop37
 90
       50
102
RTVSPost2010PropOp37
 70
     1
102
RTVSPost2010Prop38
140
0.0
102
RTVSPost2010PropOp38
 70
     1
102
RTVSPost2010Prop39
140
1.0
102
RTVSPost2010PropOp39
 70
     1
102
RTVSPost2010Prop40
 90
        0
102
RTVSPost2010PropOp40
 70
     1
102
RTVSPost2010Prop41ColorIndex
 90
      178
102
RTVSPost2010Prop41ColorRGB
 90
        0
102
RTVSPost2010PropOp41
 70
     1
102
RTVSPost2010Prop42
 90
       50
102
RTVSPost2010PropOp42
 70
     1
102
RTVSPost2010Prop43
 90
        3
102
RTVSPost2010PropOp43
 70
     1
102
RTVSPost2010Prop44ColorIndex
 90
        5
102
RTVSPost2010Prop44ColorRGB
 90
      255
102
RTVSPost2010PropOp44
 70
     1
102
RTVSPost2010Prop45
280
     0
102
RTVSPost2010PropOp45
 70
     1
102
RTVSPost2010Prop46
 90
       50
102
RTVSPost2010PropOp46
 70
     1
102
RTVSPost2010Prop47
 90
       50
102
RTVSPost2010PropOp47
 70
     1
102
RTVSPost2010Prop48
 90
       50
102
RTVSPost2010PropOp48
 70
     1
102
RTVSPost2010Prop49
280
     0
102
RTVSPost2010PropOp49
 70
     1
102
RTVSPost2010Prop50
 90
       50
102
RTVSPost2010PropOp50
 70
     1
102
RTVSPost2010Prop51ColorIndex
 90
      256
102
RTVSPost2010Prop51ColorRGB
 90
-16777216
102
RTVSPost2010PropOp51
 70
     0
102
RTVSPost2010Prop52
140
1.0
102
RTVSPost2010PropOp52
 70
     0
102
RTVSPost2010Prop53
 90
        2
102
RTVSPost2010PropOp53
 70
     1
102
RTVSPost2010Prop54
  1
strokes_ogs.tif
102
RTVSPost2010PropOp54
 70
     1
102
RTVSPost2010Prop55
280
     0
102
RTVSPost2010PropOp55
 70
     1
102
RTVSPost2010Prop56
140
1.0
102
RTVSPost2010PropOp56
 70
     1
102
RTVSPost2010Prop57
140
1.0
102
RTVSPost2010PropOp57
 70
     1
  0
XRECORD
  5
1E5
102
{ACAD_REACTORS
330
1E4
102
}
330
1E4
100
AcDbXrecord
280
     1
102
RTVSPropertyOp0
 70
     1
102
RTVSPropertyOp1
 70
     1
102
RTVSPropertyOp2
 70
     1
102
RTVSPropertyOp3
 70
     1
102
RTVSPropertyOp4
 70
     1
102
RTVSPropertyOp5
 70
     1
102
RTVSPropertyOp6
 70
     1
102
RTVSPropertyOp7
 70
     1
102
RTVSPropertyOp8
 70
     1
102
RTVSPropertyOp9
 70
     1
102
RTVSPropertyOp10
 70
     1
102
RTVSPropertyOp11
 70
     1
102
RTVSPropertyOp12
 70
     1
102
RTVSPropertyOp13
 70
     1
102
RTVSPropertyOp14
 70
     1
102
RTVSPropertyOp15
 70
     1
102
RTVSPropertyOp16
 70
     1
102
RTVSPropertyOp17
 70
     1
102
RTVSPropertyOp18
 70
     1
102
RTVSPropertyOp19
 70
     1
102
RTVSPropertyOp20
 70
     1
102
RTVSPropertyOp21
 70
     1
102
RTVSPropertyOp22
 70
     1
102
RTVSPropertyOp23
 70
     1
102
RTVSPropertyOp24
 70
     1
102
RTVSPropertyOp25
 70
     1
102
RTVSPropertyOp26
 70
     1
102
RTVSPropertyOp27
 70
     1
102
RTVSPropertyOp28
 70
     1
102
RTVSPropertyOp29
 70
     1
102
RTVSPropertyOp30
 70
     1
102
RTVSPropertyOp31
 70
     1
102
RTVSPropertyOp32
 70
     1
102
RTVSPropertyOp33
 70
     1
102
RTVSPropertyOp34
 70
     1
102
RTVSPropertyOp35
 70
     1
102
RTVSPropertyOp36
 70
     1
102
RTVSPropertyOp37
 70
     1
102
RTVSPropertyOp38
 70
     1
102
RTVSPropertyOp39
 70
     1
102
RTVSPropertyOp40
 70
     1
102
RTVSPropertyOp41
 70
     1
102
RTVSPropertyOp42
 70
     1
102
RTVSPropertyOp43
 70
     1
102
RTVSPropertyOp44
 70
     1
102
RTVSPropertyOp45
 70
     1
102
RTVSPropertyOp46
 70
     1
102
RTVSPropertyOp47
 70
     1
102
RTVSPropertyOp48
 70
     1
102
RTVSPropertyOp49
 70
     1
102
RTVSPropertyOp50
 70
     1
102
RTVSPropertyOp51
 70
     0
102
RTVSPropertyOp52
 70
     0
102
RTVSPropertyOp53
 70
     1
102
RTVSPropertyOp54
 70
     1
102
RTVSPropertyOp55
 70
     1
102
RTVSPropertyOp56
 70
     1
102
RTVSPropertyOp57
 70
     1
102
RTVSPost2010Prop28
280
     0
102
RTVSPost2010PropOp28
 70
     1
102
RTVSPost2010Prop29
280
     1
102
RTVSPost2010PropOp29
 70
     1
102
RTVSPost2010Prop30
280
     1
102
RTVSPost2010PropOp30
 70
     1
102
RTVSPost2010Prop31
280
     0
102
RTVSPost2010PropOp31
 70
     1
102
RTVSPost2010Prop32
280
     0
102
RTVSPost2010PropOp32
 70
     1
102
RTVSPost2010Prop33
280
     0
102
RTVSPost2010PropOp33
 70
     1
102
RTVSPost2010Prop34
280
     0
102
RTVSPost2010PropOp34
 70
     1
102
RTVSPost2010Prop35
280
     0
102
RTVSPost2010PropOp35
 70
     1
102
RTVSPost2010Prop36
280
     0
102
RTVSPost2010PropOp36
 70
     1
102
RTVSPost2010Prop37
 90
       50
102
RTVSPost2010PropOp37
 70
     1
102
RTVSPost2010Prop38
140
0.0
102
RTVSPost2010PropOp38
 70
     1
102
RTVSPost2010Prop39
140
1.0
102
RTVSPost2010PropOp39
 70
     1
102
RTVSPost2010Prop40
 90
        0
102
RTVSPost2010PropOp40
 70
     1
102
RTVSPost2010Prop41ColorIndex
 90
      178
102
RTVSPost2010Prop41ColorRGB
 90
        0
102
RTVSPost2010PropOp41
 70
     1
102
RTVSPost2010Prop42
 90
       50
102
RTVSPost2010PropOp42
 70
     1
102
RTVSPost2010Prop43
 90
        3
102
RTVSPost2010PropOp43
 70
     1
102
RTVSPost2010Prop44ColorIndex
 90
        5
102
RTVSPost2010Prop44ColorRGB
 90
      255
102
RTVSPost2010PropOp44
 70
     1
102
RTVSPost2010Prop45
280
     0
102
RTVSPost2010PropOp45
 70
     1
102
RTVSPost2010Prop46
 90
       50
102
RTVSPost2010PropOp46
 70
     1
102
RTVSPost2010Prop47
 90
       50
102
RTVSPost2010PropOp47
 70
     1
102
RTVSPost2010Prop48
 90
       50
102
RTVSPost2010PropOp48
 70
     1
102
RTVSPost2010Prop49
280
     0
102
RTVSPost2010PropOp49
 70
     1
102
RTVSPost2010Prop50
 90
       50
102
RTVSPost2010PropOp50
 70
     1
102
RTVSPost2010Prop51ColorIndex
 90
      256
102
RTVSPost2010Prop51ColorRGB
 90
-16777216
102
RTVSPost2010PropOp51
 70
     0
102
RTVSPost2010Prop52
140
1.0
102
RTVSPost2010PropOp52
 70
     0
102
RTVSPost2010Prop53
 90
        2
102
RTVSPost2010PropOp53
 70
     1
102
RTVSPost2010Prop54
  1
strokes_ogs.tif
102
RTVSPost2010PropOp54
 70
     1
102
RTVSPost2010Prop55
280
     0
102
RTVSPost2010PropOp55
 70
     1
102
RTVSPost2010Prop56
140
1.0
102
RTVSPost2010PropOp56
 70
     1
102
RTVSPost2010Prop57
140
1.0
102
RTVSPost2010PropOp57
 70
     1
  0
XRECORD
  5
1ED
102
{ACAD_REACTORS
330
1EC
102
}
330
1EC
100
AcDbXrecord
280
     1
102
RTVSPropertyOp0
 70
     1
102
RTVSPropertyOp1
 70
     1
102
RTVSPropertyOp2
 70
     1
102
RTVSPropertyOp3
 70
     1
102
RTVSPropertyOp4
 70
     1
102
RTVSPropertyOp5
 70
     1
102
RTVSPropertyOp6
 70
     1
102
RTVSPropertyOp7
 70
     1
102
RTVSPropertyOp8
 70
     1
102
RTVSPropertyOp9
 70
     1
102
RTVSPropertyOp10
 70
     1
102
RTVSPropertyOp11
 70
     1
102
RTVSPropertyOp12
 70
     1
102
RTVSPropertyOp13
 70
     1
102
RTVSPropertyOp14
 70
     1
102
RTVSPropertyOp15
 70
     1
102
RTVSPropertyOp16
 70
     1
102
RTVSPropertyOp17
 70
     1
102
RTVSPropertyOp18
 70
     1
102
RTVSPropertyOp19
 70
     1
102
RTVSPropertyOp20
 70
     1
102
RTVSPropertyOp21
 70
     1
102
RTVSPropertyOp22
 70
     1
102
RTVSPropertyOp23
 70
     1
102
RTVSPropertyOp24
 70
     1
102
RTVSPropertyOp25
 70
     1
102
RTVSPropertyOp26
 70
     1
102
RTVSPropertyOp27
 70
     1
102
RTVSPropertyOp28
 70
     1
102
RTVSPropertyOp29
 70
     1
102
RTVSPropertyOp30
 70
     1
102
RTVSPropertyOp31
 70
     1
102
RTVSPropertyOp32
 70
     1
102
RTVSPropertyOp33
 70
     1
102
RTVSPropertyOp34
 70
     1
102
RTVSPropertyOp35
 70
     1
102
RTVSPropertyOp36
 70
     1
102
RTVSPropertyOp37
 70
     1
102
RTVSPropertyOp38
 70
     1
102
RTVSPropertyOp39
 70
     1
102
RTVSPropertyOp40
 70
     1
102
RTVSPropertyOp41
 70
     1
102
RTVSPropertyOp42
 70
     1
102
RTVSPropertyOp43
 70
     1
102
RTVSPropertyOp44
 70
     1
102
RTVSPropertyOp45
 70
     1
102
RTVSPropertyOp46
 70
     1
102
RTVSPropertyOp47
 70
     1
102
RTVSPropertyOp48
 70
     1
102
RTVSPropertyOp49
 70
     1
102
RTVSPropertyOp50
 70
     1
102
RTVSPropertyOp51
 70
     0
102
RTVSPropertyOp52
 70
     0
102
RTVSPropertyOp53
 70
     1
102
RTVSPropertyOp54
 70
     1
102
RTVSPropertyOp55
 70
     1
102
RTVSPropertyOp56
 70
     1
102
RTVSPropertyOp57
 70
     1
102
RTVSPost2010Prop28
280
     0
102
RTVSPost2010PropOp28
 70
     1
102
RTVSPost2010Prop29
280
     1
102
RTVSPost2010PropOp29
 70
     1
102
RTVSPost2010Prop30
280
     1
102
RTVSPost2010PropOp30
 70
     1
102
RTVSPost2010Prop31
280
     0
102
RTVSPost2010PropOp31
 70
     1
102
RTVSPost2010Prop32
280
     0
102
RTVSPost2010PropOp32
 70
     1
102
RTVSPost2010Prop33
280
     0
102
RTVSPost2010PropOp33
 70
     1
102
RTVSPost2010Prop34
280
     0
102
RTVSPost2010PropOp34
 70
     1
102
RTVSPost2010Prop35
280
     0
102
RTVSPost2010PropOp35
 70
     1
102
RTVSPost2010Prop36
280
     0
102
RTVSPost2010PropOp36
 70
     1
102
RTVSPost2010Prop37
 90
       50
102
RTVSPost2010PropOp37
 70
     1
102
RTVSPost2010Prop38
140
0.0
102
RTVSPost2010PropOp38
 70
     1
102
RTVSPost2010Prop39
140
1.0
102
RTVSPost2010PropOp39
 70
     1
102
RTVSPost2010Prop40
 90
        0
102
RTVSPost2010PropOp40
 70
     1
102
RTVSPost2010Prop41ColorIndex
 90
      178
102
RTVSPost2010Prop41ColorRGB
 90
        0
102
RTVSPost2010PropOp41
 70
     1
102
RTVSPost2010Prop42
 90
       50
102
RTVSPost2010PropOp42
 70
     1
102
RTVSPost2010Prop43
 90
        3
102
RTVSPost2010PropOp43
 70
     1
102
RTVSPost2010Prop44ColorIndex
 90
        5
102
RTVSPost2010Prop44ColorRGB
 90
      255
102
RTVSPost2010PropOp44
 70
     1
102
RTVSPost2010Prop45
280
     0
102
RTVSPost2010PropOp45
 70
     1
102
RTVSPost2010Prop46
 90
       50
102
RTVSPost2010PropOp46
 70
     1
102
RTVSPost2010Prop47
 90
       50
102
RTVSPost2010PropOp47
 70
     1
102
RTVSPost2010Prop48
 90
       50
102
RTVSPost2010PropOp48
 70
     1
102
RTVSPost2010Prop49
280
     0
102
RTVSPost2010PropOp49
 70
     1
102
RTVSPost2010Prop50
 90
       50
102
RTVSPost2010PropOp50
 70
     1
102
RTVSPost2010Prop51ColorIndex
 90
      256
102
RTVSPost2010Prop51ColorRGB
 90
-16777216
102
RTVSPost2010PropOp51
 70
     0
102
RTVSPost2010Prop52
140
1.0
102
RTVSPost2010PropOp52
 70
     0
102
RTVSPost2010Prop53
 90
        2
102
RTVSPost2010PropOp53
 70
     1
102
RTVSPost2010Prop54
  1
strokes_ogs.tif
102
RTVSPost2010PropOp54
 70
     1
102
RTVSPost2010Prop55
280
     0
102
RTVSPost2010PropOp55
 70
     1
102
RTVSPost2010Prop56
140
1.0
102
RTVSPost2010PropOp56
 70
     1
102
RTVSPost2010Prop57
140
1.0
102
RTVSPost2010PropOp57
 70
     1
  0
XRECORD
  5
1F5
102
{ACAD_REACTORS
330
1F4
102
}
330
1F4
100
AcDbXrecord
280
     1
102
RTVSPropertyOp0
 70
     1
102
RTVSPropertyOp1
 70
     1
102
RTVSPropertyOp2
 70
     1
102
RTVSPropertyOp3
 70
     1
102
RTVSPropertyOp4
 70
     1
102
RTVSPropertyOp5
 70
     1
102
RTVSPropertyOp6
 70
     1
102
RTVSPropertyOp7
 70
     1
102
RTVSPropertyOp8
 70
     1
102
RTVSPropertyOp9
 70
     1
102
RTVSPropertyOp10
 70
     1
102
RTVSPropertyOp11
 70
     1
102
RTVSPropertyOp12
 70
     1
102
RTVSPropertyOp13
 70
     1
102
RTVSPropertyOp14
 70
     1
102
RTVSPropertyOp15
 70
     1
102
RTVSPropertyOp16
 70
     1
102
RTVSPropertyOp17
 70
     1
102
RTVSPropertyOp18
 70
     1
102
RTVSPropertyOp19
 70
     1
102
RTVSPropertyOp20
 70
     1
102
RTVSPropertyOp21
 70
     1
102
RTVSPropertyOp22
 70
     1
102
RTVSPropertyOp23
 70
     1
102
RTVSPropertyOp24
 70
     1
102
RTVSPropertyOp25
 70
     1
102
RTVSPropertyOp26
 70
     1
102
RTVSPropertyOp27
 70
     1
102
RTVSPropertyOp28
 70
     1
102
RTVSPropertyOp29
 70
     1
102
RTVSPropertyOp30
 70
     1
102
RTVSPropertyOp31
 70
     1
102
RTVSPropertyOp32
 70
     1
102
RTVSPropertyOp33
 70
     1
102
RTVSPropertyOp34
 70
     1
102
RTVSPropertyOp35
 70
     1
102
RTVSPropertyOp36
 70
     1
102
RTVSPropertyOp37
 70
     1
102
RTVSPropertyOp38
 70
     1
102
RTVSPropertyOp39
 70
     1
102
RTVSPropertyOp40
 70
     1
102
RTVSPropertyOp41
 70
     1
102
RTVSPropertyOp42
 70
     1
102
RTVSPropertyOp43
 70
     1
102
RTVSPropertyOp44
 70
     1
102
RTVSPropertyOp45
 70
     1
102
RTVSPropertyOp46
 70
     1
102
RTVSPropertyOp47
 70
     1
102
RTVSPropertyOp48
 70
     1
102
RTVSPropertyOp49
 70
     1
102
RTVSPropertyOp50
 70
     1
102
RTVSPropertyOp51
 70
     0
102
RTVSPropertyOp52
 70
     0
102
RTVSPropertyOp53
 70
     1
102
RTVSPropertyOp54
 70
     1
102
RTVSPropertyOp55
 70
     1
102
RTVSPropertyOp56
 70
     1
102
RTVSPropertyOp57
 70
     1
102
RTVSPost2010Prop28
280
     0
102
RTVSPost2010PropOp28
 70
     1
102
RTVSPost2010Prop29
280
     1
102
RTVSPost2010PropOp29
 70
     1
102
RTVSPost2010Prop30
280
     1
102
RTVSPost2010PropOp30
 70
     1
102
RTVSPost2010Prop31
280
     0
102
RTVSPost2010PropOp31
 70
     1
102
RTVSPost2010Prop32
280
     0
102
RTVSPost2010PropOp32
 70
     1
102
RTVSPost2010Prop33
280
     0
102
RTVSPost2010PropOp33
 70
     1
102
RTVSPost2010Prop34
280
     0
102
RTVSPost2010PropOp34
 70
     1
102
RTVSPost2010Prop35
280
     0
102
RTVSPost2010PropOp35
 70
     1
102
RTVSPost2010Prop36
280
     0
102
RTVSPost2010PropOp36
 70
     1
102
RTVSPost2010Prop37
 90
       50
102
RTVSPost2010PropOp37
 70
     1
102
RTVSPost2010Prop38
140
0.0
102
RTVSPost2010PropOp38
 70
     1
102
RTVSPost2010Prop39
140
1.0
102
RTVSPost2010PropOp39
 70
     1
102
RTVSPost2010Prop40
 90
        0
102
RTVSPost2010PropOp40
 70
     1
102
RTVSPost2010Prop41ColorIndex
 90
      178
102
RTVSPost2010Prop41ColorRGB
 90
        0
102
RTVSPost2010PropOp41
 70
     1
102
RTVSPost2010Prop42
 90
       50
102
RTVSPost2010PropOp42
 70
     1
102
RTVSPost2010Prop43
 90
        3
102
RTVSPost2010PropOp43
 70
     1
102
RTVSPost2010Prop44ColorIndex
 90
        5
102
RTVSPost2010Prop44ColorRGB
 90
      255
102
RTVSPost2010PropOp44
 70
     1
102
RTVSPost2010Prop45
280
     0
102
RTVSPost2010PropOp45
 70
     1
102
RTVSPost2010Prop46
 90
       50
102
RTVSPost2010PropOp46
 70
     1
102
RTVSPost2010Prop47
 90
       50
102
RTVSPost2010PropOp47
 70
     1
102
RTVSPost2010Prop48
 90
       50
102
RTVSPost2010PropOp48
 70
     1
102
RTVSPost2010Prop49
280
     0
102
RTVSPost2010PropOp49
 70
     1
102
RTVSPost2010Prop50
 90
       50
102
RTVSPost2010PropOp50
 70
     1
102
RTVSPost2010Prop51ColorIndex
 90
      256
102
RTVSPost2010Prop51ColorRGB
 90
-16777216
102
RTVSPost2010PropOp51
 70
     0
102
RTVSPost2010Prop52
140
1.0
102
RTVSPost2010PropOp52
 70
     0
102
RTVSPost2010Prop53
 90
        2
102
RTVSPost2010PropOp53
 70
     1
102
RTVSPost2010Prop54
  1
strokes_ogs.tif
102
RTVSPost2010PropOp54
 70
     1
102
RTVSPost2010Prop55
280
     0
102
RTVSPost2010PropOp55
 70
     1
102
RTVSPost2010Prop56
140
1.0
102
RTVSPost2010PropOp56
 70
     1
102
RTVSPost2010Prop57
140
1.0
102
RTVSPost2010PropOp57
 70
     1
  0
XRECORD
  5
1E9
102
{ACAD_REACTORS
330
1E8
102
}
330
1E8
100
AcDbXrecord
280
     1
102
RTVSPropertyOp0
 70
     1
102
RTVSPropertyOp1
 70
     1
102
RTVSPropertyOp2
 70
     1
102
RTVSPropertyOp3
 70
     1
102
RTVSPropertyOp4
 70
     1
102
RTVSPropertyOp5
 70
     1
102
RTVSPropertyOp6
 70
     1
102
RTVSPropertyOp7
 70
     1
102
RTVSPropertyOp8
 70
     1
102
RTVSPropertyOp9
 70
     1
102
RTVSPropertyOp10
 70
     1
102
RTVSPropertyOp11
 70
     1
102
RTVSPropertyOp12
 70
     1
102
RTVSPropertyOp13
 70
     1
102
RTVSPropertyOp14
 70
     1
102
RTVSPropertyOp15
 70
     1
102
RTVSPropertyOp16
 70
     1
102
RTVSPropertyOp17
 70
     1
102
RTVSPropertyOp18
 70
     1
102
RTVSPropertyOp19
 70
     1
102
RTVSPropertyOp20
 70
     1
102
RTVSPropertyOp21
 70
     1
102
RTVSPropertyOp22
 70
     1
102
RTVSPropertyOp23
 70
     1
102
RTVSPropertyOp24
 70
     1
102
RTVSPropertyOp25
 70
     1
102
RTVSPropertyOp26
 70
     1
102
RTVSPropertyOp27
 70
     1
102
RTVSPropertyOp28
 70
     1
102
RTVSPropertyOp29
 70
     1
102
RTVSPropertyOp30
 70
     1
102
RTVSPropertyOp31
 70
     1
102
RTVSPropertyOp32
 70
     1
102
RTVSPropertyOp33
 70
     1
102
RTVSPropertyOp34
 70
     1
102
RTVSPropertyOp35
 70
     1
102
RTVSPropertyOp36
 70
     1
102
RTVSPropertyOp37
 70
     1
102
RTVSPropertyOp38
 70
     1
102
RTVSPropertyOp39
 70
     1
102
RTVSPropertyOp40
 70
     1
102
RTVSPropertyOp41
 70
     1
102
RTVSPropertyOp42
 70
     1
102
RTVSPropertyOp43
 70
     1
102
RTVSPropertyOp44
 70
     1
102
RTVSPropertyOp45
 70
     1
102
RTVSPropertyOp46
 70
     1
102
RTVSPropertyOp47
 70
     1
102
RTVSPropertyOp48
 70
     1
102
RTVSPropertyOp49
 70
     1
102
RTVSPropertyOp50
 70
     1
102
RTVSPropertyOp51
 70
     0
102
RTVSPropertyOp52
 70
     0
102
RTVSPropertyOp53
 70
     1
102
RTVSPropertyOp54
 70
     1
102
RTVSPropertyOp55
 70
     1
102
RTVSPropertyOp56
 70
     1
102
RTVSPropertyOp57
 70
     1
102
RTVSPost2010Prop28
280
     0
102
RTVSPost2010PropOp28
 70
     1
102
RTVSPost2010Prop29
280
     1
102
RTVSPost2010PropOp29
 70
     1
102
RTVSPost2010Prop30
280
     1
102
RTVSPost2010PropOp30
 70
     1
102
RTVSPost2010Prop31
280
     0
102
RTVSPost2010PropOp31
 70
     1
102
RTVSPost2010Prop32
280
     0
102
RTVSPost2010PropOp32
 70
     1
102
RTVSPost2010Prop33
280
     0
102
RTVSPost2010PropOp33
 70
     1
102
RTVSPost2010Prop34
280
     0
102
RTVSPost2010PropOp34
 70
     1
102
RTVSPost2010Prop35
280
     0
102
RTVSPost2010PropOp35
 70
     1
102
RTVSPost2010Prop36
280
     0
102
RTVSPost2010PropOp36
 70
     1
102
RTVSPost2010Prop37
 90
       50
102
RTVSPost2010PropOp37
 70
     1
102
RTVSPost2010Prop38
140
0.0
102
RTVSPost2010PropOp38
 70
     1
102
RTVSPost2010Prop39
140
1.0
102
RTVSPost2010PropOp39
 70
     1
102
RTVSPost2010Prop40
 90
        0
102
RTVSPost2010PropOp40
 70
     1
102
RTVSPost2010Prop41ColorIndex
 90
      178
102
RTVSPost2010Prop41ColorRGB
 90
        0
102
RTVSPost2010PropOp41
 70
     1
102
RTVSPost2010Prop42
 90
       50
102
RTVSPost2010PropOp42
 70
     1
102
RTVSPost2010Prop43
 90
        3
102
RTVSPost2010PropOp43
 70
     1
102
RTVSPost2010Prop44ColorIndex
 90
        5
102
RTVSPost2010Prop44ColorRGB
 90
      255
102
RTVSPost2010PropOp44
 70
     1
102
RTVSPost2010Prop45
280
     0
102
RTVSPost2010PropOp45
 70
     1
102
RTVSPost2010Prop46
 90
       50
102
RTVSPost2010PropOp46
 70
     1
102
RTVSPost2010Prop47
 90
       50
102
RTVSPost2010PropOp47
 70
     1
102
RTVSPost2010Prop48
 90
       50
102
RTVSPost2010PropOp48
 70
     1
102
RTVSPost2010Prop49
280
     0
102
RTVSPost2010PropOp49
 70
     1
102
RTVSPost2010Prop50
 90
       50
102
RTVSPost2010PropOp50
 70
     1
102
RTVSPost2010Prop51ColorIndex
 90
      256
102
RTVSPost2010Prop51ColorRGB
 90
-16777216
102
RTVSPost2010PropOp51
 70
     0
102
RTVSPost2010Prop52
140
1.0
102
RTVSPost2010PropOp52
 70
     0
102
RTVSPost2010Prop53
 90
        2
102
RTVSPost2010PropOp53
 70
     1
102
RTVSPost2010Prop54
  1
strokes_ogs.tif
102
RTVSPost2010PropOp54
 70
     1
102
RTVSPost2010Prop55
280
     0
102
RTVSPost2010PropOp55
 70
     1
102
RTVSPost2010Prop56
140
1.0
102
RTVSPost2010PropOp56
 70
     1
102
RTVSPost2010Prop57
140
1.0
102
RTVSPost2010PropOp57
 70
     1
  0
XRECORD
  5
1EB
102
{ACAD_REACTORS
330
1EA
102
}
330
1EA
100
AcDbXrecord
280
     1
102
RTVSPropertyOp0
 70
     1
102
RTVSPropertyOp1
 70
     1
102
RTVSPropertyOp2
 70
     1
102
RTVSPropertyOp3
 70
     1
102
RTVSPropertyOp4
 70
     1
102
RTVSPropertyOp5
 70
     1
102
RTVSPropertyOp6
 70
     1
102
RTVSPropertyOp7
 70
     1
102
RTVSPropertyOp8
 70
     1
102
RTVSPropertyOp9
 70
     1
102
RTVSPropertyOp10
 70
     1
102
RTVSPropertyOp11
 70
     1
102
RTVSPropertyOp12
 70
     1
102
RTVSPropertyOp13
 70
     1
102
RTVSPropertyOp14
 70
     1
102
RTVSPropertyOp15
 70
     1
102
RTVSPropertyOp16
 70
     1
102
RTVSPropertyOp17
 70
     1
102
RTVSPropertyOp18
 70
     1
102
RTVSPropertyOp19
 70
     1
102
RTVSPropertyOp20
 70
     1
102
RTVSPropertyOp21
 70
     1
102
RTVSPropertyOp22
 70
     1
102
RTVSPropertyOp23
 70
     1
102
RTVSPropertyOp24
 70
     1
102
RTVSPropertyOp25
 70
     1
102
RTVSPropertyOp26
 70
     1
102
RTVSPropertyOp27
 70
     1
102
RTVSPropertyOp28
 70
     1
102
RTVSPropertyOp29
 70
     1
102
RTVSPropertyOp30
 70
     1
102
RTVSPropertyOp31
 70
     1
102
RTVSPropertyOp32
 70
     1
102
RTVSPropertyOp33
 70
     1
102
RTVSPropertyOp34
 70
     1
102
RTVSPropertyOp35
 70
     1
102
RTVSPropertyOp36
 70
     1
102
RTVSPropertyOp37
 70
     1
102
RTVSPropertyOp38
 70
     1
102
RTVSPropertyOp39
 70
     1
102
RTVSPropertyOp40
 70
     1
102
RTVSPropertyOp41
 70
     1
102
RTVSPropertyOp42
 70
     1
102
RTVSPropertyOp43
 70
     1
102
RTVSPropertyOp44
 70
     1
102
RTVSPropertyOp45
 70
     1
102
RTVSPropertyOp46
 70
     1
102
RTVSPropertyOp47
 70
     1
102
RTVSPropertyOp48
 70
     1
102
RTVSPropertyOp49
 70
     1
102
RTVSPropertyOp50
 70
     1
102
RTVSPropertyOp51
 70
     0
102
RTVSPropertyOp52
 70
     0
102
RTVSPropertyOp53
 70
     1
102
RTVSPropertyOp54
 70
     1
102
RTVSPropertyOp55
 70
     1
102
RTVSPropertyOp56
 70
     1
102
RTVSPropertyOp57
 70
     1
102
RTVSPost2010Prop28
280
     0
102
RTVSPost2010PropOp28
 70
     1
102
RTVSPost2010Prop29
280
     1
102
RTVSPost2010PropOp29
 70
     1
102
RTVSPost2010Prop30
280
     1
102
RTVSPost2010PropOp30
 70
     1
102
RTVSPost2010Prop31
280
     0
102
RTVSPost2010PropOp31
 70
     1
102
RTVSPost2010Prop32
280
     0
102
RTVSPost2010PropOp32
 70
     1
102
RTVSPost2010Prop33
280
     0
102
RTVSPost2010PropOp33
 70
     1
102
RTVSPost2010Prop34
280
     0
102
RTVSPost2010PropOp34
 70
     1
102
RTVSPost2010Prop35
280
     0
102
RTVSPost2010PropOp35
 70
     1
102
RTVSPost2010Prop36
280
     0
102
RTVSPost2010PropOp36
 70
     1
102
RTVSPost2010Prop37
 90
       50
102
RTVSPost2010PropOp37
 70
     1
102
RTVSPost2010Prop38
140
0.0
102
RTVSPost2010PropOp38
 70
     1
102
RTVSPost2010Prop39
140
1.0
102
RTVSPost2010PropOp39
 70
     1
102
RTVSPost2010Prop40
 90
        0
102
RTVSPost2010PropOp40
 70
     1
102
RTVSPost2010Prop41ColorIndex
 90
      178
102
RTVSPost2010Prop41ColorRGB
 90
        0
102
RTVSPost2010PropOp41
 70
     1
102
RTVSPost2010Prop42
 90
       50
102
RTVSPost2010PropOp42
 70
     1
102
RTVSPost2010Prop43
 90
        3
102
RTVSPost2010PropOp43
 70
     1
102
RTVSPost2010Prop44ColorIndex
 90
        5
102
RTVSPost2010Prop44ColorRGB
 90
      255
102
RTVSPost2010PropOp44
 70
     1
102
RTVSPost2010Prop45
280
     0
102
RTVSPost2010PropOp45
 70
     1
102
RTVSPost2010Prop46
 90
       50
102
RTVSPost2010PropOp46
 70
     1
102
RTVSPost2010Prop47
 90
       50
102
RTVSPost2010PropOp47
 70
     1
102
RTVSPost2010Prop48
 90
       50
102
RTVSPost2010PropOp48
 70
     1
102
RTVSPost2010Prop49
280
     0
102
RTVSPost2010PropOp49
 70
     1
102
RTVSPost2010Prop50
 90
       50
102
RTVSPost2010PropOp50
 70
     1
102
RTVSPost2010Prop51ColorIndex
 90
      256
102
RTVSPost2010Prop51ColorRGB
 90
-16777216
102
RTVSPost2010PropOp51
 70
     0
102
RTVSPost2010Prop52
140
1.0
102
RTVSPost2010PropOp52
 70
     0
102
RTVSPost2010Prop53
 90
        2
102
RTVSPost2010PropOp53
 70
     1
102
RTVSPost2010Prop54
  1
strokes_ogs.tif
102
RTVSPost2010PropOp54
 70
     1
102
RTVSPost2010Prop55
280
     0
102
RTVSPost2010PropOp55
 70
     1
102
RTVSPost2010Prop56
140
1.0
102
RTVSPost2010PropOp56
 70
     1
102
RTVSPost2010Prop57
140
1.0
102
RTVSPost2010PropOp57
 70
     1
  0
XRECORD
  5
1FB
102
{ACAD_REACTORS
330
1FA
102
}
330
1FA
100
AcDbXrecord
280
     1
102
RTVSPropertyOp0
 70
     0
102
RTVSPropertyOp1
 70
     0
102
RTVSPropertyOp2
 70
     0
102
RTVSPropertyOp3
 70
     0
102
RTVSPropertyOp4
 70
     0
102
RTVSPropertyOp5
 70
     0
102
RTVSPropertyOp6
 70
     0
102
RTVSPropertyOp7
 70
     0
102
RTVSPropertyOp8
 70
     0
102
RTVSPropertyOp9
 70
     0
102
RTVSPropertyOp10
 70
     0
102
RTVSPropertyOp11
 70
     0
102
RTVSPropertyOp12
 70
     0
102
RTVSPropertyOp13
 70
     0
102
RTVSPropertyOp14
 70
     2
102
RTVSPropertyOp15
 70
     0
102
RTVSPropertyOp16
 70
     0
102
RTVSPropertyOp17
 70
     0
102
RTVSPropertyOp18
 70
     0
102
RTVSPropertyOp19
 70
     0
102
RTVSPropertyOp20
 70
     0
102
RTVSPropertyOp21
 70
     0
102
RTVSPropertyOp22
 70
     0
102
RTVSPropertyOp23
 70
     0
102
RTVSPropertyOp24
 70
     0
102
RTVSPropertyOp25
 70
     0
102
RTVSPropertyOp26
 70
     0
102
RTVSPropertyOp27
 70
     0
102
RTVSPropertyOp28
 70
     0
102
RTVSPropertyOp29
 70
     0
102
RTVSPropertyOp30
 70
     0
102
RTVSPropertyOp31
 70
     0
102
RTVSPropertyOp32
 70
     0
102
RTVSPropertyOp33
 70
     0
102
RTVSPropertyOp34
 70
     0
102
RTVSPropertyOp35
 70
     0
102
RTVSPropertyOp36
 70
     0
102
RTVSPropertyOp37
 70
     0
102
RTVSPropertyOp38
 70
     0
102
RTVSPropertyOp39
 70
     0
102
RTVSPropertyOp40
 70
     0
102
RTVSPropertyOp41
 70
     0
102
RTVSPropertyOp42
 70
     0
102
RTVSPropertyOp43
 70
     0
102
RTVSPropertyOp44
 70
     0
102
RTVSPropertyOp45
 70
     0
102
RTVSPropertyOp46
 70
     0
102
RTVSPropertyOp47
 70
     0
102
RTVSPropertyOp48
 70
     0
102
RTVSPropertyOp49
 70
     0
102
RTVSPropertyOp50
 70
     0
102
RTVSPropertyOp51
 70
     0
102
RTVSPropertyOp52
 70
     0
102
RTVSPropertyOp53
 70
     0
102
RTVSPropertyOp54
 70
     0
102
RTVSPropertyOp55
 70
     0
102
RTVSPropertyOp56
 70
     0
102
RTVSPropertyOp57
 70
     0
102
RTVSPost2010Prop28
280
     0
102
RTVSPost2010PropOp28
 70
     0
102
RTVSPost2010Prop29
280
     1
102
RTVSPost2010PropOp29
 70
     0
102
RTVSPost2010Prop30
280
     1
102
RTVSPost2010PropOp30
 70
     0
102
RTVSPost2010Prop31
280
     0
102
RTVSPost2010PropOp31
 70
     0
102
RTVSPost2010Prop32
280
     0
102
RTVSPost2010PropOp32
 70
     0
102
RTVSPost2010Prop33
280
     0
102
RTVSPost2010PropOp33
 70
     0
102
RTVSPost2010Prop34
280
     0
102
RTVSPost2010PropOp34
 70
     0
102
RTVSPost2010Prop35
280
     0
102
RTVSPost2010PropOp35
 70
     0
102
RTVSPost2010Prop36
280
     0
102
RTVSPost2010PropOp36
 70
     0
102
RTVSPost2010Prop37
 90
       50
102
RTVSPost2010PropOp37
 70
     0
102
RTVSPost2010Prop38
140
0.0
102
RTVSPost2010PropOp38
 70
     0
102
RTVSPost2010Prop39
140
1.0
102
RTVSPost2010PropOp39
 70
     0
102
RTVSPost2010Prop40
 90
        0
102
RTVSPost2010PropOp40
 70
     0
102
RTVSPost2010Prop41ColorIndex
 90
      178
102
RTVSPost2010Prop41ColorRGB
 90
        0
102
RTVSPost2010PropOp41
 70
     0
102
RTVSPost2010Prop42
 90
       50
102
RTVSPost2010PropOp42
 70
     0
102
RTVSPost2010Prop43
 90
        3
102
RTVSPost2010PropOp43
 70
     0
102
RTVSPost2010Prop44ColorIndex
 90
        5
102
RTVSPost2010Prop44ColorRGB
 90
      255
102
RTVSPost2010PropOp44
 70
     0
102
RTVSPost2010Prop45
280
     0
102
RTVSPost2010PropOp45
 70
     0
102
RTVSPost2010Prop46
 90
       50
102
RTVSPost2010PropOp46
 70
     0
102
RTVSPost2010Prop47
 90
       50
102
RTVSPost2010PropOp47
 70
     0
102
RTVSPost2010Prop48
 90
       50
102
RTVSPost2010PropOp48
 70
     0
102
RTVSPost2010Prop49
280
     0
102
RTVSPost2010PropOp49
 70
     0
102
RTVSPost2010Prop50
 90
       50
102
RTVSPost2010PropOp50
 70
     0
102
RTVSPost2010Prop51ColorIndex
 90
      256
102
RTVSPost2010Prop51ColorRGB
 90
-16777216
102
RTVSPost2010PropOp51
 70
     0
102
RTVSPost2010Prop52
140
1.0
102
RTVSPost2010PropOp52
 70
     0
102
RTVSPost2010Prop53
 90
        2
102
RTVSPost2010PropOp53
 70
     0
102
RTVSPost2010Prop54
  1
strokes_ogs.tif
102
RTVSPost2010PropOp54
 70
     0
102
RTVSPost2010Prop55
280
     0
102
RTVSPost2010PropOp55
 70
     0
102
RTVSPost2010Prop56
140
1.0
102
RTVSPost2010PropOp56
 70
     0
102
RTVSPost2010Prop57
140
1.0
102
RTVSPost2010PropOp57
 70
     0
  0
XRECORD
  5
1F3
102
{ACAD_REACTORS
330
1F2
102
}
330
1F2
100
AcDbXrecord
280
     1
102
RTVSPropertyOp0
 70
     1
102
RTVSPropertyOp1
 70
     1
102
RTVSPropertyOp2
 70
     1
102
RTVSPropertyOp3
 70
     1
102
RTVSPropertyOp4
 70
     1
102
RTVSPropertyOp5
 70
     1
102
RTVSPropertyOp6
 70
     1
102
RTVSPropertyOp7
 70
     1
102
RTVSPropertyOp8
 70
     1
102
RTVSPropertyOp9
 70
     1
102
RTVSPropertyOp10
 70
     1
102
RTVSPropertyOp11
 70
     1
102
RTVSPropertyOp12
 70
     1
102
RTVSPropertyOp13
 70
     1
102
RTVSPropertyOp14
 70
     1
102
RTVSPropertyOp15
 70
     1
102
RTVSPropertyOp16
 70
     1
102
RTVSPropertyOp17
 70
     1
102
RTVSPropertyOp18
 70
     1
102
RTVSPropertyOp19
 70
     1
102
RTVSPropertyOp20
 70
     1
102
RTVSPropertyOp21
 70
     1
102
RTVSPropertyOp22
 70
     1
102
RTVSPropertyOp23
 70
     1
102
RTVSPropertyOp24
 70
     1
102
RTVSPropertyOp25
 70
     1
102
RTVSPropertyOp26
 70
     1
102
RTVSPropertyOp27
 70
     1
102
RTVSPropertyOp28
 70
     1
102
RTVSPropertyOp29
 70
     1
102
RTVSPropertyOp30
 70
     1
102
RTVSPropertyOp31
 70
     1
102
RTVSPropertyOp32
 70
     1
102
RTVSPropertyOp33
 70
     1
102
RTVSPropertyOp34
 70
     1
102
RTVSPropertyOp35
 70
     1
102
RTVSPropertyOp36
 70
     1
102
RTVSPropertyOp37
 70
     1
102
RTVSPropertyOp38
 70
     1
102
RTVSPropertyOp39
 70
     1
102
RTVSPropertyOp40
 70
     1
102
RTVSPropertyOp41
 70
     1
102
RTVSPropertyOp42
 70
     1
102
RTVSPropertyOp43
 70
     1
102
RTVSPropertyOp44
 70
     1
102
RTVSPropertyOp45
 70
     1
102
RTVSPropertyOp46
 70
     1
102
RTVSPropertyOp47
 70
     1
102
RTVSPropertyOp48
 70
     1
102
RTVSPropertyOp49
 70
     1
102
RTVSPropertyOp50
 70
     1
102
RTVSPropertyOp51
 70
     0
102
RTVSPropertyOp52
 70
     0
102
RTVSPropertyOp53
 70
     1
102
RTVSPropertyOp54
 70
     1
102
RTVSPropertyOp55
 70
     1
102
RTVSPropertyOp56
 70
     1
102
RTVSPropertyOp57
 70
     1
102
RTVSPost2010Prop28
280
     0
102
RTVSPost2010PropOp28
 70
     1
102
RTVSPost2010Prop29
280
     1
102
RTVSPost2010PropOp29
 70
     1
102
RTVSPost2010Prop30
280
     1
102
RTVSPost2010PropOp30
 70
     1
102
RTVSPost2010Prop31
280
     0
102
RTVSPost2010PropOp31
 70
     1
102
RTVSPost2010Prop32
280
     0
102
RTVSPost2010PropOp32
 70
     1
102
RTVSPost2010Prop33
280
     0
102
RTVSPost2010PropOp33
 70
     1
102
RTVSPost2010Prop34
280
     0
102
RTVSPost2010PropOp34
 70
     1
102
RTVSPost2010Prop35
280
     0
102
RTVSPost2010PropOp35
 70
     1
102
RTVSPost2010Prop36
280
     0
102
RTVSPost2010PropOp36
 70
     1
102
RTVSPost2010Prop37
 90
       50
102
RTVSPost2010PropOp37
 70
     1
102
RTVSPost2010Prop38
140
0.0
102
RTVSPost2010PropOp38
 70
     1
102
RTVSPost2010Prop39
140
1.0
102
RTVSPost2010PropOp39
 70
     1
102
RTVSPost2010Prop40
 90
        0
102
RTVSPost2010PropOp40
 70
     1
102
RTVSPost2010Prop41ColorIndex
 90
      178
102
RTVSPost2010Prop41ColorRGB
 90
        0
102
RTVSPost2010PropOp41
 70
     1
102
RTVSPost2010Prop42
 90
       50
102
RTVSPost2010PropOp42
 70
     1
102
RTVSPost2010Prop43
 90
        3
102
RTVSPost2010PropOp43
 70
     1
102
RTVSPost2010Prop44ColorIndex
 90
        5
102
RTVSPost2010Prop44ColorRGB
 90
      255
102
RTVSPost2010PropOp44
 70
     1
102
RTVSPost2010Prop45
280
     0
102
RTVSPost2010PropOp45
 70
     1
102
RTVSPost2010Prop46
 90
       50
102
RTVSPost2010PropOp46
 70
     1
102
RTVSPost2010Prop47
 90
       50
102
RTVSPost2010PropOp47
 70
     1
102
RTVSPost2010Prop48
 90
       50
102
RTVSPost2010PropOp48
 70
     1
102
RTVSPost2010Prop49
280
     0
102
RTVSPost2010PropOp49
 70
     1
102
RTVSPost2010Prop50
 90
       50
102
RTVSPost2010PropOp50
 70
     1
102
RTVSPost2010Prop51ColorIndex
 90
      256
102
RTVSPost2010Prop51ColorRGB
 90
-16777216
102
RTVSPost2010PropOp51
 70
     0
102
RTVSPost2010Prop52
140
1.0
102
RTVSPost2010PropOp52
 70
     0
102
RTVSPost2010Prop53
 90
        2
102
RTVSPost2010PropOp53
 70
     1
102
RTVSPost2010Prop54
  1
strokes_ogs.tif
102
RTVSPost2010PropOp54
 70
     1
102
RTVSPost2010Prop55
280
     0
102
RTVSPost2010PropOp55
 70
     1
102
RTVSPost2010Prop56
140
1.0
102
RTVSPost2010PropOp56
 70
     1
102
RTVSPost2010Prop57
140
1.0
102
RTVSPost2010PropOp57
 70
     1
  0
XRECORD
  5
1D7
102
{ACAD_REACTORS
330
1D6
102
}
330
1D6
100
AcDbXrecord
280
     1
102
RTVSPropertyOp0
 70
     1
102
RTVSPropertyOp1
 70
     1
102
RTVSPropertyOp2
 70
     1
102
RTVSPropertyOp3
 70
     1
102
RTVSPropertyOp4
 70
     1
102
RTVSPropertyOp5
 70
     1
102
RTVSPropertyOp6
 70
     1
102
RTVSPropertyOp7
 70
     1
102
RTVSPropertyOp8
 70
     1
102
RTVSPropertyOp9
 70
     1
102
RTVSPropertyOp10
 70
     1
102
RTVSPropertyOp11
 70
     1
102
RTVSPropertyOp12
 70
     1
102
RTVSPropertyOp13
 70
     1
102
RTVSPropertyOp14
 70
     1
102
RTVSPropertyOp15
 70
     1
102
RTVSPropertyOp16
 70
     1
102
RTVSPropertyOp17
 70
     1
102
RTVSPropertyOp18
 70
     1
102
RTVSPropertyOp19
 70
     1
102
RTVSPropertyOp20
 70
     1
102
RTVSPropertyOp21
 70
     1
102
RTVSPropertyOp22
 70
     1
102
RTVSPropertyOp23
 70
     1
102
RTVSPropertyOp24
 70
     1
102
RTVSPropertyOp25
 70
     1
102
RTVSPropertyOp26
 70
     1
102
RTVSPropertyOp27
 70
     1
102
RTVSPropertyOp28
 70
     1
102
RTVSPropertyOp29
 70
     1
102
RTVSPropertyOp30
 70
     1
102
RTVSPropertyOp31
 70
     1
102
RTVSPropertyOp32
 70
     1
102
RTVSPropertyOp33
 70
     1
102
RTVSPropertyOp34
 70
     1
102
RTVSPropertyOp35
 70
     1
102
RTVSPropertyOp36
 70
     1
102
RTVSPropertyOp37
 70
     1
102
RTVSPropertyOp38
 70
     1
102
RTVSPropertyOp39
 70
     1
102
RTVSPropertyOp40
 70
     1
102
RTVSPropertyOp41
 70
     1
102
RTVSPropertyOp42
 70
     1
102
RTVSPropertyOp43
 70
     1
102
RTVSPropertyOp44
 70
     1
102
RTVSPropertyOp45
 70
     1
102
RTVSPropertyOp46
 70
     1
102
RTVSPropertyOp47
 70
     1
102
RTVSPropertyOp48
 70
     1
102
RTVSPropertyOp49
 70
     1
102
RTVSPropertyOp50
 70
     1
102
RTVSPropertyOp51
 70
     0
102
RTVSPropertyOp52
 70
     0
102
RTVSPropertyOp53
 70
     1
102
RTVSPropertyOp54
 70
     1
102
RTVSPropertyOp55
 70
     1
102
RTVSPropertyOp56
 70
     1
102
RTVSPropertyOp57
 70
     1
102
RTVSPost2010Prop28
280
     0
102
RTVSPost2010PropOp28
 70
     1
102
RTVSPost2010Prop29
280
     1
102
RTVSPost2010PropOp29
 70
     1
102
RTVSPost2010Prop30
280
     1
102
RTVSPost2010PropOp30
 70
     1
102
RTVSPost2010Prop31
280
     0
102
RTVSPost2010PropOp31
 70
     1
102
RTVSPost2010Prop32
280
     0
102
RTVSPost2010PropOp32
 70
     1
102
RTVSPost2010Prop33
280
     0
102
RTVSPost2010PropOp33
 70
     1
102
RTVSPost2010Prop34
280
     0
102
RTVSPost2010PropOp34
 70
     1
102
RTVSPost2010Prop35
280
     0
102
RTVSPost2010PropOp35
 70
     1
102
RTVSPost2010Prop36
280
     0
102
RTVSPost2010PropOp36
 70
     1
102
RTVSPost2010Prop37
 90
       50
102
RTVSPost2010PropOp37
 70
     1
102
RTVSPost2010Prop38
140
0.0
102
RTVSPost2010PropOp38
 70
     1
102
RTVSPost2010Prop39
140
1.0
102
RTVSPost2010PropOp39
 70
     1
102
RTVSPost2010Prop40
 90
        0
102
RTVSPost2010PropOp40
 70
     1
102
RTVSPost2010Prop41ColorIndex
 90
      178
102
RTVSPost2010Prop41ColorRGB
 90
        0
102
RTVSPost2010PropOp41
 70
     1
102
RTVSPost2010Prop42
 90
       50
102
RTVSPost2010PropOp42
 70
     1
102
RTVSPost2010Prop43
 90
        3
102
RTVSPost2010PropOp43
 70
     1
102
RTVSPost2010Prop44ColorIndex
 90
        5
102
RTVSPost2010Prop44ColorRGB
 90
      255
102
RTVSPost2010PropOp44
 70
     1
102
RTVSPost2010Prop45
280
     0
102
RTVSPost2010PropOp45
 70
     1
102
RTVSPost2010Prop46
 90
       50
102
RTVSPost2010PropOp46
 70
     1
102
RTVSPost2010Prop47
 90
       50
102
RTVSPost2010PropOp47
 70
     1
102
RTVSPost2010Prop48
 90
       50
102
RTVSPost2010PropOp48
 70
     1
102
RTVSPost2010Prop49
280
     0
102
RTVSPost2010PropOp49
 70
     1
102
RTVSPost2010Prop50
 90
       50
102
RTVSPost2010PropOp50
 70
     1
102
RTVSPost2010Prop51ColorIndex
 90
      256
102
RTVSPost2010Prop51ColorRGB
 90
-16777216
102
RTVSPost2010PropOp51
 70
     0
102
RTVSPost2010Prop52
140
1.0
102
RTVSPost2010PropOp52
 70
     0
102
RTVSPost2010Prop53
 90
        2
102
RTVSPost2010PropOp53
 70
     1
102
RTVSPost2010Prop54
  1
strokes_ogs.tif
102
RTVSPost2010PropOp54
 70
     1
102
RTVSPost2010Prop55
280
     0
102
RTVSPost2010PropOp55
 70
     1
102
RTVSPost2010Prop56
140
1.0
102
RTVSPost2010PropOp56
 70
     1
102
RTVSPost2010Prop57
140
1.0
102
RTVSPost2010PropOp57
 70
     1
  0
XRECORD
  5
1D9
102
{ACAD_REACTORS
330
1D8
102
}
330
1D8
100
AcDbXrecord
280
     1
102
RTVSPropertyOp0
 70
     1
102
RTVSPropertyOp1
 70
     1
102
RTVSPropertyOp2
 70
     1
102
RTVSPropertyOp3
 70
     1
102
RTVSPropertyOp4
 70
     1
102
RTVSPropertyOp5
 70
     1
102
RTVSPropertyOp6
 70
     1
102
RTVSPropertyOp7
 70
     1
102
RTVSPropertyOp8
 70
     1
102
RTVSPropertyOp9
 70
     1
102
RTVSPropertyOp10
 70
     1
102
RTVSPropertyOp11
 70
     1
102
RTVSPropertyOp12
 70
     1
102
RTVSPropertyOp13
 70
     1
102
RTVSPropertyOp14
 70
     1
102
RTVSPropertyOp15
 70
     1
102
RTVSPropertyOp16
 70
     1
102
RTVSPropertyOp17
 70
     1
102
RTVSPropertyOp18
 70
     1
102
RTVSPropertyOp19
 70
     1
102
RTVSPropertyOp20
 70
     1
102
RTVSPropertyOp21
 70
     1
102
RTVSPropertyOp22
 70
     1
102
RTVSPropertyOp23
 70
     1
102
RTVSPropertyOp24
 70
     1
102
RTVSPropertyOp25
 70
     1
102
RTVSPropertyOp26
 70
     1
102
RTVSPropertyOp27
 70
     1
102
RTVSPropertyOp28
 70
     1
102
RTVSPropertyOp29
 70
     1
102
RTVSPropertyOp30
 70
     1
102
RTVSPropertyOp31
 70
     1
102
RTVSPropertyOp32
 70
     1
102
RTVSPropertyOp33
 70
     1
102
RTVSPropertyOp34
 70
     1
102
RTVSPropertyOp35
 70
     1
102
RTVSPropertyOp36
 70
     1
102
RTVSPropertyOp37
 70
     1
102
RTVSPropertyOp38
 70
     1
102
RTVSPropertyOp39
 70
     1
102
RTVSPropertyOp40
 70
     1
102
RTVSPropertyOp41
 70
     1
102
RTVSPropertyOp42
 70
     1
102
RTVSPropertyOp43
 70
     1
102
RTVSPropertyOp44
 70
     1
102
RTVSPropertyOp45
 70
     1
102
RTVSPropertyOp46
 70
     1
102
RTVSPropertyOp47
 70
     1
102
RTVSPropertyOp48
 70
     1
102
RTVSPropertyOp49
 70
     1
102
RTVSPropertyOp50
 70
     1
102
RTVSPropertyOp51
 70
     0
102
RTVSPropertyOp52
 70
     0
102
RTVSPropertyOp53
 70
     1
102
RTVSPropertyOp54
 70
     1
102
RTVSPropertyOp55
 70
     1
102
RTVSPropertyOp56
 70
     1
102
RTVSPropertyOp57
 70
     1
102
RTVSPost2010Prop28
280
     0
102
RTVSPost2010PropOp28
 70
     1
102
RTVSPost2010Prop29
280
     1
102
RTVSPost2010PropOp29
 70
     1
102
RTVSPost2010Prop30
280
     1
102
RTVSPost2010PropOp30
 70
     1
102
RTVSPost2010Prop31
280
     0
102
RTVSPost2010PropOp31
 70
     1
102
RTVSPost2010Prop32
280
     0
102
RTVSPost2010PropOp32
 70
     1
102
RTVSPost2010Prop33
280
     0
102
RTVSPost2010PropOp33
 70
     1
102
RTVSPost2010Prop34
280
     0
102
RTVSPost2010PropOp34
 70
     1
102
RTVSPost2010Prop35
280
     0
102
RTVSPost2010PropOp35
 70
     1
102
RTVSPost2010Prop36
280
     0
102
RTVSPost2010PropOp36
 70
     1
102
RTVSPost2010Prop37
 90
       50
102
RTVSPost2010PropOp37
 70
     1
102
RTVSPost2010Prop38
140
0.0
102
RTVSPost2010PropOp38
 70
     1
102
RTVSPost2010Prop39
140
1.0
102
RTVSPost2010PropOp39
 70
     1
102
RTVSPost2010Prop40
 90
        0
102
RTVSPost2010PropOp40
 70
     1
102
RTVSPost2010Prop41ColorIndex
 90
      178
102
RTVSPost2010Prop41ColorRGB
 90
        0
102
RTVSPost2010PropOp41
 70
     1
102
RTVSPost2010Prop42
 90
       50
102
RTVSPost2010PropOp42
 70
     1
102
RTVSPost2010Prop43
 90
        3
102
RTVSPost2010PropOp43
 70
     1
102
RTVSPost2010Prop44ColorIndex
 90
        5
102
RTVSPost2010Prop44ColorRGB
 90
      255
102
RTVSPost2010PropOp44
 70
     1
102
RTVSPost2010Prop45
280
     0
102
RTVSPost2010PropOp45
 70
     1
102
RTVSPost2010Prop46
 90
       50
102
RTVSPost2010PropOp46
 70
     1
102
RTVSPost2010Prop47
 90
       50
102
RTVSPost2010PropOp47
 70
     1
102
RTVSPost2010Prop48
 90
       50
102
RTVSPost2010PropOp48
 70
     1
102
RTVSPost2010Prop49
280
     0
102
RTVSPost2010PropOp49
 70
     1
102
RTVSPost2010Prop50
 90
       50
102
RTVSPost2010PropOp50
 70
     1
102
RTVSPost2010Prop51ColorIndex
 90
      256
102
RTVSPost2010Prop51ColorRGB
 90
-16777216
102
RTVSPost2010PropOp51
 70
     0
102
RTVSPost2010Prop52
140
1.0
102
RTVSPost2010PropOp52
 70
     0
102
RTVSPost2010Prop53
 90
        2
102
RTVSPost2010PropOp53
 70
     1
102
RTVSPost2010Prop54
  1
strokes_ogs.tif
102
RTVSPost2010PropOp54
 70
     1
102
RTVSPost2010Prop55
280
     0
102
RTVSPost2010PropOp55
 70
     1
102
RTVSPost2010Prop56
140
1.0
102
RTVSPost2010PropOp56
 70
     1
102
RTVSPost2010Prop57
140
1.0
102
RTVSPost2010PropOp57
 70
     1
  0
XRECORD
  5
1DB
102
{ACAD_REACTORS
330
1DA
102
}
330
1DA
100
AcDbXrecord
280
     1
102
RTVSPropertyOp0
 70
     1
102
RTVSPropertyOp1
 70
     1
102
RTVSPropertyOp2
 70
     1
102
RTVSPropertyOp3
 70
     1
102
RTVSPropertyOp4
 70
     1
102
RTVSPropertyOp5
 70
     1
102
RTVSPropertyOp6
 70
     1
102
RTVSPropertyOp7
 70
     1
102
RTVSPropertyOp8
 70
     1
102
RTVSPropertyOp9
 70
     1
102
RTVSPropertyOp10
 70
     1
102
RTVSPropertyOp11
 70
     1
102
RTVSPropertyOp12
 70
     1
102
RTVSPropertyOp13
 70
     1
102
RTVSPropertyOp14
 70
     1
102
RTVSPropertyOp15
 70
     1
102
RTVSPropertyOp16
 70
     1
102
RTVSPropertyOp17
 70
     1
102
RTVSPropertyOp18
 70
     1
102
RTVSPropertyOp19
 70
     1
102
RTVSPropertyOp20
 70
     1
102
RTVSPropertyOp21
 70
     1
102
RTVSPropertyOp22
 70
     1
102
RTVSPropertyOp23
 70
     1
102
RTVSPropertyOp24
 70
     1
102
RTVSPropertyOp25
 70
     1
102
RTVSPropertyOp26
 70
     1
102
RTVSPropertyOp27
 70
     1
102
RTVSPropertyOp28
 70
     1
102
RTVSPropertyOp29
 70
     1
102
RTVSPropertyOp30
 70
     1
102
RTVSPropertyOp31
 70
     1
102
RTVSPropertyOp32
 70
     1
102
RTVSPropertyOp33
 70
     1
102
RTVSPropertyOp34
 70
     1
102
RTVSPropertyOp35
 70
     1
102
RTVSPropertyOp36
 70
     1
102
RTVSPropertyOp37
 70
     1
102
RTVSPropertyOp38
 70
     1
102
RTVSPropertyOp39
 70
     1
102
RTVSPropertyOp40
 70
     1
102
RTVSPropertyOp41
 70
     1
102
RTVSPropertyOp42
 70
     1
102
RTVSPropertyOp43
 70
     1
102
RTVSPropertyOp44
 70
     1
102
RTVSPropertyOp45
 70
     1
102
RTVSPropertyOp46
 70
     1
102
RTVSPropertyOp47
 70
     1
102
RTVSPropertyOp48
 70
     1
102
RTVSPropertyOp49
 70
     1
102
RTVSPropertyOp50
 70
     1
102
RTVSPropertyOp51
 70
     0
102
RTVSPropertyOp52
 70
     0
102
RTVSPropertyOp53
 70
     1
102
RTVSPropertyOp54
 70
     1
102
RTVSPropertyOp55
 70
     1
102
RTVSPropertyOp56
 70
     1
102
RTVSPropertyOp57
 70
     1
102
RTVSPost2010Prop28
280
     0
102
RTVSPost2010PropOp28
 70
     1
102
RTVSPost2010Prop29
280
     1
102
RTVSPost2010PropOp29
 70
     1
102
RTVSPost2010Prop30
280
     1
102
RTVSPost2010PropOp30
 70
     1
102
RTVSPost2010Prop31
280
     0
102
RTVSPost2010PropOp31
 70
     1
102
RTVSPost2010Prop32
280
     0
102
RTVSPost2010PropOp32
 70
     1
102
RTVSPost2010Prop33
280
     0
102
RTVSPost2010PropOp33
 70
     1
102
RTVSPost2010Prop34
280
     0
102
RTVSPost2010PropOp34
 70
     1
102
RTVSPost2010Prop35
280
     0
102
RTVSPost2010PropOp35
 70
     1
102
RTVSPost2010Prop36
280
     0
102
RTVSPost2010PropOp36
 70
     1
102
RTVSPost2010Prop37
 90
       50
102
RTVSPost2010PropOp37
 70
     1
102
RTVSPost2010Prop38
140
0.0
102
RTVSPost2010PropOp38
 70
     1
102
RTVSPost2010Prop39
140
1.0
102
RTVSPost2010PropOp39
 70
     1
102
RTVSPost2010Prop40
 90
        0
102
RTVSPost2010PropOp40
 70
     1
102
RTVSPost2010Prop41ColorIndex
 90
      178
102
RTVSPost2010Prop41ColorRGB
 90
        0
102
RTVSPost2010PropOp41
 70
     1
102
RTVSPost2010Prop42
 90
       50
102
RTVSPost2010PropOp42
 70
     1
102
RTVSPost2010Prop43
 90
        3
102
RTVSPost2010PropOp43
 70
     1
102
RTVSPost2010Prop44ColorIndex
 90
        5
102
RTVSPost2010Prop44ColorRGB
 90
      255
102
RTVSPost2010PropOp44
 70
     1
102
RTVSPost2010Prop45
280
     0
102
RTVSPost2010PropOp45
 70
     1
102
RTVSPost2010Prop46
 90
       50
102
RTVSPost2010PropOp46
 70
     1
102
RTVSPost2010Prop47
 90
       50
102
RTVSPost2010PropOp47
 70
     1
102
RTVSPost2010Prop48
 90
       50
102
RTVSPost2010PropOp48
 70
     1
102
RTVSPost2010Prop49
280
     0
102
RTVSPost2010PropOp49
 70
     1
102
RTVSPost2010Prop50
 90
       50
102
RTVSPost2010PropOp50
 70
     1
102
RTVSPost2010Prop51ColorIndex
 90
      256
102
RTVSPost2010Prop51ColorRGB
 90
-16777216
102
RTVSPost2010PropOp51
 70
     0
102
RTVSPost2010Prop52
140
1.0
102
RTVSPost2010PropOp52
 70
     0
102
RTVSPost2010Prop53
 90
        2
102
RTVSPost2010PropOp53
 70
     1
102
RTVSPost2010Prop54
  1
strokes_ogs.tif
102
RTVSPost2010PropOp54
 70
     1
102
RTVSPost2010Prop55
280
     0
102
RTVSPost2010PropOp55
 70
     1
102
RTVSPost2010Prop56
140
1.0
102
RTVSPost2010PropOp56
 70
     1
102
RTVSPost2010Prop57
140
1.0
102
RTVSPost2010PropOp57
 70
     1
  0
XRECORD
  5
1DD
102
{ACAD_REACTORS
330
1DC
102
}
330
1DC
100
AcDbXrecord
280
     1
102
RTVSPropertyOp0
 70
     1
102
RTVSPropertyOp1
 70
     1
102
RTVSPropertyOp2
 70
     1
102
RTVSPropertyOp3
 70
     1
102
RTVSPropertyOp4
 70
     1
102
RTVSPropertyOp5
 70
     1
102
RTVSPropertyOp6
 70
     1
102
RTVSPropertyOp7
 70
     1
102
RTVSPropertyOp8
 70
     1
102
RTVSPropertyOp9
 70
     1
102
RTVSPropertyOp10
 70
     1
102
RTVSPropertyOp11
 70
     1
102
RTVSPropertyOp12
 70
     1
102
RTVSPropertyOp13
 70
     1
102
RTVSPropertyOp14
 70
     1
102
RTVSPropertyOp15
 70
     1
102
RTVSPropertyOp16
 70
     1
102
RTVSPropertyOp17
 70
     1
102
RTVSPropertyOp18
 70
     1
102
RTVSPropertyOp19
 70
     1
102
RTVSPropertyOp20
 70
     1
102
RTVSPropertyOp21
 70
     1
102
RTVSPropertyOp22
 70
     1
102
RTVSPropertyOp23
 70
     1
102
RTVSPropertyOp24
 70
     1
102
RTVSPropertyOp25
 70
     1
102
RTVSPropertyOp26
 70
     1
102
RTVSPropertyOp27
 70
     1
102
RTVSPropertyOp28
 70
     1
102
RTVSPropertyOp29
 70
     1
102
RTVSPropertyOp30
 70
     1
102
RTVSPropertyOp31
 70
     1
102
RTVSPropertyOp32
 70
     1
102
RTVSPropertyOp33
 70
     1
102
RTVSPropertyOp34
 70
     1
102
RTVSPropertyOp35
 70
     1
102
RTVSPropertyOp36
 70
     1
102
RTVSPropertyOp37
 70
     1
102
RTVSPropertyOp38
 70
     1
102
RTVSPropertyOp39
 70
     1
102
RTVSPropertyOp40
 70
     1
102
RTVSPropertyOp41
 70
     1
102
RTVSPropertyOp42
 70
     1
102
RTVSPropertyOp43
 70
     1
102
RTVSPropertyOp44
 70
     1
102
RTVSPropertyOp45
 70
     1
102
RTVSPropertyOp46
 70
     1
102
RTVSPropertyOp47
 70
     1
102
RTVSPropertyOp48
 70
     1
102
RTVSPropertyOp49
 70
     1
102
RTVSPropertyOp50
 70
     1
102
RTVSPropertyOp51
 70
     0
102
RTVSPropertyOp52
 70
     0
102
RTVSPropertyOp53
 70
     1
102
RTVSPropertyOp54
 70
     1
102
RTVSPropertyOp55
 70
     1
102
RTVSPropertyOp56
 70
     1
102
RTVSPropertyOp57
 70
     1
102
RTVSPost2010Prop28
280
     0
102
RTVSPost2010PropOp28
 70
     1
102
RTVSPost2010Prop29
280
     1
102
RTVSPost2010PropOp29
 70
     1
102
RTVSPost2010Prop30
280
     1
102
RTVSPost2010PropOp30
 70
     1
102
RTVSPost2010Prop31
280
     0
102
RTVSPost2010PropOp31
 70
     1
102
RTVSPost2010Prop32
280
     0
102
RTVSPost2010PropOp32
 70
     1
102
RTVSPost2010Prop33
280
     0
102
RTVSPost2010PropOp33
 70
     1
102
RTVSPost2010Prop34
280
     0
102
RTVSPost2010PropOp34
 70
     1
102
RTVSPost2010Prop35
280
     0
102
RTVSPost2010PropOp35
 70
     1
102
RTVSPost2010Prop36
280
     0
102
RTVSPost2010PropOp36
 70
     1
102
RTVSPost2010Prop37
 90
       50
102
RTVSPost2010PropOp37
 70
     1
102
RTVSPost2010Prop38
140
0.0
102
RTVSPost2010PropOp38
 70
     1
102
RTVSPost2010Prop39
140
1.0
102
RTVSPost2010PropOp39
 70
     1
102
RTVSPost2010Prop40
 90
        0
102
RTVSPost2010PropOp40
 70
     1
102
RTVSPost2010Prop41ColorIndex
 90
      178
102
RTVSPost2010Prop41ColorRGB
 90
        0
102
RTVSPost2010PropOp41
 70
     1
102
RTVSPost2010Prop42
 90
       50
102
RTVSPost2010PropOp42
 70
     1
102
RTVSPost2010Prop43
 90
        3
102
RTVSPost2010PropOp43
 70
     1
102
RTVSPost2010Prop44ColorIndex
 90
        5
102
RTVSPost2010Prop44ColorRGB
 90
      255
102
RTVSPost2010PropOp44
 70
     1
102
RTVSPost2010Prop45
280
     0
102
RTVSPost2010PropOp45
 70
     1
102
RTVSPost2010Prop46
 90
       50
102
RTVSPost2010PropOp46
 70
     1
102
RTVSPost2010Prop47
 90
       50
102
RTVSPost2010PropOp47
 70
     1
102
RTVSPost2010Prop48
 90
       50
102
RTVSPost2010PropOp48
 70
     1
102
RTVSPost2010Prop49
280
     0
102
RTVSPost2010PropOp49
 70
     1
102
RTVSPost2010Prop50
 90
       50
102
RTVSPost2010PropOp50
 70
     1
102
RTVSPost2010Prop51ColorIndex
 90
      256
102
RTVSPost2010Prop51ColorRGB
 90
-16777216
102
RTVSPost2010PropOp51
 70
     0
102
RTVSPost2010Prop52
140
1.0
102
RTVSPost2010PropOp52
 70
     0
102
RTVSPost2010Prop53
 90
        2
102
RTVSPost2010PropOp53
 70
     1
102
RTVSPost2010Prop54
  1
strokes_ogs.tif
102
RTVSPost2010PropOp54
 70
     1
102
RTVSPost2010Prop55
280
     0
102
RTVSPost2010PropOp55
 70
     1
102
RTVSPost2010Prop56
140
1.0
102
RTVSPost2010PropOp56
 70
     1
102
RTVSPost2010Prop57
140
1.0
102
RTVSPost2010PropOp57
 70
     1
  0
XRECORD
  5
1E3
102
{ACAD_REACTORS
330
1E2
102
}
330
1E2
100
AcDbXrecord
280
     1
102
RTVSPropertyOp0
 70
     1
102
RTVSPropertyOp1
 70
     1
102
RTVSPropertyOp2
 70
     1
102
RTVSPropertyOp3
 70
     1
102
RTVSPropertyOp4
 70
     1
102
RTVSPropertyOp5
 70
     1
102
RTVSPropertyOp6
 70
     1
102
RTVSPropertyOp7
 70
     1
102
RTVSPropertyOp8
 70
     1
102
RTVSPropertyOp9
 70
     1
102
RTVSPropertyOp10
 70
     1
102
RTVSPropertyOp11
 70
     1
102
RTVSPropertyOp12
 70
     1
102
RTVSPropertyOp13
 70
     1
102
RTVSPropertyOp14
 70
     1
102
RTVSPropertyOp15
 70
     1
102
RTVSPropertyOp16
 70
     1
102
RTVSPropertyOp17
 70
     1
102
RTVSPropertyOp18
 70
     1
102
RTVSPropertyOp19
 70
     1
102
RTVSPropertyOp20
 70
     1
102
RTVSPropertyOp21
 70
     1
102
RTVSPropertyOp22
 70
     1
102
RTVSPropertyOp23
 70
     1
102
RTVSPropertyOp24
 70
     1
102
RTVSPropertyOp25
 70
     1
102
RTVSPropertyOp26
 70
     1
102
RTVSPropertyOp27
 70
     1
102
RTVSPropertyOp28
 70
     1
102
RTVSPropertyOp29
 70
     1
102
RTVSPropertyOp30
 70
     1
102
RTVSPropertyOp31
 70
     1
102
RTVSPropertyOp32
 70
     1
102
RTVSPropertyOp33
 70
     1
102
RTVSPropertyOp34
 70
     1
102
RTVSPropertyOp35
 70
     1
102
RTVSPropertyOp36
 70
     1
102
RTVSPropertyOp37
 70
     1
102
RTVSPropertyOp38
 70
     1
102
RTVSPropertyOp39
 70
     1
102
RTVSPropertyOp40
 70
     1
102
RTVSPropertyOp41
 70
     1
102
RTVSPropertyOp42
 70
     1
102
RTVSPropertyOp43
 70
     1
102
RTVSPropertyOp44
 70
     1
102
RTVSPropertyOp45
 70
     1
102
RTVSPropertyOp46
 70
     1
102
RTVSPropertyOp47
 70
     1
102
RTVSPropertyOp48
 70
     1
102
RTVSPropertyOp49
 70
     1
102
RTVSPropertyOp50
 70
     1
102
RTVSPropertyOp51
 70
     0
102
RTVSPropertyOp52
 70
     0
102
RTVSPropertyOp53
 70
     1
102
RTVSPropertyOp54
 70
     1
102
RTVSPropertyOp55
 70
     1
102
RTVSPropertyOp56
 70
     1
102
RTVSPropertyOp57
 70
     1
102
RTVSPost2010Prop28
280
     0
102
RTVSPost2010PropOp28
 70
     1
102
RTVSPost2010Prop29
280
     1
102
RTVSPost2010PropOp29
 70
     1
102
RTVSPost2010Prop30
280
     1
102
RTVSPost2010PropOp30
 70
     1
102
RTVSPost2010Prop31
280
     0
102
RTVSPost2010PropOp31
 70
     1
102
RTVSPost2010Prop32
280
     0
102
RTVSPost2010PropOp32
 70
     1
102
RTVSPost2010Prop33
280
     0
102
RTVSPost2010PropOp33
 70
     1
102
RTVSPost2010Prop34
280
     0
102
RTVSPost2010PropOp34
 70
     1
102
RTVSPost2010Prop35
280
     0
102
RTVSPost2010PropOp35
 70
     1
102
RTVSPost2010Prop36
280
     0
102
RTVSPost2010PropOp36
 70
     1
102
RTVSPost2010Prop37
 90
       50
102
RTVSPost2010PropOp37
 70
     1
102
RTVSPost2010Prop38
140
0.0
102
RTVSPost2010PropOp38
 70
     1
102
RTVSPost2010Prop39
140
1.0
102
RTVSPost2010PropOp39
 70
     1
102
RTVSPost2010Prop40
 90
        0
102
RTVSPost2010PropOp40
 70
     1
102
RTVSPost2010Prop41ColorIndex
 90
      178
102
RTVSPost2010Prop41ColorRGB
 90
        0
102
RTVSPost2010PropOp41
 70
     1
102
RTVSPost2010Prop42
 90
       50
102
RTVSPost2010PropOp42
 70
     1
102
RTVSPost2010Prop43
 90
        3
102
RTVSPost2010PropOp43
 70
     1
102
RTVSPost2010Prop44ColorIndex
 90
        5
102
RTVSPost2010Prop44ColorRGB
 90
      255
102
RTVSPost2010PropOp44
 70
     1
102
RTVSPost2010Prop45
280
     0
102
RTVSPost2010PropOp45
 70
     1
102
RTVSPost2010Prop46
 90
       50
102
RTVSPost2010PropOp46
 70
     1
102
RTVSPost2010Prop47
 90
       50
102
RTVSPost2010PropOp47
 70
     1
102
RTVSPost2010Prop48
 90
       50
102
RTVSPost2010PropOp48
 70
     1
102
RTVSPost2010Prop49
280
     0
102
RTVSPost2010PropOp49
 70
     1
102
RTVSPost2010Prop50
 90
       50
102
RTVSPost2010PropOp50
 70
     1
102
RTVSPost2010Prop51ColorIndex
 90
      256
102
RTVSPost2010Prop51ColorRGB
 90
-16777216
102
RTVSPost2010PropOp51
 70
     0
102
RTVSPost2010Prop52
140
1.0
102
RTVSPost2010PropOp52
 70
     0
102
RTVSPost2010Prop53
 90
        2
102
RTVSPost2010PropOp53
 70
     1
102
RTVSPost2010Prop54
  1
strokes_ogs.tif
102
RTVSPost2010PropOp54
 70
     1
102
RTVSPost2010Prop55
280
     0
102
RTVSPost2010PropOp55
 70
     1
102
RTVSPost2010Prop56
140
1.0
102
RTVSPost2010PropOp56
 70
     1
102
RTVSPost2010Prop57
140
1.0
102
RTVSPost2010PropOp57
 70
     1
  0
XRECORD
  5
1F7
102
{ACAD_REACTORS
330
1F6
102
}
330
1F6
100
AcDbXrecord
280
     1
102
RTVSPropertyOp0
 70
     0
102
RTVSPropertyOp1
 70
     0
102
RTVSPropertyOp2
 70
     0
102
RTVSPropertyOp3
 70
     0
102
RTVSPropertyOp4
 70
     0
102
RTVSPropertyOp5
 70
     0
102
RTVSPropertyOp6
 70
     0
102
RTVSPropertyOp7
 70
     0
102
RTVSPropertyOp8
 70
     0
102
RTVSPropertyOp9
 70
     0
102
RTVSPropertyOp10
 70
     0
102
RTVSPropertyOp11
 70
     0
102
RTVSPropertyOp12
 70
     0
102
RTVSPropertyOp13
 70
     0
102
RTVSPropertyOp14
 70
     2
102
RTVSPropertyOp15
 70
     0
102
RTVSPropertyOp16
 70
     0
102
RTVSPropertyOp17
 70
     0
102
RTVSPropertyOp18
 70
     0
102
RTVSPropertyOp19
 70
     0
102
RTVSPropertyOp20
 70
     0
102
RTVSPropertyOp21
 70
     0
102
RTVSPropertyOp22
 70
     0
102
RTVSPropertyOp23
 70
     0
102
RTVSPropertyOp24
 70
     0
102
RTVSPropertyOp25
 70
     0
102
RTVSPropertyOp26
 70
     0
102
RTVSPropertyOp27
 70
     0
102
RTVSPropertyOp28
 70
     0
102
RTVSPropertyOp29
 70
     0
102
RTVSPropertyOp30
 70
     0
102
RTVSPropertyOp31
 70
     0
102
RTVSPropertyOp32
 70
     0
102
RTVSPropertyOp33
 70
     0
102
RTVSPropertyOp34
 70
     0
102
RTVSPropertyOp35
 70
     0
102
RTVSPropertyOp36
 70
     0
102
RTVSPropertyOp37
 70
     0
102
RTVSPropertyOp38
 70
     0
102
RTVSPropertyOp39
 70
     0
102
RTVSPropertyOp40
 70
     0
102
RTVSPropertyOp41
 70
     0
102
RTVSPropertyOp42
 70
     0
102
RTVSPropertyOp43
 70
     0
102
RTVSPropertyOp44
 70
     0
102
RTVSPropertyOp45
 70
     0
102
RTVSPropertyOp46
 70
     0
102
RTVSPropertyOp47
 70
     0
102
RTVSPropertyOp48
 70
     0
102
RTVSPropertyOp49
 70
     0
102
RTVSPropertyOp50
 70
     0
102
RTVSPropertyOp51
 70
     0
102
RTVSPropertyOp52
 70
     0
102
RTVSPropertyOp53
 70
     0
102
RTVSPropertyOp54
 70
     0
102
RTVSPropertyOp55
 70
     0
102
RTVSPropertyOp56
 70
     0
102
RTVSPropertyOp57
 70
     0
102
RTVSPost2010Prop28
280
     0
102
RTVSPost2010PropOp28
 70
     0
102
RTVSPost2010Prop29
280
     1
102
RTVSPost2010PropOp29
 70
     0
102
RTVSPost2010Prop30
280
     1
102
RTVSPost2010PropOp30
 70
     0
102
RTVSPost2010Prop31
280
     0
102
RTVSPost2010PropOp31
 70
     0
102
RTVSPost2010Prop32
280
     0
102
RTVSPost2010PropOp32
 70
     0
102
RTVSPost2010Prop33
280
     0
102
RTVSPost2010PropOp33
 70
     0
102
RTVSPost2010Prop34
280
     0
102
RTVSPost2010PropOp34
 70
     0
102
RTVSPost2010Prop35
280
     0
102
RTVSPost2010PropOp35
 70
     0
102
RTVSPost2010Prop36
280
     0
102
RTVSPost2010PropOp36
 70
     0
102
RTVSPost2010Prop37
 90
       50
102
RTVSPost2010PropOp37
 70
     0
102
RTVSPost2010Prop38
140
0.0
102
RTVSPost2010PropOp38
 70
     0
102
RTVSPost2010Prop39
140
1.0
102
RTVSPost2010PropOp39
 70
     0
102
RTVSPost2010Prop40
 90
        0
102
RTVSPost2010PropOp40
 70
     0
102
RTVSPost2010Prop41ColorIndex
 90
      178
102
RTVSPost2010Prop41ColorRGB
 90
        0
102
RTVSPost2010PropOp41
 70
     0
102
RTVSPost2010Prop42
 90
       50
102
RTVSPost2010PropOp42
 70
     0
102
RTVSPost2010Prop43
 90
        3
102
RTVSPost2010PropOp43
 70
     0
102
RTVSPost2010Prop44ColorIndex
 90
        5
102
RTVSPost2010Prop44ColorRGB
 90
      255
102
RTVSPost2010PropOp44
 70
     0
102
RTVSPost2010Prop45
280
     0
102
RTVSPost2010PropOp45
 70
     0
102
RTVSPost2010Prop46
 90
       50
102
RTVSPost2010PropOp46
 70
     0
102
RTVSPost2010Prop47
 90
       50
102
RTVSPost2010PropOp47
 70
     0
102
RTVSPost2010Prop48
 90
       50
102
RTVSPost2010PropOp48
 70
     0
102
RTVSPost2010Prop49
280
     0
102
RTVSPost2010PropOp49
 70
     0
102
RTVSPost2010Prop50
 90
       50
102
RTVSPost2010PropOp50
 70
     0
102
RTVSPost2010Prop51ColorIndex
 90
      256
102
RTVSPost2010Prop51ColorRGB
 90
-16777216
102
RTVSPost2010PropOp51
 70
     0
102
RTVSPost2010Prop52
140
1.0
102
RTVSPost2010PropOp52
 70
     0
102
RTVSPost2010Prop53
 90
        2
102
RTVSPost2010PropOp53
 70
     0
102
RTVSPost2010Prop54
  1
strokes_ogs.tif
102
RTVSPost2010PropOp54
 70
     0
102
RTVSPost2010Prop55
280
     0
102
RTVSPost2010PropOp55
 70
     0
102
RTVSPost2010Prop56
140
1.0
102
RTVSPost2010PropOp56
 70
     0
102
RTVSPost2010Prop57
140
1.0
102
RTVSPost2010PropOp57
 70
     0
  0
XRECORD
  5
1F1
102
{ACAD_REACTORS
330
1F0
102
}
330
1F0
100
AcDbXrecord
280
     1
102
RTVSPropertyOp0
 70
     1
102
RTVSPropertyOp1
 70
     1
102
RTVSPropertyOp2
 70
     1
102
RTVSPropertyOp3
 70
     1
102
RTVSPropertyOp4
 70
     1
102
RTVSPropertyOp5
 70
     1
102
RTVSPropertyOp6
 70
     1
102
RTVSPropertyOp7
 70
     1
102
RTVSPropertyOp8
 70
     1
102
RTVSPropertyOp9
 70
     1
102
RTVSPropertyOp10
 70
     1
102
RTVSPropertyOp11
 70
     1
102
RTVSPropertyOp12
 70
     1
102
RTVSPropertyOp13
 70
     1
102
RTVSPropertyOp14
 70
     1
102
RTVSPropertyOp15
 70
     1
102
RTVSPropertyOp16
 70
     1
102
RTVSPropertyOp17
 70
     1
102
RTVSPropertyOp18
 70
     1
102
RTVSPropertyOp19
 70
     1
102
RTVSPropertyOp20
 70
     1
102
RTVSPropertyOp21
 70
     1
102
RTVSPropertyOp22
 70
     1
102
RTVSPropertyOp23
 70
     1
102
RTVSPropertyOp24
 70
     1
102
RTVSPropertyOp25
 70
     1
102
RTVSPropertyOp26
 70
     1
102
RTVSPropertyOp27
 70
     1
102
RTVSPropertyOp28
 70
     1
102
RTVSPropertyOp29
 70
     1
102
RTVSPropertyOp30
 70
     1
102
RTVSPropertyOp31
 70
     1
102
RTVSPropertyOp32
 70
     1
102
RTVSPropertyOp33
 70
     1
102
RTVSPropertyOp34
 70
     1
102
RTVSPropertyOp35
 70
     1
102
RTVSPropertyOp36
 70
     1
102
RTVSPropertyOp37
 70
     1
102
RTVSPropertyOp38
 70
     1
102
RTVSPropertyOp39
 70
     1
102
RTVSPropertyOp40
 70
     1
102
RTVSPropertyOp41
 70
     1
102
RTVSPropertyOp42
 70
     1
102
RTVSPropertyOp43
 70
     1
102
RTVSPropertyOp44
 70
     1
102
RTVSPropertyOp45
 70
     1
102
RTVSPropertyOp46
 70
     1
102
RTVSPropertyOp47
 70
     1
102
RTVSPropertyOp48
 70
     1
102
RTVSPropertyOp49
 70
     1
102
RTVSPropertyOp50
 70
     1
102
RTVSPropertyOp51
 70
     0
102
RTVSPropertyOp52
 70
     0
102
RTVSPropertyOp53
 70
     1
102
RTVSPropertyOp54
 70
     1
102
RTVSPropertyOp55
 70
     1
102
RTVSPropertyOp56
 70
     1
102
RTVSPropertyOp57
 70
     1
102
RTVSPost2010Prop28
280
     0
102
RTVSPost2010PropOp28
 70
     1
102
RTVSPost2010Prop29
280
     1
102
RTVSPost2010PropOp29
 70
     1
102
RTVSPost2010Prop30
280
     1
102
RTVSPost2010PropOp30
 70
     1
102
RTVSPost2010Prop31
280
     0
102
RTVSPost2010PropOp31
 70
     1
102
RTVSPost2010Prop32
280
     0
102
RTVSPost2010PropOp32
 70
     1
102
RTVSPost2010Prop33
280
     0
102
RTVSPost2010PropOp33
 70
     1
102
RTVSPost2010Prop34
280
     0
102
RTVSPost2010PropOp34
 70
     1
102
RTVSPost2010Prop35
280
     0
102
RTVSPost2010PropOp35
 70
     1
102
RTVSPost2010Prop36
280
     0
102
RTVSPost2010PropOp36
 70
     1
102
RTVSPost2010Prop37
 90
       50
102
RTVSPost2010PropOp37
 70
     1
102
RTVSPost2010Prop38
140
0.0
102
RTVSPost2010PropOp38
 70
     1
102
RTVSPost2010Prop39
140
1.0
102
RTVSPost2010PropOp39
 70
     1
102
RTVSPost2010Prop40
 90
        0
102
RTVSPost2010PropOp40
 70
     1
102
RTVSPost2010Prop41ColorIndex
 90
      178
102
RTVSPost2010Prop41ColorRGB
 90
        0
102
RTVSPost2010PropOp41
 70
     1
102
RTVSPost2010Prop42
 90
       50
102
RTVSPost2010PropOp42
 70
     1
102
RTVSPost2010Prop43
 90
        3
102
RTVSPost2010PropOp43
 70
     1
102
RTVSPost2010Prop44ColorIndex
 90
        5
102
RTVSPost2010Prop44ColorRGB
 90
      255
102
RTVSPost2010PropOp44
 70
     1
102
RTVSPost2010Prop45
280
     0
102
RTVSPost2010PropOp45
 70
     1
102
RTVSPost2010Prop46
 90
       50
102
RTVSPost2010PropOp46
 70
     1
102
RTVSPost2010Prop47
 90
       50
102
RTVSPost2010PropOp47
 70
     1
102
RTVSPost2010Prop48
 90
       50
102
RTVSPost2010PropOp48
 70
     1
102
RTVSPost2010Prop49
280
     0
102
RTVSPost2010PropOp49
 70
     1
102
RTVSPost2010Prop50
 90
       50
102
RTVSPost2010PropOp50
 70
     1
102
RTVSPost2010Prop51ColorIndex
 90
      256
102
RTVSPost2010Prop51ColorRGB
 90
-16777216
102
RTVSPost2010PropOp51
 70
     0
102
RTVSPost2010Prop52
140
1.0
102
RTVSPost2010PropOp52
 70
     0
102
RTVSPost2010Prop53
 90
        2
102
RTVSPost2010PropOp53
 70
     1
102
RTVSPost2010Prop54
  1
strokes_ogs.tif
102
RTVSPost2010PropOp54
 70
     1
102
RTVSPost2010Prop55
280
     0
102
RTVSPost2010PropOp55
 70
     1
102
RTVSPost2010Prop56
140
1.0
102
RTVSPost2010PropOp56
 70
     1
102
RTVSPost2010Prop57
140
1.0
102
RTVSPost2010PropOp57
 70
     1
  0
XRECORD
  5
1F9
102
{ACAD_REACTORS
330
1F8
102
}
330
1F8
100
AcDbXrecord
280
     1
102
RTVSPropertyOp0
 70
     0
102
RTVSPropertyOp1
 70
     0
102
RTVSPropertyOp2
 70
     0
102
RTVSPropertyOp3
 70
     0
102
RTVSPropertyOp4
 70
     0
102
RTVSPropertyOp5
 70
     0
102
RTVSPropertyOp6
 70
     0
102
RTVSPropertyOp7
 70
     0
102
RTVSPropertyOp8
 70
     0
102
RTVSPropertyOp9
 70
     0
102
RTVSPropertyOp10
 70
     0
102
RTVSPropertyOp11
 70
     0
102
RTVSPropertyOp12
 70
     0
102
RTVSPropertyOp13
 70
     0
102
RTVSPropertyOp14
 70
     2
102
RTVSPropertyOp15
 70
     0
102
RTVSPropertyOp16
 70
     0
102
RTVSPropertyOp17
 70
     0
102
RTVSPropertyOp18
 70
     0
102
RTVSPropertyOp19
 70
     0
102
RTVSPropertyOp20
 70
     0
102
RTVSPropertyOp21
 70
     0
102
RTVSPropertyOp22
 70
     0
102
RTVSPropertyOp23
 70
     0
102
RTVSPropertyOp24
 70
     0
102
RTVSPropertyOp25
 70
     0
102
RTVSPropertyOp26
 70
     0
102
RTVSPropertyOp27
 70
     0
102
RTVSPropertyOp28
 70
     0
102
RTVSPropertyOp29
 70
     0
102
RTVSPropertyOp30
 70
     0
102
RTVSPropertyOp31
 70
     0
102
RTVSPropertyOp32
 70
     0
102
RTVSPropertyOp33
 70
     0
102
RTVSPropertyOp34
 70
     0
102
RTVSPropertyOp35
 70
     0
102
RTVSPropertyOp36
 70
     0
102
RTVSPropertyOp37
 70
     0
102
RTVSPropertyOp38
 70
     0
102
RTVSPropertyOp39
 70
     0
102
RTVSPropertyOp40
 70
     0
102
RTVSPropertyOp41
 70
     0
102
RTVSPropertyOp42
 70
     0
102
RTVSPropertyOp43
 70
     0
102
RTVSPropertyOp44
 70
     0
102
RTVSPropertyOp45
 70
     0
102
RTVSPropertyOp46
 70
     0
102
RTVSPropertyOp47
 70
     0
102
RTVSPropertyOp48
 70
     0
102
RTVSPropertyOp49
 70
     0
102
RTVSPropertyOp50
 70
     0
102
RTVSPropertyOp51
 70
     0
102
RTVSPropertyOp52
 70
     0
102
RTVSPropertyOp53
 70
     0
102
RTVSPropertyOp54
 70
     0
102
RTVSPropertyOp55
 70
     0
102
RTVSPropertyOp56
 70
     0
102
RTVSPropertyOp57
 70
     0
102
RTVSPost2010Prop28
280
     0
102
RTVSPost2010PropOp28
 70
     0
102
RTVSPost2010Prop29
280
     1
102
RTVSPost2010PropOp29
 70
     0
102
RTVSPost2010Prop30
280
     1
102
RTVSPost2010PropOp30
 70
     0
102
RTVSPost2010Prop31
280
     0
102
RTVSPost2010PropOp31
 70
     0
102
RTVSPost2010Prop32
280
     0
102
RTVSPost2010PropOp32
 70
     0
102
RTVSPost2010Prop33
280
     0
102
RTVSPost2010PropOp33
 70
     0
102
RTVSPost2010Prop34
280
     0
102
RTVSPost2010PropOp34
 70
     0
102
RTVSPost2010Prop35
280
     0
102
RTVSPost2010PropOp35
 70
     0
102
RTVSPost2010Prop36
280
     0
102
RTVSPost2010PropOp36
 70
     0
102
RTVSPost2010Prop37
 90
       50
102
RTVSPost2010PropOp37
 70
     0
102
RTVSPost2010Prop38
140
0.0
102
RTVSPost2010PropOp38
 70
     0
102
RTVSPost2010Prop39
140
1.0
102
RTVSPost2010PropOp39
 70
     0
102
RTVSPost2010Prop40
 90
        0
102
RTVSPost2010PropOp40
 70
     0
102
RTVSPost2010Prop41ColorIndex
 90
      178
102
RTVSPost2010Prop41ColorRGB
 90
        0
102
RTVSPost2010PropOp41
 70
     0
102
RTVSPost2010Prop42
 90
       50
102
RTVSPost2010PropOp42
 70
     0
102
RTVSPost2010Prop43
 90
        3
102
RTVSPost2010PropOp43
 70
     0
102
RTVSPost2010Prop44ColorIndex
 90
        5
102
RTVSPost2010Prop44ColorRGB
 90
      255
102
RTVSPost2010PropOp44
 70
     0
102
RTVSPost2010Prop45
280
     0
102
RTVSPost2010PropOp45
 70
     0
102
RTVSPost2010Prop46
 90
       50
102
RTVSPost2010PropOp46
 70
     0
102
RTVSPost2010Prop47
 90
       50
102
RTVSPost2010PropOp47
 70
     0
102
RTVSPost2010Prop48
 90
       50
102
RTVSPost2010PropOp48
 70
     0
102
RTVSPost2010Prop49
280
     0
102
RTVSPost2010PropOp49
 70
     0
102
RTVSPost2010Prop50
 90
       50
102
RTVSPost2010PropOp50
 70
     0
102
RTVSPost2010Prop51ColorIndex
 90
      256
102
RTVSPost2010Prop51ColorRGB
 90
-16777216
102
RTVSPost2010PropOp51
 70
     0
102
RTVSPost2010Prop52
140
1.0
102
RTVSPost2010PropOp52
 70
     0
102
RTVSPost2010Prop53
 90
        2
102
RTVSPost2010PropOp53
 70
     0
102
RTVSPost2010Prop54
  1
strokes_ogs.tif
102
RTVSPost2010PropOp54
 70
     0
102
RTVSPost2010Prop55
280
     0
102
RTVSPost2010PropOp55
 70
     0
102
RTVSPost2010Prop56
140
1.0
102
RTVSPost2010PropOp56
 70
     0
102
RTVSPost2010Prop57
140
1.0
102
RTVSPost2010PropOp57
 70
     0
  0
XRECORD
  5
1E7
102
{ACAD_REACTORS
330
1E6
102
}
330
1E6
100
AcDbXrecord
280
     1
102
RTVSPropertyOp0
 70
     1
102
RTVSPropertyOp1
 70
     1
102
RTVSPropertyOp2
 70
     1
102
RTVSPropertyOp3
 70
     1
102
RTVSPropertyOp4
 70
     1
102
RTVSPropertyOp5
 70
     1
102
RTVSPropertyOp6
 70
     1
102
RTVSPropertyOp7
 70
     1
102
RTVSPropertyOp8
 70
     1
102
RTVSPropertyOp9
 70
     1
102
RTVSPropertyOp10
 70
     1
102
RTVSPropertyOp11
 70
     1
102
RTVSPropertyOp12
 70
     1
102
RTVSPropertyOp13
 70
     1
102
RTVSPropertyOp14
 70
     1
102
RTVSPropertyOp15
 70
     1
102
RTVSPropertyOp16
 70
     1
102
RTVSPropertyOp17
 70
     1
102
RTVSPropertyOp18
 70
     1
102
RTVSPropertyOp19
 70
     1
102
RTVSPropertyOp20
 70
     1
102
RTVSPropertyOp21
 70
     1
102
RTVSPropertyOp22
 70
     1
102
RTVSPropertyOp23
 70
     1
102
RTVSPropertyOp24
 70
     1
102
RTVSPropertyOp25
 70
     1
102
RTVSPropertyOp26
 70
     1
102
RTVSPropertyOp27
 70
     1
102
RTVSPropertyOp28
 70
     1
102
RTVSPropertyOp29
 70
     1
102
RTVSPropertyOp30
 70
     1
102
RTVSPropertyOp31
 70
     1
102
RTVSPropertyOp32
 70
     1
102
RTVSPropertyOp33
 70
     1
102
RTVSPropertyOp34
 70
     1
102
RTVSPropertyOp35
 70
     1
102
RTVSPropertyOp36
 70
     1
102
RTVSPropertyOp37
 70
     1
102
RTVSPropertyOp38
 70
     1
102
RTVSPropertyOp39
 70
     1
102
RTVSPropertyOp40
 70
     1
102
RTVSPropertyOp41
 70
     1
102
RTVSPropertyOp42
 70
     1
102
RTVSPropertyOp43
 70
     1
102
RTVSPropertyOp44
 70
     1
102
RTVSPropertyOp45
 70
     1
102
RTVSPropertyOp46
 70
     1
102
RTVSPropertyOp47
 70
     1
102
RTVSPropertyOp48
 70
     1
102
RTVSPropertyOp49
 70
     1
102
RTVSPropertyOp50
 70
     1
102
RTVSPropertyOp51
 70
     0
102
RTVSPropertyOp52
 70
     0
102
RTVSPropertyOp53
 70
     1
102
RTVSPropertyOp54
 70
     1
102
RTVSPropertyOp55
 70
     1
102
RTVSPropertyOp56
 70
     1
102
RTVSPropertyOp57
 70
     1
102
RTVSPost2010Prop28
280
     0
102
RTVSPost2010PropOp28
 70
     1
102
RTVSPost2010Prop29
280
     1
102
RTVSPost2010PropOp29
 70
     1
102
RTVSPost2010Prop30
280
     1
102
RTVSPost2010PropOp30
 70
     1
102
RTVSPost2010Prop31
280
     0
102
RTVSPost2010PropOp31
 70
     1
102
RTVSPost2010Prop32
280
     0
102
RTVSPost2010PropOp32
 70
     1
102
RTVSPost2010Prop33
280
     0
102
RTVSPost2010PropOp33
 70
     1
102
RTVSPost2010Prop34
280
     0
102
RTVSPost2010PropOp34
 70
     1
102
RTVSPost2010Prop35
280
     0
102
RTVSPost2010PropOp35
 70
     1
102
RTVSPost2010Prop36
280
     0
102
RTVSPost2010PropOp36
 70
     1
102
RTVSPost2010Prop37
 90
       50
102
RTVSPost2010PropOp37
 70
     1
102
RTVSPost2010Prop38
140
0.0
102
RTVSPost2010PropOp38
 70
     1
102
RTVSPost2010Prop39
140
1.0
102
RTVSPost2010PropOp39
 70
     1
102
RTVSPost2010Prop40
 90
        0
102
RTVSPost2010PropOp40
 70
     1
102
RTVSPost2010Prop41ColorIndex
 90
      178
102
RTVSPost2010Prop41ColorRGB
 90
        0
102
RTVSPost2010PropOp41
 70
     1
102
RTVSPost2010Prop42
 90
       50
102
RTVSPost2010PropOp42
 70
     1
102
RTVSPost2010Prop43
 90
        3
102
RTVSPost2010PropOp43
 70
     1
102
RTVSPost2010Prop44ColorIndex
 90
        5
102
RTVSPost2010Prop44ColorRGB
 90
      255
102
RTVSPost2010PropOp44
 70
     1
102
RTVSPost2010Prop45
280
     0
102
RTVSPost2010PropOp45
 70
     1
102
RTVSPost2010Prop46
 90
       50
102
RTVSPost2010PropOp46
 70
     1
102
RTVSPost2010Prop47
 90
       50
102
RTVSPost2010PropOp47
 70
     1
102
RTVSPost2010Prop48
 90
       50
102
RTVSPost2010PropOp48
 70
     1
102
RTVSPost2010Prop49
280
     0
102
RTVSPost2010PropOp49
 70
     1
102
RTVSPost2010Prop50
 90
       50
102
RTVSPost2010PropOp50
 70
     1
102
RTVSPost2010Prop51ColorIndex
 90
      256
102
RTVSPost2010Prop51ColorRGB
 90
-16777216
102
RTVSPost2010PropOp51
 70
     0
102
RTVSPost2010Prop52
140
1.0
102
RTVSPost2010PropOp52
 70
     0
102
RTVSPost2010Prop53
 90
        2
102
RTVSPost2010PropOp53
 70
     1
102
RTVSPost2010Prop54
  1
strokes_ogs.tif
102
RTVSPost2010PropOp54
 70
     1
102
RTVSPost2010Prop55
280
     0
102
RTVSPost2010PropOp55
 70
     1
102
RTVSPost2010Prop56
140
1.0
102
RTVSPost2010PropOp56
 70
     1
102
RTVSPost2010Prop57
140
1.0
102
RTVSPost2010PropOp57
 70
     1
  0
XRECORD
  5
205
102
{ACAD_REACTORS
330
204
102
}
330
204
100
AcDbXrecord
280
     1
102
RTVSPropertyOp0
 70
     1
102
RTVSPropertyOp1
 70
     1
102
RTVSPropertyOp2
 70
     1
102
RTVSPropertyOp3
 70
     1
102
RTVSPropertyOp4
 70
     1
102
RTVSPropertyOp5
 70
     1
102
RTVSPropertyOp6
 70
     1
102
RTVSPropertyOp7
 70
     1
102
RTVSPropertyOp8
 70
     1
102
RTVSPropertyOp9
 70
     1
102
RTVSPropertyOp10
 70
     1
102
RTVSPropertyOp11
 70
     1
102
RTVSPropertyOp12
 70
     1
102
RTVSPropertyOp13
 70
     1
102
RTVSPropertyOp14
 70
     1
102
RTVSPropertyOp15
 70
     1
102
RTVSPropertyOp16
 70
     1
102
RTVSPropertyOp17
 70
     1
102
RTVSPropertyOp18
 70
     1
102
RTVSPropertyOp19
 70
     1
102
RTVSPropertyOp20
 70
     1
102
RTVSPropertyOp21
 70
     1
102
RTVSPropertyOp22
 70
     1
102
RTVSPropertyOp23
 70
     1
102
RTVSPropertyOp24
 70
     1
102
RTVSPropertyOp25
 70
     1
102
RTVSPropertyOp26
 70
     1
102
RTVSPropertyOp27
 70
     1
102
RTVSPropertyOp28
 70
     1
102
RTVSPropertyOp29
 70
     1
102
RTVSPropertyOp30
 70
     1
102
RTVSPropertyOp31
 70
     1
102
RTVSPropertyOp32
 70
     1
102
RTVSPropertyOp33
 70
     1
102
RTVSPropertyOp34
 70
     1
102
RTVSPropertyOp35
 70
     1
102
RTVSPropertyOp36
 70
     1
102
RTVSPropertyOp37
 70
     1
102
RTVSPropertyOp38
 70
     1
102
RTVSPropertyOp39
 70
     1
102
RTVSPropertyOp40
 70
     1
102
RTVSPropertyOp41
 70
     1
102
RTVSPropertyOp42
 70
     1
102
RTVSPropertyOp43
 70
     1
102
RTVSPropertyOp44
 70
     1
102
RTVSPropertyOp45
 70
     1
102
RTVSPropertyOp46
 70
     1
102
RTVSPropertyOp47
 70
     1
102
RTVSPropertyOp48
 70
     1
102
RTVSPropertyOp49
 70
     1
102
RTVSPropertyOp50
 70
     1
102
RTVSPropertyOp51
 70
     0
102
RTVSPropertyOp52
 70
     0
102
RTVSPropertyOp53
 70
     1
102
RTVSPropertyOp54
 70
     1
102
RTVSPropertyOp55
 70
     1
102
RTVSPropertyOp56
 70
     1
102
RTVSPropertyOp57
 70
     1
102
RTVSPost2010Prop28
280
     0
102
RTVSPost2010PropOp28
 70
     1
102
RTVSPost2010Prop29
280
     1
102
RTVSPost2010PropOp29
 70
     1
102
RTVSPost2010Prop30
280
     1
102
RTVSPost2010PropOp30
 70
     1
102
RTVSPost2010Prop31
280
     0
102
RTVSPost2010PropOp31
 70
     1
102
RTVSPost2010Prop32
280
     0
102
RTVSPost2010PropOp32
 70
     1
102
RTVSPost2010Prop33
280
     0
102
RTVSPost2010PropOp33
 70
     1
102
RTVSPost2010Prop34
280
     0
102
RTVSPost2010PropOp34
 70
     1
102
RTVSPost2010Prop35
280
     0
102
RTVSPost2010PropOp35
 70
     1
102
RTVSPost2010Prop36
280
     0
102
RTVSPost2010PropOp36
 70
     1
102
RTVSPost2010Prop37
 90
       50
102
RTVSPost2010PropOp37
 70
     1
102
RTVSPost2010Prop38
140
0.0
102
RTVSPost2010PropOp38
 70
     1
102
RTVSPost2010Prop39
140
1.0
102
RTVSPost2010PropOp39
 70
     1
102
RTVSPost2010Prop40
 90
        0
102
RTVSPost2010PropOp40
 70
     1
102
RTVSPost2010Prop41ColorIndex
 90
      178
102
RTVSPost2010Prop41ColorRGB
 90
        0
102
RTVSPost2010PropOp41
 70
     1
102
RTVSPost2010Prop42
 90
       50
102
RTVSPost2010PropOp42
 70
     1
102
RTVSPost2010Prop43
 90
        3
102
RTVSPost2010PropOp43
 70
     1
102
RTVSPost2010Prop44ColorIndex
 90
        5
102
RTVSPost2010Prop44ColorRGB
 90
      255
102
RTVSPost2010PropOp44
 70
     1
102
RTVSPost2010Prop45
280
     0
102
RTVSPost2010PropOp45
 70
     1
102
RTVSPost2010Prop46
 90
       50
102
RTVSPost2010PropOp46
 70
     1
102
RTVSPost2010Prop47
 90
       50
102
RTVSPost2010PropOp47
 70
     1
102
RTVSPost2010Prop48
 90
       50
102
RTVSPost2010PropOp48
 70
     1
102
RTVSPost2010Prop49
280
     0
102
RTVSPost2010PropOp49
 70
     1
102
RTVSPost2010Prop50
 90
       50
102
RTVSPost2010PropOp50
 70
     1
102
RTVSPost2010Prop51ColorIndex
 90
      256
102
RTVSPost2010Prop51ColorRGB
 90
-16777216
102
RTVSPost2010PropOp51
 70
     0
102
RTVSPost2010Prop52
140
1.0
102
RTVSPost2010PropOp52
 70
     0
102
RTVSPost2010Prop53
 90
        2
102
RTVSPost2010PropOp53
 70
     1
102
RTVSPost2010Prop54
  1
strokes_ogs.tif
102
RTVSPost2010PropOp54
 70
     1
102
RTVSPost2010Prop55
280
     0
102
RTVSPost2010PropOp55
 70
     1
102
RTVSPost2010Prop56
140
1.0
102
RTVSPost2010PropOp56
 70
     1
102
RTVSPost2010Prop57
140
1.0
102
RTVSPost2010PropOp57
 70
     1
  0
XRECORD
  5
203
102
{ACAD_REACTORS
330
202
102
}
330
202
100
AcDbXrecord
280
     1
102
RTVSPropertyOp0
 70
     1
102
RTVSPropertyOp1
 70
     1
102
RTVSPropertyOp2
 70
     1
102
RTVSPropertyOp3
 70
     1
102
RTVSPropertyOp4
 70
     1
102
RTVSPropertyOp5
 70
     1
102
RTVSPropertyOp6
 70
     1
102
RTVSPropertyOp7
 70
     1
102
RTVSPropertyOp8
 70
     1
102
RTVSPropertyOp9
 70
     1
102
RTVSPropertyOp10
 70
     1
102
RTVSPropertyOp11
 70
     1
102
RTVSPropertyOp12
 70
     1
102
RTVSPropertyOp13
 70
     1
102
RTVSPropertyOp14
 70
     1
102
RTVSPropertyOp15
 70
     1
102
RTVSPropertyOp16
 70
     1
102
RTVSPropertyOp17
 70
     1
102
RTVSPropertyOp18
 70
     1
102
RTVSPropertyOp19
 70
     1
102
RTVSPropertyOp20
 70
     1
102
RTVSPropertyOp21
 70
     1
102
RTVSPropertyOp22
 70
     1
102
RTVSPropertyOp23
 70
     1
102
RTVSPropertyOp24
 70
     1
102
RTVSPropertyOp25
 70
     1
102
RTVSPropertyOp26
 70
     1
102
RTVSPropertyOp27
 70
     1
102
RTVSPropertyOp28
 70
     1
102
RTVSPropertyOp29
 70
     1
102
RTVSPropertyOp30
 70
     1
102
RTVSPropertyOp31
 70
     1
102
RTVSPropertyOp32
 70
     1
102
RTVSPropertyOp33
 70
     1
102
RTVSPropertyOp34
 70
     1
102
RTVSPropertyOp35
 70
     1
102
RTVSPropertyOp36
 70
     1
102
RTVSPropertyOp37
 70
     1
102
RTVSPropertyOp38
 70
     1
102
RTVSPropertyOp39
 70
     1
102
RTVSPropertyOp40
 70
     1
102
RTVSPropertyOp41
 70
     1
102
RTVSPropertyOp42
 70
     1
102
RTVSPropertyOp43
 70
     1
102
RTVSPropertyOp44
 70
     1
102
RTVSPropertyOp45
 70
     1
102
RTVSPropertyOp46
 70
     1
102
RTVSPropertyOp47
 70
     1
102
RTVSPropertyOp48
 70
     1
102
RTVSPropertyOp49
 70
     1
102
RTVSPropertyOp50
 70
     1
102
RTVSPropertyOp51
 70
     0
102
RTVSPropertyOp52
 70
     0
102
RTVSPropertyOp53
 70
     1
102
RTVSPropertyOp54
 70
     1
102
RTVSPropertyOp55
 70
     1
102
RTVSPropertyOp56
 70
     1
102
RTVSPropertyOp57
 70
     1
102
RTVSPost2010Prop28
280
     0
102
RTVSPost2010PropOp28
 70
     1
102
RTVSPost2010Prop29
280
     1
102
RTVSPost2010PropOp29
 70
     1
102
RTVSPost2010Prop30
280
     1
102
RTVSPost2010PropOp30
 70
     1
102
RTVSPost2010Prop31
280
     0
102
RTVSPost2010PropOp31
 70
     1
102
RTVSPost2010Prop32
280
     0
102
RTVSPost2010PropOp32
 70
     1
102
RTVSPost2010Prop33
280
     0
102
RTVSPost2010PropOp33
 70
     1
102
RTVSPost2010Prop34
280
     0
102
RTVSPost2010PropOp34
 70
     1
102
RTVSPost2010Prop35
280
     0
102
RTVSPost2010PropOp35
 70
     1
102
RTVSPost2010Prop36
280
     0
102
RTVSPost2010PropOp36
 70
     1
102
RTVSPost2010Prop37
 90
       50
102
RTVSPost2010PropOp37
 70
     1
102
RTVSPost2010Prop38
140
0.0
102
RTVSPost2010PropOp38
 70
     1
102
RTVSPost2010Prop39
140
1.0
102
RTVSPost2010PropOp39
 70
     1
102
RTVSPost2010Prop40
 90
        0
102
RTVSPost2010PropOp40
 70
     1
102
RTVSPost2010Prop41ColorIndex
 90
      178
102
RTVSPost2010Prop41ColorRGB
 90
        0
102
RTVSPost2010PropOp41
 70
     1
102
RTVSPost2010Prop42
 90
       50
102
RTVSPost2010PropOp42
 70
     1
102
RTVSPost2010Prop43
 90
        3
102
RTVSPost2010PropOp43
 70
     1
102
RTVSPost2010Prop44ColorIndex
 90
        5
102
RTVSPost2010Prop44ColorRGB
 90
      255
102
RTVSPost2010PropOp44
 70
     1
102
RTVSPost2010Prop45
280
     0
102
RTVSPost2010PropOp45
 70
     1
102
RTVSPost2010Prop46
 90
       50
102
RTVSPost2010PropOp46
 70
     1
102
RTVSPost2010Prop47
 90
       50
102
RTVSPost2010PropOp47
 70
     1
102
RTVSPost2010Prop48
 90
       50
102
RTVSPost2010PropOp48
 70
     1
102
RTVSPost2010Prop49
280
     0
102
RTVSPost2010PropOp49
 70
     1
102
RTVSPost2010Prop50
 90
       50
102
RTVSPost2010PropOp50
 70
     1
102
RTVSPost2010Prop51ColorIndex
 90
      256
102
RTVSPost2010Prop51ColorRGB
 90
-16777216
102
RTVSPost2010PropOp51
 70
     0
102
RTVSPost2010Prop52
140
1.0
102
RTVSPost2010PropOp52
 70
     0
102
RTVSPost2010Prop53
 90
        2
102
RTVSPost2010PropOp53
 70
     1
102
RTVSPost2010Prop54
  1
strokes_ogs.tif
102
RTVSPost2010PropOp54
 70
     1
102
RTVSPost2010Prop55
280
     0
102
RTVSPost2010PropOp55
 70
     1
102
RTVSPost2010Prop56
140
1.0
102
RTVSPost2010PropOp56
 70
     1
102
RTVSPost2010Prop57
140
1.0
102
RTVSPost2010PropOp57
 70
     1
  0
XRECORD
  5
1FD
102
{ACAD_REACTORS
330
1FC
102
}
330
1FC
100
AcDbXrecord
280
     1
102
RTVSPropertyOp0
 70
     1
102
RTVSPropertyOp1
 70
     1
102
RTVSPropertyOp2
 70
     1
102
RTVSPropertyOp3
 70
     1
102
RTVSPropertyOp4
 70
     1
102
RTVSPropertyOp5
 70
     1
102
RTVSPropertyOp6
 70
     1
102
RTVSPropertyOp7
 70
     1
102
RTVSPropertyOp8
 70
     1
102
RTVSPropertyOp9
 70
     1
102
RTVSPropertyOp10
 70
     1
102
RTVSPropertyOp11
 70
     1
102
RTVSPropertyOp12
 70
     1
102
RTVSPropertyOp13
 70
     1
102
RTVSPropertyOp14
 70
     1
102
RTVSPropertyOp15
 70
     1
102
RTVSPropertyOp16
 70
     1
102
RTVSPropertyOp17
 70
     1
102
RTVSPropertyOp18
 70
     1
102
RTVSPropertyOp19
 70
     1
102
RTVSPropertyOp20
 70
     1
102
RTVSPropertyOp21
 70
     1
102
RTVSPropertyOp22
 70
     1
102
RTVSPropertyOp23
 70
     1
102
RTVSPropertyOp24
 70
     1
102
RTVSPropertyOp25
 70
     1
102
RTVSPropertyOp26
 70
     1
102
RTVSPropertyOp27
 70
     1
102
RTVSPropertyOp28
 70
     1
102
RTVSPropertyOp29
 70
     1
102
RTVSPropertyOp30
 70
     1
102
RTVSPropertyOp31
 70
     1
102
RTVSPropertyOp32
 70
     1
102
RTVSPropertyOp33
 70
     1
102
RTVSPropertyOp34
 70
     1
102
RTVSPropertyOp35
 70
     1
102
RTVSPropertyOp36
 70
     1
102
RTVSPropertyOp37
 70
     1
102
RTVSPropertyOp38
 70
     1
102
RTVSPropertyOp39
 70
     1
102
RTVSPropertyOp40
 70
     1
102
RTVSPropertyOp41
 70
     1
102
RTVSPropertyOp42
 70
     1
102
RTVSPropertyOp43
 70
     1
102
RTVSPropertyOp44
 70
     1
102
RTVSPropertyOp45
 70
     1
102
RTVSPropertyOp46
 70
     1
102
RTVSPropertyOp47
 70
     1
102
RTVSPropertyOp48
 70
     1
102
RTVSPropertyOp49
 70
     1
102
RTVSPropertyOp50
 70
     1
102
RTVSPropertyOp51
 70
     0
102
RTVSPropertyOp52
 70
     0
102
RTVSPropertyOp53
 70
     1
102
RTVSPropertyOp54
 70
     1
102
RTVSPropertyOp55
 70
     1
102
RTVSPropertyOp56
 70
     1
102
RTVSPropertyOp57
 70
     1
102
RTVSPost2010Prop28
280
     0
102
RTVSPost2010PropOp28
 70
     1
102
RTVSPost2010Prop29
280
     1
102
RTVSPost2010PropOp29
 70
     1
102
RTVSPost2010Prop30
280
     1
102
RTVSPost2010PropOp30
 70
     1
102
RTVSPost2010Prop31
280
     0
102
RTVSPost2010PropOp31
 70
     1
102
RTVSPost2010Prop32
280
     0
102
RTVSPost2010PropOp32
 70
     1
102
RTVSPost2010Prop33
280
     0
102
RTVSPost2010PropOp33
 70
     1
102
RTVSPost2010Prop34
280
     0
102
RTVSPost2010PropOp34
 70
     1
102
RTVSPost2010Prop35
280
     0
102
RTVSPost2010PropOp35
 70
     1
102
RTVSPost2010Prop36
280
     0
102
RTVSPost2010PropOp36
 70
     1
102
RTVSPost2010Prop37
 90
       50
102
RTVSPost2010PropOp37
 70
     1
102
RTVSPost2010Prop38
140
0.0
102
RTVSPost2010PropOp38
 70
     1
102
RTVSPost2010Prop39
140
1.0
102
RTVSPost2010PropOp39
 70
     1
102
RTVSPost2010Prop40
 90
        0
102
RTVSPost2010PropOp40
 70
     1
102
RTVSPost2010Prop41ColorIndex
 90
      178
102
RTVSPost2010Prop41ColorRGB
 90
        0
102
RTVSPost2010PropOp41
 70
     1
102
RTVSPost2010Prop42
 90
       50
102
RTVSPost2010PropOp42
 70
     1
102
RTVSPost2010Prop43
 90
        3
102
RTVSPost2010PropOp43
 70
     1
102
RTVSPost2010Prop44ColorIndex
 90
        5
102
RTVSPost2010Prop44ColorRGB
 90
      255
102
RTVSPost2010PropOp44
 70
     1
102
RTVSPost2010Prop45
280
     0
102
RTVSPost2010PropOp45
 70
     1
102
RTVSPost2010Prop46
 90
       50
102
RTVSPost2010PropOp46
 70
     1
102
RTVSPost2010Prop47
 90
       50
102
RTVSPost2010PropOp47
 70
     1
102
RTVSPost2010Prop48
 90
       50
102
RTVSPost2010PropOp48
 70
     1
102
RTVSPost2010Prop49
280
     0
102
RTVSPost2010PropOp49
 70
     1
102
RTVSPost2010Prop50
 90
       50
102
RTVSPost2010PropOp50
 70
     1
102
RTVSPost2010Prop51ColorIndex
 90
      256
102
RTVSPost2010Prop51ColorRGB
 90
-16777216
102
RTVSPost2010PropOp51
 70
     0
102
RTVSPost2010Prop52
140
1.0
102
RTVSPost2010PropOp52
 70
     0
102
RTVSPost2010Prop53
 90
        2
102
RTVSPost2010PropOp53
 70
     1
102
RTVSPost2010Prop54
  1
strokes_ogs.tif
102
RTVSPost2010PropOp54
 70
     1
102
RTVSPost2010Prop55
280
     0
102
RTVSPost2010PropOp55
 70
     1
102
RTVSPost2010Prop56
140
1.0
102
RTVSPost2010PropOp56
 70
     1
102
RTVSPost2010Prop57
140
1.0
102
RTVSPost2010PropOp57
 70
     1
  0
XRECORD
  5
1FF
102
{ACAD_REACTORS
330
1FE
102
}
330
1FE
100
AcDbXrecord
280
     1
102
RTVSPropertyOp0
 70
     1
102
RTVSPropertyOp1
 70
     1
102
RTVSPropertyOp2
 70
     1
102
RTVSPropertyOp3
 70
     1
102
RTVSPropertyOp4
 70
     1
102
RTVSPropertyOp5
 70
     1
102
RTVSPropertyOp6
 70
     1
102
RTVSPropertyOp7
 70
     1
102
RTVSPropertyOp8
 70
     1
102
RTVSPropertyOp9
 70
     1
102
RTVSPropertyOp10
 70
     1
102
RTVSPropertyOp11
 70
     1
102
RTVSPropertyOp12
 70
     1
102
RTVSPropertyOp13
 70
     1
102
RTVSPropertyOp14
 70
     1
102
RTVSPropertyOp15
 70
     1
102
RTVSPropertyOp16
 70
     1
102
RTVSPropertyOp17
 70
     1
102
RTVSPropertyOp18
 70
     1
102
RTVSPropertyOp19
 70
     1
102
RTVSPropertyOp20
 70
     1
102
RTVSPropertyOp21
 70
     1
102
RTVSPropertyOp22
 70
     1
102
RTVSPropertyOp23
 70
     1
102
RTVSPropertyOp24
 70
     1
102
RTVSPropertyOp25
 70
     1
102
RTVSPropertyOp26
 70
     1
102
RTVSPropertyOp27
 70
     1
102
RTVSPropertyOp28
 70
     1
102
RTVSPropertyOp29
 70
     1
102
RTVSPropertyOp30
 70
     1
102
RTVSPropertyOp31
 70
     1
102
RTVSPropertyOp32
 70
     1
102
RTVSPropertyOp33
 70
     1
102
RTVSPropertyOp34
 70
     1
102
RTVSPropertyOp35
 70
     1
102
RTVSPropertyOp36
 70
     1
102
RTVSPropertyOp37
 70
     1
102
RTVSPropertyOp38
 70
     1
102
RTVSPropertyOp39
 70
     1
102
RTVSPropertyOp40
 70
     1
102
RTVSPropertyOp41
 70
     1
102
RTVSPropertyOp42
 70
     1
102
RTVSPropertyOp43
 70
     1
102
RTVSPropertyOp44
 70
     1
102
RTVSPropertyOp45
 70
     1
102
RTVSPropertyOp46
 70
     1
102
RTVSPropertyOp47
 70
     1
102
RTVSPropertyOp48
 70
     1
102
RTVSPropertyOp49
 70
     1
102
RTVSPropertyOp50
 70
     1
102
RTVSPropertyOp51
 70
     0
102
RTVSPropertyOp52
 70
     0
102
RTVSPropertyOp53
 70
     1
102
RTVSPropertyOp54
 70
     1
102
RTVSPropertyOp55
 70
     1
102
RTVSPropertyOp56
 70
     1
102
RTVSPropertyOp57
 70
     1
102
RTVSPost2010Prop28
280
     0
102
RTVSPost2010PropOp28
 70
     1
102
RTVSPost2010Prop29
280
     1
102
RTVSPost2010PropOp29
 70
     1
102
RTVSPost2010Prop30
280
     1
102
RTVSPost2010PropOp30
 70
     1
102
RTVSPost2010Prop31
280
     0
102
RTVSPost2010PropOp31
 70
     1
102
RTVSPost2010Prop32
280
     0
102
RTVSPost2010PropOp32
 70
     1
102
RTVSPost2010Prop33
280
     0
102
RTVSPost2010PropOp33
 70
     1
102
RTVSPost2010Prop34
280
     0
102
RTVSPost2010PropOp34
 70
     1
102
RTVSPost2010Prop35
280
     0
102
RTVSPost2010PropOp35
 70
     1
102
RTVSPost2010Prop36
280
     0
102
RTVSPost2010PropOp36
 70
     1
102
RTVSPost2010Prop37
 90
       50
102
RTVSPost2010PropOp37
 70
     1
102
RTVSPost2010Prop38
140
0.0
102
RTVSPost2010PropOp38
 70
     1
102
RTVSPost2010Prop39
140
1.0
102
RTVSPost2010PropOp39
 70
     1
102
RTVSPost2010Prop40
 90
        0
102
RTVSPost2010PropOp40
 70
     1
102
RTVSPost2010Prop41ColorIndex
 90
      178
102
RTVSPost2010Prop41ColorRGB
 90
        0
102
RTVSPost2010PropOp41
 70
     1
102
RTVSPost2010Prop42
 90
       50
102
RTVSPost2010PropOp42
 70
     1
102
RTVSPost2010Prop43
 90
        3
102
RTVSPost2010PropOp43
 70
     1
102
RTVSPost2010Prop44ColorIndex
 90
        5
102
RTVSPost2010Prop44ColorRGB
 90
      255
102
RTVSPost2010PropOp44
 70
     1
102
RTVSPost2010Prop45
280
     0
102
RTVSPost2010PropOp45
 70
     1
102
RTVSPost2010Prop46
 90
       50
102
RTVSPost2010PropOp46
 70
     1
102
RTVSPost2010Prop47
 90
       50
102
RTVSPost2010PropOp47
 70
     1
102
RTVSPost2010Prop48
 90
       50
102
RTVSPost2010PropOp48
 70
     1
102
RTVSPost2010Prop49
280
     0
102
RTVSPost2010PropOp49
 70
     1
102
RTVSPost2010Prop50
 90
       50
102
RTVSPost2010PropOp50
 70
     1
102
RTVSPost2010Prop51ColorIndex
 90
      256
102
RTVSPost2010Prop51ColorRGB
 90
-16777216
102
RTVSPost2010PropOp51
 70
     0
102
RTVSPost2010Prop52
140
1.0
102
RTVSPost2010PropOp52
 70
     0
102
RTVSPost2010Prop53
 90
        2
102
RTVSPost2010PropOp53
 70
     1
102
RTVSPost2010Prop54
  1
strokes_ogs.tif
102
RTVSPost2010PropOp54
 70
     1
102
RTVSPost2010Prop55
280
     0
102
RTVSPost2010PropOp55
 70
     1
102
RTVSPost2010Prop56
140
1.0
102
RTVSPost2010PropOp56
 70
     1
102
RTVSPost2010Prop57
140
1.0
102
RTVSPost2010PropOp57
 70
     1
  0
XRECORD
  5
1EF
102
{ACAD_REACTORS
330
1EE
102
}
330
1EE
100
AcDbXrecord
280
     1
102
RTVSPropertyOp0
 70
     1
102
RTVSPropertyOp1
 70
     1
102
RTVSPropertyOp2
 70
     1
102
RTVSPropertyOp3
 70
     1
102
RTVSPropertyOp4
 70
     1
102
RTVSPropertyOp5
 70
     1
102
RTVSPropertyOp6
 70
     1
102
RTVSPropertyOp7
 70
     1
102
RTVSPropertyOp8
 70
     1
102
RTVSPropertyOp9
 70
     1
102
RTVSPropertyOp10
 70
     1
102
RTVSPropertyOp11
 70
     1
102
RTVSPropertyOp12
 70
     1
102
RTVSPropertyOp13
 70
     1
102
RTVSPropertyOp14
 70
     1
102
RTVSPropertyOp15
 70
     1
102
RTVSPropertyOp16
 70
     1
102
RTVSPropertyOp17
 70
     1
102
RTVSPropertyOp18
 70
     1
102
RTVSPropertyOp19
 70
     1
102
RTVSPropertyOp20
 70
     1
102
RTVSPropertyOp21
 70
     1
102
RTVSPropertyOp22
 70
     1
102
RTVSPropertyOp23
 70
     1
102
RTVSPropertyOp24
 70
     1
102
RTVSPropertyOp25
 70
     1
102
RTVSPropertyOp26
 70
     1
102
RTVSPropertyOp27
 70
     1
102
RTVSPropertyOp28
 70
     1
102
RTVSPropertyOp29
 70
     1
102
RTVSPropertyOp30
 70
     1
102
RTVSPropertyOp31
 70
     1
102
RTVSPropertyOp32
 70
     1
102
RTVSPropertyOp33
 70
     1
102
RTVSPropertyOp34
 70
     1
102
RTVSPropertyOp35
 70
     1
102
RTVSPropertyOp36
 70
     1
102
RTVSPropertyOp37
 70
     1
102
RTVSPropertyOp38
 70
     1
102
RTVSPropertyOp39
 70
     1
102
RTVSPropertyOp40
 70
     1
102
RTVSPropertyOp41
 70
     1
102
RTVSPropertyOp42
 70
     1
102
RTVSPropertyOp43
 70
     1
102
RTVSPropertyOp44
 70
     1
102
RTVSPropertyOp45
 70
     1
102
RTVSPropertyOp46
 70
     1
102
RTVSPropertyOp47
 70
     1
102
RTVSPropertyOp48
 70
     1
102
RTVSPropertyOp49
 70
     1
102
RTVSPropertyOp50
 70
     1
102
RTVSPropertyOp51
 70
     0
102
RTVSPropertyOp52
 70
     0
102
RTVSPropertyOp53
 70
     1
102
RTVSPropertyOp54
 70
     1
102
RTVSPropertyOp55
 70
     1
102
RTVSPropertyOp56
 70
     1
102
RTVSPropertyOp57
 70
     1
102
RTVSPost2010Prop28
280
     0
102
RTVSPost2010PropOp28
 70
     1
102
RTVSPost2010Prop29
280
     1
102
RTVSPost2010PropOp29
 70
     1
102
RTVSPost2010Prop30
280
     1
102
RTVSPost2010PropOp30
 70
     1
102
RTVSPost2010Prop31
280
     0
102
RTVSPost2010PropOp31
 70
     1
102
RTVSPost2010Prop32
280
     0
102
RTVSPost2010PropOp32
 70
     1
102
RTVSPost2010Prop33
280
     0
102
RTVSPost2010PropOp33
 70
     1
102
RTVSPost2010Prop34
280
     0
102
RTVSPost2010PropOp34
 70
     1
102
RTVSPost2010Prop35
280
     0
102
RTVSPost2010PropOp35
 70
     1
102
RTVSPost2010Prop36
280
     0
102
RTVSPost2010PropOp36
 70
     1
102
RTVSPost2010Prop37
 90
       50
102
RTVSPost2010PropOp37
 70
     1
102
RTVSPost2010Prop38
140
0.0
102
RTVSPost2010PropOp38
 70
     1
102
RTVSPost2010Prop39
140
1.0
102
RTVSPost2010PropOp39
 70
     1
102
RTVSPost2010Prop40
 90
        0
102
RTVSPost2010PropOp40
 70
     1
102
RTVSPost2010Prop41ColorIndex
 90
      178
102
RTVSPost2010Prop41ColorRGB
 90
        0
102
RTVSPost2010PropOp41
 70
     1
102
RTVSPost2010Prop42
 90
       50
102
RTVSPost2010PropOp42
 70
     1
102
RTVSPost2010Prop43
 90
        3
102
RTVSPost2010PropOp43
 70
     1
102
RTVSPost2010Prop44ColorIndex
 90
        5
102
RTVSPost2010Prop44ColorRGB
 90
      255
102
RTVSPost2010PropOp44
 70
     1
102
RTVSPost2010Prop45
280
     0
102
RTVSPost2010PropOp45
 70
     1
102
RTVSPost2010Prop46
 90
       50
102
RTVSPost2010PropOp46
 70
     1
102
RTVSPost2010Prop47
 90
       50
102
RTVSPost2010PropOp47
 70
     1
102
RTVSPost2010Prop48
 90
       50
102
RTVSPost2010PropOp48
 70
     1
102
RTVSPost2010Prop49
280
     0
102
RTVSPost2010PropOp49
 70
     1
102
RTVSPost2010Prop50
 90
       50
102
RTVSPost2010PropOp50
 70
     1
102
RTVSPost2010Prop51ColorIndex
 90
      256
102
RTVSPost2010Prop51ColorRGB
 90
-16777216
102
RTVSPost2010PropOp51
 70
     0
102
RTVSPost2010Prop52
140
1.0
102
RTVSPost2010PropOp52
 70
     0
102
RTVSPost2010Prop53
 90
        2
102
RTVSPost2010PropOp53
 70
     1
102
RTVSPost2010Prop54
  1
strokes_ogs.tif
102
RTVSPost2010PropOp54
 70
     1
102
RTVSPost2010Prop55
280
     0
102
RTVSPost2010PropOp55
 70
     1
102
RTVSPost2010Prop56
140
1.0
102
RTVSPost2010PropOp56
 70
     1
102
RTVSPost2010Prop57
140
1.0
102
RTVSPost2010PropOp57
 70
     1
  0
XRECORD
  5
1E1
102
{ACAD_REACTORS
330
1E0
102
}
330
1E0
100
AcDbXrecord
280
     1
102
RTVSPropertyOp0
 70
     1
102
RTVSPropertyOp1
 70
     1
102
RTVSPropertyOp2
 70
     1
102
RTVSPropertyOp3
 70
     1
102
RTVSPropertyOp4
 70
     1
102
RTVSPropertyOp5
 70
     1
102
RTVSPropertyOp6
 70
     1
102
RTVSPropertyOp7
 70
     1
102
RTVSPropertyOp8
 70
     1
102
RTVSPropertyOp9
 70
     1
102
RTVSPropertyOp10
 70
     1
102
RTVSPropertyOp11
 70
     1
102
RTVSPropertyOp12
 70
     1
102
RTVSPropertyOp13
 70
     1
102
RTVSPropertyOp14
 70
     1
102
RTVSPropertyOp15
 70
     1
102
RTVSPropertyOp16
 70
     1
102
RTVSPropertyOp17
 70
     1
102
RTVSPropertyOp18
 70
     1
102
RTVSPropertyOp19
 70
     1
102
RTVSPropertyOp20
 70
     1
102
RTVSPropertyOp21
 70
     1
102
RTVSPropertyOp22
 70
     1
102
RTVSPropertyOp23
 70
     1
102
RTVSPropertyOp24
 70
     1
102
RTVSPropertyOp25
 70
     1
102
RTVSPropertyOp26
 70
     1
102
RTVSPropertyOp27
 70
     1
102
RTVSPropertyOp28
 70
     1
102
RTVSPropertyOp29
 70
     1
102
RTVSPropertyOp30
 70
     1
102
RTVSPropertyOp31
 70
     1
102
RTVSPropertyOp32
 70
     1
102
RTVSPropertyOp33
 70
     1
102
RTVSPropertyOp34
 70
     1
102
RTVSPropertyOp35
 70
     1
102
RTVSPropertyOp36
 70
     1
102
RTVSPropertyOp37
 70
     1
102
RTVSPropertyOp38
 70
     1
102
RTVSPropertyOp39
 70
     1
102
RTVSPropertyOp40
 70
     1
102
RTVSPropertyOp41
 70
     1
102
RTVSPropertyOp42
 70
     1
102
RTVSPropertyOp43
 70
     1
102
RTVSPropertyOp44
 70
     1
102
RTVSPropertyOp45
 70
     1
102
RTVSPropertyOp46
 70
     1
102
RTVSPropertyOp47
 70
     1
102
RTVSPropertyOp48
 70
     1
102
RTVSPropertyOp49
 70
     1
102
RTVSPropertyOp50
 70
     1
102
RTVSPropertyOp51
 70
     0
102
RTVSPropertyOp52
 70
     0
102
RTVSPropertyOp53
 70
     1
102
RTVSPropertyOp54
 70
     1
102
RTVSPropertyOp55
 70
     1
102
RTVSPropertyOp56
 70
     1
102
RTVSPropertyOp57
 70
     1
102
RTVSPost2010Prop28
280
     0
102
RTVSPost2010PropOp28
 70
     1
102
RTVSPost2010Prop29
280
     1
102
RTVSPost2010PropOp29
 70
     1
102
RTVSPost2010Prop30
280
     1
102
RTVSPost2010PropOp30
 70
     1
102
RTVSPost2010Prop31
280
     0
102
RTVSPost2010PropOp31
 70
     1
102
RTVSPost2010Prop32
280
     0
102
RTVSPost2010PropOp32
 70
     1
102
RTVSPost2010Prop33
280
     0
102
RTVSPost2010PropOp33
 70
     1
102
RTVSPost2010Prop34
280
     0
102
RTVSPost2010PropOp34
 70
     1
102
RTVSPost2010Prop35
280
     0
102
RTVSPost2010PropOp35
 70
     1
102
RTVSPost2010Prop36
280
     0
102
RTVSPost2010PropOp36
 70
     1
102
RTVSPost2010Prop37
 90
       50
102
RTVSPost2010PropOp37
 70
     1
102
RTVSPost2010Prop38
140
0.0
102
RTVSPost2010PropOp38
 70
     1
102
RTVSPost2010Prop39
140
1.0
102
RTVSPost2010PropOp39
 70
     1
102
RTVSPost2010Prop40
 90
        0
102
RTVSPost2010PropOp40
 70
     1
102
RTVSPost2010Prop41ColorIndex
 90
      178
102
RTVSPost2010Prop41ColorRGB
 90
        0
102
RTVSPost2010PropOp41
 70
     1
102
RTVSPost2010Prop42
 90
       50
102
RTVSPost2010PropOp42
 70
     1
102
RTVSPost2010Prop43
 90
        3
102
RTVSPost2010PropOp43
 70
     1
102
RTVSPost2010Prop44ColorIndex
 90
        5
102
RTVSPost2010Prop44ColorRGB
 90
      255
102
RTVSPost2010PropOp44
 70
     1
102
RTVSPost2010Prop45
280
     0
102
RTVSPost2010PropOp45
 70
     1
102
RTVSPost2010Prop46
 90
       50
102
RTVSPost2010PropOp46
 70
     1
102
RTVSPost2010Prop47
 90
       50
102
RTVSPost2010PropOp47
 70
     1
102
RTVSPost2010Prop48
 90
       50
102
RTVSPost2010PropOp48
 70
     1
102
RTVSPost2010Prop49
280
     0
102
RTVSPost2010PropOp49
 70
     1
102
RTVSPost2010Prop50
 90
       50
102
RTVSPost2010PropOp50
 70
     1
102
RTVSPost2010Prop51ColorIndex
 90
      256
102
RTVSPost2010Prop51ColorRGB
 90
-16777216
102
RTVSPost2010PropOp51
 70
     0
102
RTVSPost2010Prop52
140
1.0
102
RTVSPost2010PropOp52
 70
     0
102
RTVSPost2010Prop53
 90
        2
102
RTVSPost2010PropOp53
 70
     1
102
RTVSPost2010Prop54
  1
strokes_ogs.tif
102
RTVSPost2010PropOp54
 70
     1
102
RTVSPost2010Prop55
280
     0
102
RTVSPost2010PropOp55
 70
     1
102
RTVSPost2010Prop56
140
1.0
102
RTVSPost2010PropOp56
 70
     1
102
RTVSPost2010Prop57
140
1.0
102
RTVSPost2010PropOp57
 70
     1
  0
XRECORD
  5
201
102
{ACAD_REACTORS
330
200
102
}
330
200
100
AcDbXrecord
280
     1
102
RTVSPropertyOp0
 70
     1
102
RTVSPropertyOp1
 70
     1
102
RTVSPropertyOp2
 70
     1
102
RTVSPropertyOp3
 70
     1
102
RTVSPropertyOp4
 70
     1
102
RTVSPropertyOp5
 70
     1
102
RTVSPropertyOp6
 70
     1
102
RTVSPropertyOp7
 70
     1
102
RTVSPropertyOp8
 70
     1
102
RTVSPropertyOp9
 70
     1
102
RTVSPropertyOp10
 70
     1
102
RTVSPropertyOp11
 70
     1
102
RTVSPropertyOp12
 70
     1
102
RTVSPropertyOp13
 70
     1
102
RTVSPropertyOp14
 70
     1
102
RTVSPropertyOp15
 70
     1
102
RTVSPropertyOp16
 70
     1
102
RTVSPropertyOp17
 70
     1
102
RTVSPropertyOp18
 70
     1
102
RTVSPropertyOp19
 70
     1
102
RTVSPropertyOp20
 70
     1
102
RTVSPropertyOp21
 70
     1
102
RTVSPropertyOp22
 70
     1
102
RTVSPropertyOp23
 70
     1
102
RTVSPropertyOp24
 70
     1
102
RTVSPropertyOp25
 70
     1
102
RTVSPropertyOp26
 70
     1
102
RTVSPropertyOp27
 70
     1
102
RTVSPropertyOp28
 70
     1
102
RTVSPropertyOp29
 70
     1
102
RTVSPropertyOp30
 70
     1
102
RTVSPropertyOp31
 70
     1
102
RTVSPropertyOp32
 70
     1
102
RTVSPropertyOp33
 70
     1
102
RTVSPropertyOp34
 70
     1
102
RTVSPropertyOp35
 70
     1
102
RTVSPropertyOp36
 70
     1
102
RTVSPropertyOp37
 70
     1
102
RTVSPropertyOp38
 70
     1
102
RTVSPropertyOp39
 70
     1
102
RTVSPropertyOp40
 70
     1
102
RTVSPropertyOp41
 70
     1
102
RTVSPropertyOp42
 70
     1
102
RTVSPropertyOp43
 70
     1
102
RTVSPropertyOp44
 70
     1
102
RTVSPropertyOp45
 70
     1
102
RTVSPropertyOp46
 70
     1
102
RTVSPropertyOp47
 70
     1
102
RTVSPropertyOp48
 70
     1
102
RTVSPropertyOp49
 70
     1
102
RTVSPropertyOp50
 70
     1
102
RTVSPropertyOp51
 70
     0
102
RTVSPropertyOp52
 70
     0
102
RTVSPropertyOp53
 70
     1
102
RTVSPropertyOp54
 70
     1
102
RTVSPropertyOp55
 70
     1
102
RTVSPropertyOp56
 70
     1
102
RTVSPropertyOp57
 70
     1
102
RTVSPost2010Prop28
280
     0
102
RTVSPost2010PropOp28
 70
     1
102
RTVSPost2010Prop29
280
     1
102
RTVSPost2010PropOp29
 70
     1
102
RTVSPost2010Prop30
280
     1
102
RTVSPost2010PropOp30
 70
     1
102
RTVSPost2010Prop31
280
     0
102
RTVSPost2010PropOp31
 70
     1
102
RTVSPost2010Prop32
280
     0
102
RTVSPost2010PropOp32
 70
     1
102
RTVSPost2010Prop33
280
     0
102
RTVSPost2010PropOp33
 70
     1
102
RTVSPost2010Prop34
280
     0
102
RTVSPost2010PropOp34
 70
     1
102
RTVSPost2010Prop35
280
     0
102
RTVSPost2010PropOp35
 70
     1
102
RTVSPost2010Prop36
280
     0
102
RTVSPost2010PropOp36
 70
     1
102
RTVSPost2010Prop37
 90
       50
102
RTVSPost2010PropOp37
 70
     1
102
RTVSPost2010Prop38
140
0.0
102
RTVSPost2010PropOp38
 70
     1
102
RTVSPost2010Prop39
140
1.0
102
RTVSPost2010PropOp39
 70
     1
102
RTVSPost2010Prop40
 90
        0
102
RTVSPost2010PropOp40
 70
     1
102
RTVSPost2010Prop41ColorIndex
 90
      178
102
RTVSPost2010Prop41ColorRGB
 90
        0
102
RTVSPost2010PropOp41
 70
     1
102
RTVSPost2010Prop42
 90
       50
102
RTVSPost2010PropOp42
 70
     1
102
RTVSPost2010Prop43
 90
        3
102
RTVSPost2010PropOp43
 70
     1
102
RTVSPost2010Prop44ColorIndex
 90
        5
102
RTVSPost2010Prop44ColorRGB
 90
      255
102
RTVSPost2010PropOp44
 70
     1
102
RTVSPost2010Prop45
280
     0
102
RTVSPost2010PropOp45
 70
     1
102
RTVSPost2010Prop46
 90
       50
102
RTVSPost2010PropOp46
 70
     1
102
RTVSPost2010Prop47
 90
       50
102
RTVSPost2010PropOp47
 70
     1
102
RTVSPost2010Prop48
 90
       50
102
RTVSPost2010PropOp48
 70
     1
102
RTVSPost2010Prop49
280
     0
102
RTVSPost2010PropOp49
 70
     1
102
RTVSPost2010Prop50
 90
       50
102
RTVSPost2010PropOp50
 70
     1
102
RTVSPost2010Prop51ColorIndex
 90
      256
102
RTVSPost2010Prop51ColorRGB
 90
-16777216
102
RTVSPost2010PropOp51
 70
     0
102
RTVSPost2010Prop52
140
1.0
102
RTVSPost2010PropOp52
 70
     0
102
RTVSPost2010Prop53
 90
        2
102
RTVSPost2010PropOp53
 70
     1
102
RTVSPost2010Prop54
  1
strokes_ogs.tif
102
RTVSPost2010PropOp54
 70
     1
102
RTVSPost2010Prop55
280
     0
102
RTVSPost2010PropOp55
 70
     1
102
RTVSPost2010Prop56
140
1.0
102
RTVSPost2010PropOp56
 70
     1
102
RTVSPost2010Prop57
140
1.0
102
RTVSPost2010PropOp57
 70
     1
  0
ENDSEC
  0
EOF
