  0
SECTION
  2
HEADER
  9
$ACADVER
  1
AC1015
  9
$ACADMAINTVER
 70
     6
  9
$DWGCODEPAGE
  3
ANSI_1252
  9
$INSBASE
 10
0.0
 20
0.0
 30
0.0
  9
$EXTMIN
 10
1.000000000000000E+20
 20
1.000000000000000E+20
 30
1.000000000000000E+20
  9
$EXTMAX
 10
-1.000000000000000E+20
 20
-1.000000000000000E+20
 30
-1.000000000000000E+20
  9
$LIMMIN
 10
0.0
 20
0.0
  9
$LIMMAX
 10
12.0
 20
9.0
  9
$ORTHOMODE
 70
     0
  9
$REGENMODE
 70
     1
  9
$FILLMODE
 70
     1
  9
$QTEXTMODE
 70
     0
  9
$MIRRTEXT
 70
     1
  9
$LTSCALE
 40
1.0
  9
$ATTMODE
 70
     1
  9
$TEXTSIZE
 40
0.2
  9
$TRACEWID
 40
0.05
  9
$TEXTSTYLE
  7
Standard
  9
$CLAYER
  8
0
  9
$CELTYPE
  6
ByLayer
  9
$CECOLOR
 62
   256
  9
$CELTSCALE
 40
1.0
  9
$DISPSILH
 70
     0
  9
$DIMSCALE
 40
1.0
  9
$DIMASZ
 40
0.18
  9
$DIMEXO
 40
0.0625
  9
$DIMDLI
 40
0.38
  9
$DIMRND
 40
0.0
  9
$DIMDLE
 40
0.0
  9
$DIMEXE
 40
0.18
  9
$DIMTP
 40
0.0
  9
$DIMTM
 40
0.0
  9
$DIMTXT
 40
0.18
  9
$DIMCEN
 40
0.09
  9
$DIMTSZ
 40
0.0
  9
$DIMTOL
 70
     0
  9
$DIMLIM
 70
     0
  9
$DIMTIH
 70
     1
  9
$DIMTOH
 70
     1
  9
$DIMSE1
 70
     0
  9
$DIMSE2
 70
     0
  9
$DIMTAD
 70
     0
  9
$DIMZIN
 70
     0
  9
$DIMBLK
  1

  9
$DIMASO
 70
     1
  9
$DIMSHO
 70
     1
  9
$DIMPOST
  1

  9
$DIMAPOST
  1

  9
$DIMALT
 70
     0
  9
$DIMALTD
 70
     2
  9
$DIMALTF
 40
25.4
  9
$DIMLFAC
 40
1.0
  9
$DIMTOFL
 70
     0
  9
$DIMTVP
 40
0.0
  9
$DIMTIX
 70
     0
  9
$DIMSOXD
 70
     0
  9
$DIMSAH
 70
     0
  9
$DIMBLK1
  1

  9
$DIMBLK2
  1

  9
$DIMSTYLE
  2
Standard
  9
$DIMCLRD
 70
     0
  9
$DIMCLRE
 70
     0
  9
$DIMCLRT
 70
     0
  9
$DIMTFAC
 40
1.0
  9
$DIMGAP
 40
0.09
  9
$DIMJUST
 70
     0
  9
$DIMSD1
 70
     0
  9
$DIMSD2
 70
     0
  9
$DIMTOLJ
 70
     1
  9
$DIMTZIN
 70
     0
  9
$DIMALTZ
 70
     0
  9
$DIMALTTZ
 70
     0
  9
$DIMUPT
 70
     0
  9
$DIMDEC
 70
     4
  9
$DIMTDEC
 70
     4
  9
$DIMALTU
 70
     2
  9
$DIMALTTD
 70
     2
  9
$DIMTXSTY
  7
Standard
  9
$DIMAUNIT
 70
     0
  9
$DIMADEC
 70
     0
  9
$DIMALTRND
 40
0.0
  9
$DIMAZIN
 70
     0
  9
$DIMDSEP
 70
    46
  9
$DIMATFIT
 70
     3
  9
$DIMFRAC
 70
     0
  9
$DIMLDRBLK
  1

  9
$DIMLUNIT
 70
     2
  9
$DIMLWD
 70
    -2
  9
$DIMLWE
 70
    -2
  9
$DIMTMOVE
 70
     0
  9
$LUNITS
 70
     2
  9
$LUPREC
 70
     4
  9
$SKETCHINC
 40
0.1
  9
$FILLETRAD
 40
0.5
  9
$AUNITS
 70
     0
  9
$AUPREC
 70
     0
  9
$MENU
  1
.
  9
$ELEVATION
 40
0.0
  9
$PELEVATION
 40
0.0
  9
$THICKNESS
 40
0.0
  9
$LIMCHECK
 70
     0
  9
$CHAMFERA
 40
0.0
  9
$CHAMFERB
 40
0.0
  9
$CHAMFERC
 40
0.0
  9
$CHAMFERD
 40
0.0
  9
$SKPOLY
 70
     0
  9
$TDCREATE
 40
2459275.435682951
  9
$TDUCREATE
 40
2459275.394016284
  9
$TDUPDATE
 40
2459275.435683727
  9
$TDUUPDATE
 40
2459275.39401706
  9
$TDINDWG
 40
0.0000000116
  9
$TDUSRTIMER
 40
0.0000000116
  9
$USRTIMER
 70
     1
  9
$ANGBASE
 50
0.0
  9
$ANGDIR
 70
     0
  9
$PDMODE
 70
     0
  9
$PDSIZE
 40
0.0
  9
$PLINEWID
 40
0.0
  9
$SPLFRAME
 70
     0
  9
$SPLINETYPE
 70
     6
  9
$SPLINESEGS
 70
     8
  9
$HANDSEED
  5
2D8
  9
$SURFTAB1
 70
     6
  9
$SURFTAB2
 70
     6
  9
$SURFTYPE
 70
     6
  9
$SURFU
 70
     6
  9
$SURFV
 70
     6
  9
$UCSBASE
  2

  9
$UCSNAME
  2

  9
$UCSORG
 10
0.0
 20
0.0
 30
0.0
  9
$UCSXDIR
 10
1.0
 20
0.0
 30
0.0
  9
$UCSYDIR
 10
0.0
 20
1.0
 30
0.0
  9
$UCSORTHOREF
  2

  9
$UCSORTHOVIEW
 70
     0
  9
$UCSORGTOP
 10
0.0
 20
0.0
 30
0.0
  9
$UCSORGBOTTOM
 10
0.0
 20
0.0
 30
0.0
  9
$UCSORGLEFT
 10
0.0
 20
0.0
 30
0.0
  9
$UCSORGRIGHT
 10
0.0
 20
0.0
 30
0.0
  9
$UCSORGFRONT
 10
0.0
 20
0.0
 30
0.0
  9
$UCSORGBACK
 10
0.0
 20
0.0
 30
0.0
  9
$PUCSBASE
  2

  9
$PUCSNAME
  2

  9
$PUCSORG
 10
0.0
 20
0.0
 30
0.0
  9
$PUCSXDIR
 10
1.0
 20
0.0
 30
0.0
  9
$PUCSYDIR
 10
0.0
 20
1.0
 30
0.0
  9
$PUCSORTHOREF
  2

  9
$PUCSORTHOVIEW
 70
     0
  9
$PUCSORGTOP
 10
0.0
 20
0.0
 30
0.0
  9
$PUCSORGBOTTOM
 10
0.0
 20
0.0
 30
0.0
  9
$PUCSORGLEFT
 10
0.0
 20
0.0
 30
0.0
  9
$PUCSORGRIGHT
 10
0.0
 20
0.0
 30
0.0
  9
$PUCSORGFRONT
 10
0.0
 20
0.0
 30
0.0
  9
$PUCSORGBACK
 10
0.0
 20
0.0
 30
0.0
  9
$USERI1
 70
     0
  9
$USERI2
 70
     0
  9
$USERI3
 70
     0
  9
$USERI4
 70
     0
  9
$USERI5
 70
     0
  9
$USERR1
 40
0.0
  9
$USERR2
 40
0.0
  9
$USERR3
 40
0.0
  9
$USERR4
 40
0.0
  9
$USERR5
 40
0.0
  9
$WORLDVIEW
 70
     1
  9
$SHADEDGE
 70
     3
  9
$SHADEDIF
 70
    70
  9
$TILEMODE
 70
     0
  9
$MAXACTVP
 70
    64
  9
$PINSBASE
 10
0.0
 20
0.0
 30
0.0
  9
$PLIMCHECK
 70
     0
  9
$PEXTMIN
 10
1.000000000000000E+20
 20
1.000000000000000E+20
 30
1.000000000000000E+20
  9
$PEXTMAX
 10
-1.000000000000000E+20
 20
-1.000000000000000E+20
 30
-1.000000000000000E+20
  9
$PLIMMIN
 10
0.0
 20
0.0
  9
$PLIMMAX
 10
12.0
 20
9.0
  9
$UNITMODE
 70
     0
  9
$VISRETAIN
 70
     1
  9
$PLINEGEN
 70
     0
  9
$PSLTSCALE
 70
     0
  9
$TREEDEPTH
 70
  3020
  9
$CMLSTYLE
  2
Standard
  9
$CMLJUST
 70
     0
  9
$CMLSCALE
 40
1.0
  9
$PROXYGRAPHICS
 70
     1
  9
$MEASUREMENT
 70
     0
  9
$CELWEIGHT
370
    -1
  9
$ENDCAPS
280
     0
  9
$JOINSTYLE
280
     0
  9
$LWDISPLAY
290
     1
  9
$INSUNITS
 70
     6
  9
$HYPERLINKBASE
  1

  9
$STYLESHEET
  1

  9
$XEDIT
290
     1
  9
$CEPSNTYPE
380
     0
  9
$PSTYLEMODE
290
     1
  9
$FINGERPRINTGUID
  2
{84721bb7-21f4-b24a-a6ab-70a80570ce5a}
  9
$VERSIONGUID
  2
{FAEB1C32-E019-11D5-929B-00C0DF256EC4}
  9
$EXTNAMES
290
     1
  9
$PSVPSCALE
 40
0.0
  9
$OLESTARTUP
290
     0
  0
ENDSEC
  0
SECTION
  2
CLASSES
  0
CLASS
  1
ACDBDICTIONARYWDFLT
  2
AcDbDictionaryWithDefault
  3
ObjectDBX Classes
 90
        0
280
     0
281
     0
  0
CLASS
  1
VISUALSTYLE
  2
AcDbVisualStyle
  3
ObjectDBX Classes
 90
     4095
280
     0
281
     0
  0
CLASS
  1
MATERIAL
  2
AcDbMaterial
  3
ObjectDBX Classes
 90
     1153
280
     0
281
     0
  0
CLASS
  1
SCALE
  2
AcDbScale
  3
ObjectDBX Classes
 90
     1153
280
     0
281
     0
  0
CLASS
  1
TABLESTYLE
  2
AcDbTableStyle
  3
ObjectDBX Classes
 90
     4095
280
     0
281
     0
  0
CLASS
  1
MLEADERSTYLE
  2
AcDbMLeaderStyle
  3
ACDB_MLEADERSTYLE_CLASS
 90
     4095
280
     0
281
     0
  0
CLASS
  1
SUN
  2
AcDbSun
  3
SCENEOE
 90
     1153
280
     0
281
     0
  0
CLASS
  1
SPATIAL_FILTER
  2
AcDbSpatialFilter
  3
ObjectDBX Classes
 90
        0
280
     0
281
     0
  0
CLASS
  1
DICTIONARYVAR
  2
AcDbDictionaryVar
  3
ObjectDBX Classes
 90
        0
280
     0
281
     0
  0
CLASS
  1
ACDBPLACEHOLDER
  2
AcDbPlaceHolder
  3
ObjectDBX Classes
 90
        0
280
     0
281
     0
  0
CLASS
  1
LAYOUT
  2
AcDbLayout
  3
ObjectDBX Classes
 90
        0
280
     0
281
     0
  0
ENDSEC
  0
SECTION
  2
TABLES
  0
TABLE
  2
VPORT
  5
8
102
{ACAD_XDICTIONARY
360
29A
102
}
330
0
100
AcDbSymbolTable
 70
     1
  0
VPORT
  5
29
330
8
100
AcDbSymbolTableRecord
100
AcDbViewportTableRecord
  2
*Active
 70
     0
 10
0.0
 20
0.0
 11
1.0
 21
1.0
 12
10.42990654205607
 22
4.5
 13
0.0
 23
0.0
 14
0.5
 24
0.5
 15
0.5
 25
0.5
 16
0.0
 26
0.0
 36
1.0
 17
0.0
 27
0.0
 37
0.0
 40
9.0
 41
1.972972972850329
 42
50.0
 43
0.0
 44
0.0
 50
0.0
 51
0.0
 71
     0
 72
   100
 73
     1
 74
     3
 75
     0
 76
     0
 77
     0
 78
     0
281
     0
 65
     1
110
0.0
120
0.0
130
0.0
111
1.0
121
0.0
131
0.0
112
0.0
122
1.0
132
0.0
 79
     0
146
0.0
  0
ENDTAB
  0
TABLE
  2
LTYPE
  5
5
330
0
100
AcDbSymbolTable
 70
     5
  0
LTYPE
  5
14
330
5
100
AcDbSymbolTableRecord
100
AcDbLinetypeTableRecord
  2
ByBlock
 70
     0
  3

 72
    65
 73
     0
 40
0.0
  0
LTYPE
  5
15
330
5
100
AcDbSymbolTableRecord
100
AcDbLinetypeTableRecord
  2
ByLayer
 70
     0
  3

 72
    65
 73
     0
 40
0.0
  0
LTYPE
  5
16
330
5
100
AcDbSymbolTableRecord
100
AcDbLinetypeTableRecord
  2
Continuous
 70
     0
  3
Solid line
 72
    65
 73
     0
 40
0.0
  0
LTYPE
  5
12D
330
5
100
AcDbSymbolTableRecord
100
AcDbLinetypeTableRecord
  2
GETRENNT2_S6
 70
     0
  3
- - - - - 
 72
    65
 73
     4
 40
0.0135
 49
0.0075
 74
     0
 49
-0.003
 74
     0
 49
0.0
 74
     0
 49
-0.003
 74
     0
  0
LTYPE
  5
134
330
5
100
AcDbSymbolTableRecord
100
AcDbLinetypeTableRecord
  2
STRICHPUNKT2_S5
 70
     0
  3
- - - - - 
 72
    65
 73
     4
 40
0.011
 49
0.005
 74
     0
 49
-0.003
 74
     0
 49
0.0
 74
     0
 49
-0.003
 74
     0
  0
LTYPE
  5
161
330
5
100
AcDbSymbolTableRecord
100
AcDbLinetypeTableRecord
  2
LINIE_34
 70
     0
  3
- - - - - 
 72
    65
 73
     2
 40
0.02
 49
0.0125
 74
     0
 49
-0.0075
 74
     0
  0
LTYPE
  5
166
330
5
100
AcDbSymbolTableRecord
100
AcDbLinetypeTableRecord
  2
STRICHLINIE_S4
 70
     0
  3
- - - - - 
 72
    65
 73
     2
 40
0.01
 49
0.005
 74
     0
 49
-0.005
 74
     0
  0
ENDTAB
  0
TABLE
  2
LAYER
  5
2
330
0
100
AcDbSymbolTable
 70
     6
  0
LAYER
  5
10
330
2
100
AcDbSymbolTableRecord
100
AcDbLayerTableRecord
  2
0
 70
     0
 62
     7
  6
Continuous
370
    -3
390
F
  0
LAYER
  5
70
330
2
100
AcDbSymbolTableRecord
100
AcDbLayerTableRecord
  2
FORMAT
 70
     1
 62
    -7
  6
Continuous
370
    -3
390
F
  0
LAYER
  5
78
330
2
100
AcDbSymbolTableRecord
100
AcDbLayerTableRecord
  2
A1------H2_______Schraffur_Filling_1_5
 70
     0
 62
     7
  6
Continuous
370
    -3
390
F
  0
LAYER
  5
91
330
2
100
AcDbSymbolTableRecord
100
AcDbLayerTableRecord
  2
A1E-----M5_______Rohbau
 70
     0
 62
     7
  6
Continuous
370
    -3
390
F
  0
LAYER
  5
A5
330
2
100
AcDbSymbolTableRecord
100
AcDbLayerTableRecord
  2
A1-----1H2_______Schraffur_1_5
 70
     0
 62
     7
  6
Continuous
370
    -3
390
F
  0
LAYER
  5
C5
330
2
100
AcDbSymbolTableRecord
100
AcDbLayerTableRecord
  2
A1------T2_______Text_1_5
 70
     0
 62
     7
  6
Continuous
370
    -3
390
F
  0
ENDTAB
  0
TABLE
  2
STYLE
  5
3
330
0
100
AcDbSymbolTable
 70
     2
  0
STYLE
  5
11
330
3
100
AcDbSymbolTableRecord
100
AcDbTextStyleTableRecord
  2
Standard
 70
     0
 40
0.0
 41
1.0
 50
0.0
 71
     0
 42
0.2
  3
txt
  4

  0
STYLE
  5
215
330
3
100
AcDbSymbolTableRecord
100
AcDbTextStyleTableRecord
  2
ERSTELLTER_STIL_1
 70
     0
 40
0.0
 41
1.0
 50
0.0
 71
     0
 42
0.2
  3

  4

1001
ACAD
1000
Arial
1071
       34
  0
ENDTAB
  0
TABLE
  2
VIEW
  5
6
330
0
100
AcDbSymbolTable
 70
     0
  0
ENDTAB
  0
TABLE
  2
UCS
  5
7
330
0
100
AcDbSymbolTable
 70
     0
  0
ENDTAB
  0
TABLE
  2
APPID
  5
9
330
0
100
AcDbSymbolTable
 70
     2
  0
APPID
  5
12
330
9
100
AcDbSymbolTableRecord
100
AcDbRegAppTableRecord
  2
ACAD
 70
     0
  0
APPID
  5
2D4
330
9
100
AcDbSymbolTableRecord
100
AcDbRegAppTableRecord
  2
ACAD_MLEADERVER
 70
     0
  0
ENDTAB
  0
TABLE
  2
DIMSTYLE
  5
A
330
0
100
AcDbSymbolTable
 70
     1
100
AcDbDimStyleTable
  0
DIMSTYLE
105
27
330
A
100
AcDbSymbolTableRecord
100
AcDbDimStyleTableRecord
  2
Standard
 70
     0
178
     0
340
11
  0
ENDTAB
  0
TABLE
  2
BLOCK_RECORD
  5
1
330
0
100
AcDbSymbolTable
 70
     2
  0
BLOCK_RECORD
  5
1F
330
1
100
AcDbSymbolTableRecord
100
AcDbBlockTableRecord
  2
*Model_Space
340
22
  0
BLOCK_RECORD
  5
1B
330
1
100
AcDbSymbolTableRecord
100
AcDbBlockTableRecord
  2
*Paper_Space
340
1E
  0
BLOCK_RECORD
  5
74
330
1
100
AcDbSymbolTableRecord
100
AcDbBlockTableRecord
  2
Zeichnung_1_1
340
0
102
{BLKREFS
331
248
102
}
  0
BLOCK_RECORD
  5
24C
330
1
100
AcDbSymbolTableRecord
100
AcDbBlockTableRecord
  2
02.22 26. Detail E.5_STORY_MARKER
340
0
  0
ENDTAB
  0
ENDSEC
  0
SECTION
  2
BLOCKS
  0
BLOCK
  5
20
330
1F
100
AcDbEntity
  8
0
100
AcDbBlockBegin
  2
*Model_Space
 70
     0
 10
0.0
 20
0.0
 30
0.0
  3
*Model_Space
  1

  0
ENDBLK
  5
21
330
1F
100
AcDbEntity
  8
0
100
AcDbBlockEnd
  0
BLOCK
  5
1C
330
1B
100
AcDbEntity
 67
     1
  8
0
100
AcDbBlockBegin
  2
*Paper_Space
 70
     0
 10
0.0
 20
0.0
 30
0.0
  3
*Paper_Space
  1

  0
ENDBLK
  5
1D
330
1B
100
AcDbEntity
 67
     1
  8
0
100
AcDbBlockEnd
  0
BLOCK
  5
75
330
74
100
AcDbEntity
  8
0
100
AcDbBlockBegin
  2
Zeichnung_1_1
 70
     0
 10
1688.024586529066
 20
1652.125871091721
 30
0.0
  3
Zeichnung_1_1
  1

  0
HATCH
  5
77
330
74
100
AcDbEntity
  8
A1------H2_______Schraffur_Filling_1_5
  6
Continuous
 62
   254
370
    13
100
AcDbHatch
 10
0.0
 20
0.0
 30
0.0
210
0.0
220
0.0
230
1.0
  2
SOLID
 70
     1
 71
     0
 91
        1
 92
        3
 72
     0
 73
     1
 93
        8
 10
56.21163608357826
 20
131.4223220471826
 10
46.34031220794732
 20
127.8294539836513
 10
46.34031220794732
 20
95.82945398365106
 10
56.21163608357826
 20
92.23658592012018
 10
56.21163608357826
 20
92.66225702911024
 10
46.74031220794706
 20
96.10953699893531
 10
46.74031220794706
 20
127.5493709683675
 10
56.21163608357826
 20
130.9966509381921
 97
        0
 75
     0
 76
     1
 98
        0
  0
HATCH
  5
79
330
74
100
AcDbEntity
  8
A1------H2_______Schraffur_Filling_1_5
  6
Continuous
 62
     7
370
    13
100
AcDbHatch
 10
0.0
 20
0.0
 30
0.0
210
0.0
220
0.0
230
1.0
  2
Dämmstoff__allgemein_hor_0A
 70
     0
 71
     0
 91
        1
 92
        3
 72
     0
 73
     1
 93
        4
 10
49.21416711606419
 20
149.3110135101197
 10
80.45457880204232
 20
149.3110135101197
 10
80.45457880204232
 20
215.0580211015443
 10
49.21416711606419
 20
215.0580211015443
 97
        0
 75
     0
 76
     2
 52
0.0
 41
1.0
 77
     0
 78
     1
 53
0.0
 43
64.83437295905325
 44
171.2281826189321
 45
0.0
 46
4.0
 79
     0
 98
        0
  0
HATCH
  5
7A
330
74
100
AcDbEntity
  8
A1------H2_______Schraffur_Filling_1_5
  6
Continuous
 62
   254
370
    13
100
AcDbHatch
 10
0.0
 20
0.0
 30
0.0
210
0.0
220
0.0
230
1.0
  2
SOLID
 70
     1
 71
     0
 91
        1
 92
        3
 72
     0
 73
     1
 93
       38
 10
59.13184289825213
 20
139.9452154549914
 10
58.08205156042057
 20
140.695066410585
 10
52.55457880204251
 20
140.695066410585
 10
52.55457880204251
 20
145.2473486678765
 10
52.23321410678805
 20
145.2473486678765
 10
52.18962508566239
 20
143.3079241306805
 10
52.0630002504392
 20
142.3534952681626
 10
51.94932653584306
 20
141.1131544861617
 10
51.89243028583679
 20
139.8689158492365
 10
51.88531546934128
 20
139.2461464358736
 10
51.89243028583679
 20
138.6233770225109
 10
51.94932653584306
 20
137.3791383855858
 10
52.0630002504392
 20
136.1387976035862
 10
52.23321410678805
 20
133.244944203871
 10
52.55457880204251
 20
133.244944203871
 10
52.55457880204251
 20
137.7972264611622
 10
58.08205156042057
 20
137.7972264611622
 10
59.13184289825213
 20
138.5470774167559
 10
86.25457880195864
 20
138.5470774167559
 10
87.43525737433711
 20
138.3760927982007
 10
88.62277329140578
 20
138.2618843144301
 10
89.8143979096826
 20
138.2047143907561
 10
91.0073931448141
 20
138.2047143907561
 10
92.19901776309337
 20
138.2618843144301
 10
93.38653368016404
 20
138.3760927982007
 10
94.5672122525425
 20
138.5470774167563
 10
94.56721225254117
 20
139.1452990496025
 10
94.74256463467223
 20
139.1452990496025
 10
94.74256463467223
 20
139.3469938221448
 10
94.5672122525405
 20
139.3469938221448
 10
94.56721225253872
 20
139.9452154549918
 10
93.38653368016114
 20
140.1162000735465
 10
92.19901776309337
 20
140.2304085573172
 10
91.00739314481987
 20
140.2875784809912
 10
89.8143979096826
 20
140.2875784809912
 10
88.622773291404
 20
140.2304085573169
 10
87.43525737433977
 20
140.1162000735465
 10
86.25457880195842
 20
139.9452154549914
 97
        0
 75
     0
 76
     1
 98
        0
  0
HATCH
  5
7B
330
74
100
AcDbEntity
  8
A1------H2_______Schraffur_Filling_1_5
  6
Continuous
 62
   254
370
    35
100
AcDbHatch
 10
0.0
 20
0.0
 30
0.0
210
0.0
220
0.0
230
1.0
  2
SOLID
 70
     1
 71
     0
 91
        1
 92
        3
 72
     0
 73
     1
 93
        4
 10
82.25457880204235
 20
140.2452154549911
 10
82.25457880204235
 20
215.0580211015443
 10
80.85457880204228
 20
215.0580211015443
 10
80.85457880204228
 20
140.2452154549911
 97
        0
 75
     0
 76
     1
 98
        0
  0
HATCH
  5
7C
330
74
100
AcDbEntity
  8
A1------H2_______Schraffur_Filling_1_5
  6
Continuous
 62
   254
370
    35
100
AcDbHatch
 10
0.0
 20
0.0
 30
0.0
210
0.0
220
0.0
230
1.0
  2
SOLID
 70
     1
 71
     0
 91
        1
 92
        3
 72
     0
 73
     1
 93
        4
 10
80.85457880204228
 20
85.02616308431766
 10
82.42488515678859
 20
85.02616308431766
 10
82.42488515678859
 20
138.2452154549911
 10
80.85457880204228
 20
138.2452154549911
 97
        0
 75
     0
 76
     1
 98
        0
  0
HATCH
  5
7D
330
74
100
AcDbEntity
  8
A1------H2_______Schraffur_Filling_1_5
  6
Continuous
 62
    21
370
    20
100
AcDbHatch
 10
0.0
 20
0.0
 30
0.0
210
0.0
220
0.0
230
1.0
  2
SOLID
 70
     1
 71
     0
 91
        1
 92
        3
 72
     0
 73
     1
 93
       52
 10
47.45457880204241
 20
215.0580211015443
 10
46.54216047481885
 20
215.0580211015443
 10
46.51239130204221
 20
214.8196421952939
 10
46.4608288020425
 20
214.6131968827942
 10
46.4608288020425
 20
214.4841929765442
 10
46.48661005204202
 20
214.148646101544
 10
46.48661005204202
 20
213.7616343827944
 10
46.51239130204221
 20
190.9891905488375
 10
46.51239130204221
 20
188.176299923837
 10
46.48661005204202
 20
186.8344053925872
 10
46.4092663020419
 20
185.8279600800872
 10
46.4092663020419
 20
184.5118467988372
 10
46.3832897395422
 20
183.2989561738374
 10
46.3832897395422
 20
181.9570616425872
 10
46.35750848954201
 20
180.6409483613374
 10
46.35750848954201
 20
179.7635069550874
 10
46.30594598954207
 20
178.6280577363373
 10
46.30594598954207
 20
176.2280577363371
 10
46.43504755204209
 20
175.5443663300871
 10
46.45953920928214
 20
174.2320616425872
 10
46.51239130204221
 20
173.0153624238371
 10
46.61571161454204
 20
171.9056944550872
 10
46.71883661454235
 20
170.718585080087
 10
46.77039911454229
 20
169.6089171113373
 10
46.77039911454229
 20
166.7960264863368
 10
46.74461786454209
 20
165.8154600800872
 10
46.69305536454216
 20
164.7832335175872
 10
46.66727411454197
 20
164.189678830087
 10
46.66727411454197
 20
163.699346798837
 10
46.64149286454222
 20
163.1573546113374
 10
46.58973505204234
 20
162.4090147675874
 10
46.51239130204221
 20
161.9186827363372
 10
46.51239130204221
 20
161.4025694550869
 10
46.56395380204215
 20
160.576788205087
 10
46.58973505204234
 20
160.2929014863372
 10
46.58973505204234
 20
159.6220030488373
 10
46.56395380204215
 20
159.2606749238372
 10
46.56395380204215
 20
158.847784298837
 10
46.58973505204234
 20
158.1510069550871
 10
46.64149286454222
 20
157.5833311738373
 10
46.53905145829241
 20
156.317608517587
 10
46.52342645829211
 20
155.3165342988374
 10
46.4608288020425
 20
154.1591124238371
 10
46.4608288020425
 20
151.7033507050869
 10
46.49207880204243
 20
150.7022764863373
 10
46.52342645829211
 20
149.4510069550872
 10
46.47645380204213
 20
147.980694455087
 10
46.41385614579185
 20
146.7919249238372
 10
46.3200084895421
 20
129.6377901090731
 10
46.34031220794732
 20
129.1915726303623
 10
46.47871934084513
 20
128.7150733220079
 10
47.45457880204241
 20
128.8289157463063
 97
        0
 75
     0
 76
     1
 98
        0
  0
HATCH
  5
7E
330
74
100
AcDbEntity
  8
A1------H2_______Schraffur_Filling_1_5
  6
Continuous
 62
   255
370
     9
100
AcDbHatch
 10
0.0
 20
0.0
 30
0.0
210
0.0
220
0.0
230
1.0
  2
SOLID
 70
     1
 71
     0
 91
        1
 92
        3
 72
     0
 73
     1
 93
       11
 10
77.31010537812067
 20
119.3294539836509
 10
46.74031220794706
 20
119.3294539836509
 10
46.74031220794706
 20
96.10953699893531
 10
56.21163608357826
 20
92.66225702911024
 10
56.21163608357826
 20
92.23658592012018
 10
49.25457880204242
 20
94.76874768868426
 10
49.25457880204242
 20
85.42640160932025
 10
80.45457880204232
 20
85.42640160932025
 10
80.45457880204232
 20
119.3294539836509
 10
79.88404981020759
 20
119.3294539836509
 10
77.31010537812134
 20
118.0267616083868
 97
        0
 75
     0
 76
     1
 98
        0
  0
HATCH
  5
7F
330
74
100
AcDbEntity
  8
A1------H2_______Schraffur_Filling_1_5
  6
Continuous
 62
   255
370
     9
100
AcDbHatch
 10
0.0
 20
0.0
 30
0.0
210
0.0
220
0.0
230
1.0
  2
SOLID
 70
     1
 71
     0
 91
        1
 92
        3
 72
     0
 73
     1
 93
        8
 10
49.25457880204242
 20
148.5110135101195
 10
49.25457880204242
 20
145.9473486678762
 10
53.25457880204243
 20
145.9473486678762
 10
53.25457880204243
 20
140.995066410585
 10
58.17819107644296
 20
140.995066410585
 10
59.22798241427429
 20
140.2452154549909
 10
80.45457880204232
 20
140.2452154549911
 10
80.45457880204232
 20
148.5110135101195
 97
        0
 75
     0
 76
     1
 98
        0
  0
HATCH
  5
80
330
74
100
AcDbEntity
  8
A1------H2_______Schraffur_Filling_1_5
  6
Continuous
 62
     7
370
    13
100
AcDbHatch
 10
0.0
 20
0.0
 30
0.0
210
0.0
220
0.0
230
1.0
  2
Dämmstoff__EPS_horizonta_4F
 70
     0
 71
     0
 91
        1
 92
        3
 72
     0
 73
     1
 93
        4
 10
48.85457880204203
 20
132.944944203871
 10
51.68531546934108
 20
132.944944203871
 10
51.68531546934108
 20
145.5473486678764
 10
48.85457880204203
 20
145.5473486678764
 97
        0
 75
     0
 76
     2
 52
0.0
 41
1.0
 77
     0
 78
     1
 53
0.0
 43
50.26994713569155
 44
139.2461464358736
 45
0.0
 46
2.0
 79
     0
 98
        0
  0
HATCH
  5
81
330
74
100
AcDbEntity
  8
A1------H2_______Schraffur_Filling_1_5
  6
Continuous
 62
   251
370
     9
100
AcDbHatch
 10
0.0
 20
0.0
 30
0.0
210
0.0
220
0.0
230
1.0
  2
SOLID
 70
     1
 71
     0
 91
        1
 92
        3
 72
     0
 73
     1
 93
        4
 10
47.45457880204241
 20
128.2350138569386
 10
48.85457880204203
 20
128.7445721849112
 10
48.85457880204203
 20
128.9162033806017
 10
47.45457880204241
 20
130.4617914743085
 97
        0
 75
     0
 76
     1
 98
        0
  0
HATCH
  5
82
330
74
100
AcDbEntity
  8
A1------H2_______Schraffur_Filling_1_5
  6
Continuous
 62
   255
370
     9
100
AcDbHatch
 10
0.0
 20
0.0
 30
0.0
210
0.0
220
0.0
230
1.0
  2
SOLID
 70
     1
 71
     0
 91
        1
 92
        3
 72
     0
 73
     1
 93
       15
 10
56.21163608357826
 20
130.9966509381917
 10
46.74031220794706
 20
127.5493709683675
 10
46.74031220794706
 20
119.3294539836509
 10
77.31010537812067
 20
119.3294539836509
 10
77.31010537812134
 20
118.0267616083868
 10
79.88404981020759
 20
119.3294539836509
 10
80.45457880204232
 20
119.3294539836509
 10
80.45457880204232
 20
138.2470774167564
 10
59.22798241427496
 20
138.2470774167566
 10
58.17819107644296
 20
137.4972264611623
 10
53.25457880204243
 20
137.4972264611623
 10
53.25457880204243
 20
132.5449442038711
 10
49.25457880204242
 20
132.5449442038711
 10
49.25457880204242
 20
128.8901602786177
 10
56.21163608357826
 20
131.4223220471822
 97
        0
 75
     0
 76
     1
 98
        0
  0
HATCH
  5
83
330
74
100
AcDbEntity
  8
A1------H2_______Schraffur_Filling_1_5
  6
Continuous
 62
   254
370
    35
100
AcDbHatch
 10
0.0
 20
0.0
 30
0.0
210
0.0
220
0.0
230
1.0
  2
SOLID
 70
     1
 71
     0
 91
        1
 92
        3
 72
     0
 73
     1
 93
        4
 10
48.85457880204203
 20
215.0580211015443
 10
47.45457880204241
 20
215.0580211015443
 10
47.45457880204241
 20
130.4617914743085
 10
48.85457880204203
 20
128.9162033806017
 97
        0
 75
     0
 76
     1
 98
        0
  0
HATCH
  5
84
330
74
100
AcDbEntity
  8
A1------H2_______Schraffur_Filling_1_5
  6
Continuous
 62
     7
370
    13
100
AcDbHatch
 10
0.0
 20
0.0
 30
0.0
210
0.0
220
0.0
230
1.0
  2
Beton_0001
 70
     0
 71
     0
 91
        1
 92
        3
 72
     0
 73
     1
 93
        4
 10
126.1755329784138
 20
66.7587764782669
 10
14.99999999999901
 20
66.7587764782669
 10
14.99999999999901
 20
24.91317338111365
 10
126.1755329784138
 20
24.91317338111365
 97
        0
 75
     0
 76
     2
 52
0.0
 41
1.0
 77
     0
 78
     2
 53
44.99999999999998
 43
1688.024586529066
 44
1652.125871091721
 45
-5.656854249492378
 46
5.656854249492382
 79
     0
 53
135.0000000000002
 43
1688.024586529066
 44
1652.125871091721
 45
5.656854249492363
 46
5.656854249492397
 79
     0
 98
        0
  0
HATCH
  5
85
330
74
100
AcDbEntity
  8
A1------H2_______Schraffur_Filling_1_5
  6
Continuous
 62
     7
370
    13
100
AcDbHatch
 10
0.0
 20
0.0
 30
0.0
210
0.0
220
0.0
230
1.0
  2
Zementstein_0001
 70
     0
 71
     0
 91
        1
 92
        3
 72
     0
 73
     1
 93
        4
 10
43.5659578304064
 20
101.5241420824979
 10
14.99999999999901
 20
101.5241420824979
 10
14.99999999999901
 20
93.5241420824977
 10
43.5659578304064
 20
93.5241420824977
 97
        0
 75
     0
 76
     2
 52
0.0
 41
1.0
 77
     0
 78
     2
 53
315.0
 43
1688.024586529066
 44
1652.125871091721
 45
4.242640687119284
 46
4.242640687119287
 79
     0
 53
315.0
 43
1689.438800091439
 44
1653.540084654094
 45
4.242640687119284
 46
4.242640687119287
 79
     0
 98
        0
  0
HATCH
  5
86
330
74
100
AcDbEntity
  8
A1------H2_______Schraffur_Filling_1_5
  6
Continuous
 62
     7
370
    13
100
AcDbHatch
 10
0.0
 20
0.0
 30
0.0
210
0.0
220
0.0
230
1.0
  2
Diagonal_0_5mm_0001
 70
     0
 71
     0
 91
        1
 92
        3
 72
     1
 73
     1
 93
       11
 10
82.42488515678859
 20
215.0580211015443
 42
0.0
 10
82.42488515678859
 20
140.2452154549911
 42
0.0
 10
86.25457880204212
 20
140.2452154549914
 42
-0.0842210690211816
 10
94.6787459238041
 20
140.2262942734334
 42
0.0
 10
95.16925414972621
 20
139.2461464358736
 42
0.0
 10
94.6787459238041
 20
138.2659985983141
 42
-0.0856741583089769
 10
86.25457880195842
 20
138.2470774167559
 42
0.0
 10
82.42488515678859
 20
138.2452143503781
 42
0.0
 10
82.42488515678859
 20
66.59187005658728
 42
0.0
 10
117.4248851609012
 20
66.59187005658728
 42
0.0
 10
117.4248851609012
 20
215.0580211015443
 42
0.0
 97
        0
 75
     0
 76
     2
 52
0.0
 41
1.0
 77
     0
 78
     1
 53
44.99999999999997
 43
1688.024586529066
 44
1652.125871091721
 45
-3.535533905932736
 46
3.535533905932739
 79
     0
 98
        0
  0
HATCH
  5
87
330
74
100
AcDbEntity
  8
A1------H2_______Schraffur_Filling_1_5
  6
Continuous
 62
     7
370
    13
100
AcDbHatch
 10
0.0
 20
0.0
 30
0.0
210
0.0
220
0.0
230
1.0
  2
Dämmstoff__allgemein_hor_0A
 70
     0
 71
     0
 91
        1
 92
        3
 72
     0
 73
     1
 93
        4
 10
14.99999999999901
 20
84.59187005658731
 10
14.99999999999901
 20
67.3918700565872
 10
81.60865989654931
 20
67.3918700565872
 10
81.60865989654931
 20
84.59187005658731
 97
        0
 75
     0
 76
     2
 52
0.0
 41
1.0
 77
     0
 78
     1
 53
90.0
 43
44.53821245457767
 44
70.45420778857259
 45
-2.529038944647887
 46
0.0
 79
     0
 98
        0
  0
HATCH
  5
88
330
74
100
AcDbEntity
  8
A1------H2_______Schraffur_Filling_1_5
  6
Continuous
 62
   254
370
    13
100
AcDbHatch
 10
0.0
 20
0.0
 30
0.0
210
0.0
220
0.0
230
1.0
  2
SOLID
 70
     1
 71
     0
 91
        1
 92
        3
 72
     0
 73
     1
 93
        6
 10
189.0196081907571
 20
194.5344559611488
 10
152.1538185337152
 20
181.1164059886397
 10
152.1538185337152
 20
162.9067578543231
 10
153.9632469682675
 20
162.2188597415888
 10
153.9632469682675
 20
179.8494318880304
 10
189.4050910862228
 20
192.749208164692
 97
        0
 75
     0
 76
     1
 98
        0
  0
HATCH
  5
89
330
74
100
AcDbEntity
  8
A1------H2_______Schraffur_Filling_1_5
  6
Continuous
 62
   251
370
     9
100
AcDbHatch
 10
0.0
 20
0.0
 30
0.0
210
0.0
220
0.0
230
1.0
  2
SOLID
 70
     1
 71
     0
 91
        1
 92
        3
 72
     0
 73
     1
 93
        3
 10
156.5218188706357
 20
182.7062278734051
 10
162.854816110769
 20
185.011250362503
 10
156.5218188706357
 20
192.7792110913986
 97
        0
 75
     0
 76
     1
 98
        0
  0
HATCH
  5
8A
330
74
100
AcDbEntity
  8
A1------H2_______Schraffur_Filling_1_5
  6
Continuous
 62
   254
370
    35
100
AcDbHatch
 10
0.0
 20
0.0
 30
0.0
210
0.0
220
0.0
230
1.0
  2
SOLID
 70
     1
 71
     0
 91
        1
 92
        3
 72
     0
 73
     1
 93
        4
 10
162.854816110769
 20
215.0579702418116
 10
156.5218188706357
 20
215.0579702418116
 10
156.5218188706357
 20
192.7792110913986
 10
162.854816110769
 20
185.011250362503
 97
        0
 75
     0
 76
     1
 98
        0
  0
HATCH
  5
8B
330
74
100
AcDbEntity
  8
A1------H2_______Schraffur_Filling_1_5
  6
Continuous
 62
     7
370
    13
100
AcDbHatch
 10
0.0
 20
0.0
 30
0.0
210
0.0
220
0.0
230
1.0
  2
Dämmstoff__EPS_horizonta_F9
 70
     0
 71
     0
 91
        1
 92
        3
 72
     1
 73
     1
 93
        5
 10
182.7585209690634
 20
190.3300538847363
 42
0.0
 10
153.9632463166125
 20
179.8494317975874
 42
0.0
 10
153.9632463166125
 20
162.279200381644
 42
0.2318726971371204
 10
177.4587821411666
 20
165.1403065484944
 42
0.3024367213640235
 10
189.405090869442
 20
192.7492064599636
 42
0.0
 97
        0
 75
     0
 76
     2
 52
0.0
 41
1.0
 77
     0
 78
     1
 53
0.0
 43
1688.024586529066
 44
1652.125871091721
 45
0.0
 46
4.0
 79
     0
 98
        0
  0
LWPOLYLINE
  5
8C
330
74
100
AcDbEntity
  8
A1------H2_______Schraffur_Filling_1_5
  6
Continuous
 62
     7
 48
1000.0
370
    60
100
AcDbPolyline
 90
        5
 70
   129
 43
0.0
 10
182.7585209690634
 20
190.3300538847363
 10
153.9632463166125
 20
179.8494317975874
 10
153.9632463166125
 20
162.279200381644
 42
0.2318726971371204
 10
177.4587821411666
 20
165.1403065484944
 42
0.3024367213640235
 10
189.405090869442
 20
192.7492064599636
  0
HATCH
  5
8D
330
74
100
AcDbEntity
  8
A1------H2_______Schraffur_Filling_1_5
  6
Continuous
 62
     7
370
    13
100
AcDbHatch
 10
0.0
 20
0.0
 30
0.0
210
0.0
220
0.0
230
1.0
  2
Dämmstoff__EPS_horizonta_F9
 70
     0
 71
     0
 91
        1
 92
        3
 72
     1
 73
     1
 93
        4
 10
180.9490939397182
 20
208.0046427757285
 42
0.1850025001376846
 10
162.854816110769
 20
215.0575136096282
 42
0.0
 10
162.854816110769
 20
185.011250362503
 42
0.0
 10
189.0196084538731
 20
194.5344559611488
 42
0.1477986425496042
 97
        0
 75
     0
 76
     2
 52
0.0
 41
1.0
 77
     0
 78
     1
 53
0.0
 43
1688.024586529066
 44
1652.125871091721
 45
0.0
 46
4.0
 79
     0
 98
        0
  0
HATCH
  5
8E
330
74
100
AcDbEntity
  8
A1------H2_______Schraffur_Filling_1_5
  6
Continuous
 62
     7
370
    13
100
AcDbHatch
 10
0.0
 20
0.0
 30
0.0
210
0.0
220
0.0
230
1.0
  2
Dichtungsmasse_0001
 70
     0
 71
     0
 91
        1
 92
        3
 72
     0
 73
     1
 93
       11
 10
153.2437376018216
 20
190.3056360899627
 10
153.5383595448563
 20
188.9891656994511
 10
153.5098191554818
 20
184.277067763801
 10
156.5218190376245
 20
183.7113845695142
 10
156.5218190376245
 20
214.3637791734654
 10
153.7609465832847
 20
213.5229497668763
 10
153.8762198617969
 20
209.0782927459176
 10
153.5581939473889
 20
207.3609295913812
 10
153.3898466152719
 20
201.3739941120161
 10
153.5957119283715
 20
198.4582042755685
 10
153.4815563256993
 20
193.7261143578033
 97
        0
 75
     0
 76
     2
 52
0.0
 41
1.0
 77
     0
 78
     2
 53
53.13010235415595
 43
1688.024586529066
 44
1656.125871091721
 45
-0.9545941546018389
 46
1.272792206135786
 79
     4
 49
0.0
 49
-1.060660171779821
 49
0.0
 49
-1.590990257669732
 53
105.2684716313825
 43
1691.024586529066
 44
1656.125871091721
 45
1.268585038060977
 46
0.6156362579861996
 79
     4
 49
0.0
 49
-0.857186052537228
 49
0.0
 49
-1.480594090746121
 98
        0
  0
LWPOLYLINE
  5
8F
330
74
100
AcDbEntity
  8
A1------H2_______Schraffur_Filling_1_5
  6
Continuous
 62
     7
 48
1000.0
370
    25
100
AcDbPolyline
 90
       11
 70
   129
 43
0.0
 10
153.2437376018216
 20
190.3056360899627
 10
153.5383595448563
 20
188.9891656994511
 10
153.5098191554818
 20
184.277067763801
 10
156.5218190376245
 20
183.7113845695142
 10
156.5218190376245
 20
214.3637791734654
 10
153.7609465832847
 20
213.5229497668763
 10
153.8762198617969
 20
209.0782927459176
 10
153.5581939473889
 20
207.3609295913812
 10
153.3898466152719
 20
201.3739941120161
 10
153.5957119283715
 20
198.4582042755685
 10
153.4815563256993
 20
193.7261143578033
  0
LINE
  5
90
330
74
100
AcDbEntity
  8
A1E-----M5_______Rohbau
  6
Continuous
 62
     7
 48
1000.0
370
    25
100
AcDbLine
 10
81.60865989654931
 20
84.59187005658731
 30
0.0
 11
14.99999999999901
 21
84.59187005658731
 31
0.0
  0
LINE
  5
92
330
74
100
AcDbEntity
  8
A1E-----M5_______Rohbau
  6
Continuous
 62
     7
 48
1000.0
370
    25
100
AcDbLine
 10
81.60865989654931
 20
67.3918700565872
 30
0.0
 11
81.60865989654931
 21
85.02616308431766
 31
0.0
  0
LINE
  5
93
330
74
100
AcDbEntity
  8
A1E-----M5_______Rohbau
  6
Continuous
 62
     7
 48
1000.0
370
    30
100
AcDbLine
 10
48.85457880204203
 20
148.9110135101193
 30
0.0
 11
80.85457880204228
 21
148.9110135101193
 31
0.0
  0
LINE
  5
94
330
74
100
AcDbEntity
  8
A1E-----M5_______Rohbau
  6
Continuous
 62
     7
 48
1000.0
370
    30
100
AcDbLine
 10
48.85457880204203
 20
145.5473486678764
 30
0.0
 11
48.85457880204203
 21
132.944944203871
 31
0.0
  0
LINE
  5
95
330
74
100
AcDbEntity
  8
A1E-----M5_______Rohbau
  6
Continuous
 62
     7
 48
1000.0
370
    30
100
AcDbLine
 10
81.75457880204195
 20
85.02616308431766
 30
0.0
 11
48.85457880204203
 21
85.02616308431766
 31
0.0
  0
LINE
  5
96
330
74
100
AcDbEntity
  8
A1E-----M5_______Rohbau
  6
Continuous
 62
     7
 48
1000.0
370
    13
100
AcDbLine
 10
43.5659578304064
 20
101.5241420824979
 30
0.0
 11
43.5659578304064
 21
93.52414208249772
 31
0.0
  0
LINE
  5
97
330
74
100
AcDbEntity
  8
A1E-----M5_______Rohbau
  6
Continuous
 62
     7
 48
1000.0
370
    13
100
AcDbLine
 10
43.5659578304064
 20
99.02114580560894
 30
0.0
 11
46.34031220794732
 21
99.02114580560894
 31
0.0
  0
LINE
  5
98
330
74
100
AcDbEntity
  8
A1E-----M5_______Rohbau
  6
Continuous
 62
     7
 48
1000.0
370
    30
100
AcDbLine
 10
56.21163608357826
 20
92.66225702911024
 30
0.0
 11
56.21163608357826
 21
92.23658592012018
 31
0.0
  0
LINE
  5
99
330
74
100
AcDbEntity
  8
A1E-----M5_______Rohbau
  6
Continuous
 62
     7
 48
1000.0
370
    30
100
AcDbLine
 10
46.34031220794732
 20
95.82945398365106
 30
0.0
 11
56.21163608357826
 21
92.23658592012018
 31
0.0
  0
LINE
  5
9A
330
74
100
AcDbEntity
  8
A1E-----M5_______Rohbau
  6
Continuous
 62
     7
 48
1000.0
370
    30
100
AcDbLine
 10
56.21163608357826
 20
92.66225702911024
 30
0.0
 11
46.74031220794705
 21
96.10953699893489
 31
0.0
  0
LINE
  5
9B
330
74
100
AcDbEntity
  8
A1E-----M5_______Rohbau
  6
Continuous
 62
     7
 48
1000.0
370
    30
100
AcDbLine
 10
46.34031220794732
 20
95.82945398365106
 30
0.0
 11
46.34031220794732
 21
127.8294539836511
 31
0.0
  0
LINE
  5
9C
330
74
100
AcDbEntity
  8
A1E-----M5_______Rohbau
  6
Continuous
 62
     7
 48
1000.0
370
    30
100
AcDbLine
 10
46.74031220794705
 20
96.10953699893489
 30
0.0
 11
46.74031220794705
 21
127.549370968367
 31
0.0
  0
LINE
  5
9D
330
74
100
AcDbEntity
  8
A1E-----M5_______Rohbau
  6
Continuous
 62
     7
 48
1000.0
370
    30
100
AcDbLine
 10
46.74031220794705
 20
127.549370968367
 30
0.0
 11
56.21163608357826
 21
130.9966509381917
 31
0.0
  0
LINE
  5
9E
330
74
100
AcDbEntity
  8
A1E-----M5_______Rohbau
  6
Continuous
 62
     7
 48
1000.0
370
    30
100
AcDbLine
 10
56.21163608357826
 20
131.4223220471818
 30
0.0
 11
56.21163608357826
 21
130.9966509381917
 31
0.0
  0
LINE
  5
9F
330
74
100
AcDbEntity
  8
A1E-----M5_______Rohbau
  6
Continuous
 62
     7
 48
1000.0
370
    13
100
AcDbLine
 10
43.5659578304064
 20
93.52414208249772
 30
0.0
 11
14.99999999999901
 21
93.52414208249772
 31
0.0
  0
LINE
  5
A0
330
74
100
AcDbEntity
  8
A1E-----M5_______Rohbau
  6
Continuous
 62
     7
 48
1000.0
370
    30
100
AcDbLine
 10
48.85457880204203
 20
95.340006891381
 30
0.0
 11
48.85457880204203
 21
128.3189010759209
 31
0.0
  0
LINE
  5
A1
330
74
100
AcDbEntity
  8
A1E-----M5_______Rohbau
  6
Continuous
 62
     7
 48
1000.0
370
    30
100
AcDbLine
 10
48.85457880204203
 20
85.02616308431766
 30
0.0
 11
48.85457880204203
 21
94.91433578239072
 31
0.0
  0
LINE
  5
A2
330
74
100
AcDbEntity
  8
A1E-----M5_______Rohbau
  6
Continuous
 62
     7
 48
1000.0
370
    30
100
AcDbLine
 10
48.85457880204203
 20
128.7445721849112
 30
0.0
 11
48.85457880204203
 21
132.944944203871
 31
0.0
  0
LINE
  5
A3
330
74
100
AcDbEntity
  8
A1E-----M5_______Rohbau
  6
Continuous
 62
     7
 48
1000.0
370
    13
100
AcDbLine
 10
46.47871934084514
 20
128.7150733220082
 30
0.0
 11
46.34031220794732
 21
129.1915726303625
 31
0.0
  0
LINE
  5
A4
330
74
100
AcDbEntity
  8
A1-----1H2_______Schraffur_1_5
  6
Continuous
 62
     7
 48
1000.0
370
    13
100
AcDbLine
 10
16.63403269653774
 20
90.7808536760355
 30
0.0
 11
16.93403270845928
 21
90.87685367984987
 31
0.0
  0
LINE
  5
A6
330
74
100
AcDbEntity
  8
A1-----1H2_______Schraffur_1_5
  6
Continuous
 62
     7
 48
1000.0
370
    13
100
AcDbLine
 10
31.63403329258418
 20
90.7808536760355
 30
0.0
 11
31.93403330450572
 21
90.87685367984987
 31
0.0
  0
LINE
  5
A7
330
74
100
AcDbEntity
  8
A1-----1H2_______Schraffur_1_5
  6
Continuous
 62
     7
 48
1000.0
370
    13
100
AcDbLine
 10
46.63403388863063
 20
90.7808536760355
 30
0.0
 11
46.93403390055217
 21
90.87685367984987
 31
0.0
  0
LINE
  5
A8
330
74
100
AcDbEntity
  8
A1-----1H2_______Schraffur_1_5
  6
Continuous
 62
     7
 48
1000.0
370
    13
100
AcDbLine
 10
28.27403315907052
 20
89.40085362119922
 30
0.0
 11
28.27403315907052
 21
89.22085361404663
 31
0.0
  0
LINE
  5
A9
330
74
100
AcDbEntity
  8
A1-----1H2_______Schraffur_1_5
  6
Continuous
 62
     7
 48
1000.0
370
    13
100
AcDbLine
 10
43.27403375511696
 20
89.40085362119922
 30
0.0
 11
43.27403375511696
 21
89.22085361404663
 31
0.0
  0
LINE
  5
AA
330
74
100
AcDbEntity
  8
A1-----1H2_______Schraffur_1_5
  6
Continuous
 62
     7
 48
1000.0
370
    13
100
AcDbLine
 10
44.09903378789881
 20
95.60485386772388
 30
0.0
 11
44.10903378789931
 21
95.60485386772388
 31
0.0
  0
LINE
  5
AB
330
74
100
AcDbEntity
  8
A1-----1H2_______Schraffur_1_5
  6
Continuous
 62
     7
 48
1000.0
370
    13
100
AcDbLine
 10
20.38403284554935
 20
85.60885347051884
 30
0.0
 11
20.74403285985471
 21
85.59685347004175
 31
0.0
  0
LINE
  5
AC
330
74
100
AcDbEntity
  8
A1-----1H2_______Schraffur_1_5
  6
Continuous
 62
     7
 48
1000.0
370
    13
100
AcDbLine
 10
35.3840334415958
 20
85.60885347051884
 30
0.0
 11
35.74403345590116
 21
85.59685347004175
 31
0.0
  0
LINE
  5
AD
330
74
100
AcDbEntity
  8
A1-----1H2_______Schraffur_1_5
  6
Continuous
 62
     7
 48
1000.0
370
    13
100
AcDbLine
 10
25.6490330547623
 20
85.75285347624062
 30
0.0
 11
25.88903306429869
 21
85.83685347957835
 31
0.0
  0
LINE
  5
AE
330
74
100
AcDbEntity
  8
A1-----1H2_______Schraffur_1_5
  6
Continuous
 62
     7
 48
1000.0
370
    13
100
AcDbLine
 10
40.64903365080874
 20
85.75285347624062
 30
0.0
 11
40.88903366034513
 21
85.83685347957835
 31
0.0
  0
LINE
  5
AF
330
74
100
AcDbEntity
  8
A1-----1H2_______Schraffur_1_5
  6
Continuous
 62
     7
 48
1000.0
370
    13
100
AcDbLine
 10
23.44403296714326
 20
88.2248535744692
 30
0.0
 11
23.60903297369977
 21
88.24885357542288
 31
0.0
  0
LINE
  5
B0
330
74
100
AcDbEntity
  8
A1-----1H2_______Schraffur_1_5
  6
Continuous
 62
     7
 48
1000.0
370
    13
100
AcDbLine
 10
38.4440335631897
 20
88.2248535744692
 30
0.0
 11
38.60903356974621
 21
88.24885357542288
 31
0.0
  0
LINE
  5
B1
330
74
100
AcDbEntity
  8
A1-----1H2_______Schraffur_1_5
  6
Continuous
 62
     7
 48
1000.0
370
    13
100
AcDbLine
 10
20.53403285151023
 20
90.9728536836647
 30
0.0
 11
20.72903285925864
 21
90.88885368032695
 31
0.0
  0
LINE
  5
B2
330
74
100
AcDbEntity
  8
A1-----1H2_______Schraffur_1_5
  6
Continuous
 62
     7
 48
1000.0
370
    13
100
AcDbLine
 10
35.53403344755669
 20
90.9728536836647
 30
0.0
 11
35.72903345530509
 21
90.88885368032695
 31
0.0
  0
LINE
  5
B3
330
74
100
AcDbEntity
  8
A1-----1H2_______Schraffur_1_5
  6
Continuous
 62
     7
 48
1000.0
370
    13
100
AcDbLine
 10
17.15903271739983
 20
87.58885354919687
 30
0.0
 11
17.00903271143894
 21
87.3848535410906
 31
0.0
  0
LINE
  5
B4
330
74
100
AcDbEntity
  8
A1-----1H2_______Schraffur_1_5
  6
Continuous
 62
     7
 48
1000.0
370
    13
100
AcDbLine
 10
32.15903331344627
 20
87.58885354919687
 30
0.0
 11
32.0090333074854
 21
87.3848535410906
 31
0.0
  0
LINE
  5
B5
330
74
100
AcDbEntity
  8
A1-----1H2_______Schraffur_1_5
  6
Continuous
 62
     7
 48
1000.0
370
    13
100
AcDbLine
 10
47.15903390949273
 20
87.58885354919687
 30
0.0
 11
47.0090339035325
 21
87.3848535410906
 31
0.0
  0
LINE
  5
B6
330
74
100
AcDbEntity
  8
A1-----1H2_______Schraffur_1_5
  6
Continuous
 62
     7
 48
1000.0
370
    13
100
AcDbLine
 10
22.46903292840052
 20
87.21685353441467
 30
0.0
 11
22.47903292840014
 21
87.21685353441467
 31
0.0
  0
LINE
  5
B7
330
74
100
AcDbEntity
  8
A1-----1H2_______Schraffur_1_5
  6
Continuous
 62
     7
 48
1000.0
370
    13
100
AcDbLine
 10
37.46903352444697
 20
87.21685353441467
 30
0.0
 11
37.47903352444659
 21
87.21685353441467
 31
0.0
  0
LINE
  5
B8
330
74
100
AcDbEntity
  8
A1-----1H2_______Schraffur_1_5
  6
Continuous
 62
     7
 48
1000.0
370
    13
100
AcDbLine
 10
24.59903301303857
 20
92.14885373039495
 30
0.0
 11
24.85403302317146
 21
92.25685373468639
 31
0.0
  0
LINE
  5
B9
330
74
100
AcDbEntity
  8
A1-----1H2_______Schraffur_1_5
  6
Continuous
 62
     7
 48
1000.0
370
    13
100
AcDbLine
 10
39.59903360908502
 20
92.14885373039495
 30
0.0
 11
39.85403361921791
 21
92.25685373468639
 31
0.0
  0
LINE
  5
BA
330
74
100
AcDbEntity
  8
A1-----1H2_______Schraffur_1_5
  6
Continuous
 62
     7
 48
1000.0
370
    13
100
AcDbLine
 10
43.34903375809662
 20
93.25285377426384
 30
0.0
 11
43.40555215564557
 21
93.52414208249772
 31
0.0
  0
LINE
  5
BB
330
74
100
AcDbEntity
  8
A1-----1H2_______Schraffur_1_5
  6
Continuous
 62
     7
 48
1000.0
370
    13
100
AcDbLine
 10
16.96403270965119
 20
92.56885374708413
 30
0.0
 11
17.14403271680376
 21
92.4728537432693
 31
0.0
  0
LINE
  5
BC
330
74
100
AcDbEntity
  8
A1-----1H2_______Schraffur_1_5
  6
Continuous
 62
     7
 48
1000.0
370
    13
100
AcDbLine
 10
31.96403330569764
 20
92.56885374708413
 30
0.0
 11
32.1440333128502
 21
92.4728537432693
 31
0.0
  0
LINE
  5
BD
330
74
100
AcDbEntity
  8
A1-----1H2_______Schraffur_1_5
  6
Continuous
 62
     7
 48
1000.0
370
    13
100
AcDbLine
 10
46.96403390174409
 20
92.56885374708413
 30
0.0
 11
47.14403390889665
 21
92.4728537432693
 31
0.0
  0
LINE
  5
BE
330
74
100
AcDbEntity
  8
A1-----1H2_______Schraffur_1_5
  6
Continuous
 62
     7
 48
1000.0
370
    13
100
AcDbLine
 10
46.45403388147806
 20
95.24485385341852
 30
0.0
 11
46.844033896976
 21
95.2808538548493
 31
0.0
  0
LINE
  5
BF
330
74
100
AcDbEntity
  8
A1-----1H2_______Schraffur_1_5
  6
Continuous
 62
     7
 48
1000.0
370
    13
100
AcDbLine
 10
18.82403278356115
 20
91.21285369320175
 30
0.0
 11
19.01903279130956
 21
91.40485370083074
 31
0.0
  0
LINE
  5
C0
330
74
100
AcDbEntity
  8
A1-----1H2_______Schraffur_1_5
  6
Continuous
 62
     7
 48
1000.0
370
    13
100
AcDbLine
 10
33.82403337960761
 20
91.21285369320175
 30
0.0
 11
34.01903338735601
 21
91.40485370083074
 31
0.0
  0
LINE
  5
C1
330
74
100
AcDbEntity
  8
A1-----1H2_______Schraffur_1_5
  6
Continuous
 62
     7
 48
1000.0
370
    13
100
AcDbLine
 10
48.82403397565405
 20
91.21285369320175
 30
0.0
 11
48.85457880204203
 21
91.24292859918425
 31
0.0
  0
LINE
  5
C2
330
74
100
AcDbEntity
  8
A1-----1H2_______Schraffur_1_5
  6
Continuous
 62
     7
 48
1000.0
370
    13
100
AcDbLine
 10
28.66403317456756
 20
87.3368535391832
 30
0.0
 11
28.43903316562635
 21
87.22885353489151
 31
0.0
  0
LINE
  5
C3
330
74
100
AcDbEntity
  8
A1-----1H2_______Schraffur_1_5
  6
Continuous
 62
     7
 48
1000.0
370
    13
100
AcDbLine
 10
43.66403377061401
 20
87.3368535391832
 30
0.0
 11
43.4390337616728
 21
87.22885353489151
 31
0.0
  0
LINE
  5
C4
330
74
100
AcDbEntity
  8
A1------T2_______Text_1_5
  6
Continuous
 62
     7
 48
1000.0
370
    20
100
AcDbLine
 10
16.98325544028268
 20
99.48303469769826
 30
0.0
 11
16.98325544028268
 21
140.9622887660837
 31
0.0
  0
LINE
  5
C6
330
74
100
AcDbEntity
  8
A1------T2_______Text_1_5
  6
Continuous
 62
     7
 48
1000.0
370
    20
100
AcDbLine
 10
15.38330551963263
 20
139.2461464358736
 30
0.0
 11
41.56215828582521
 21
139.2461464358736
 31
0.0
  0
LINE
  5
C7
330
74
100
AcDbEntity
  8
A1------T2_______Text_1_5
  6
Continuous
 62
     7
 48
1000.0
370
    60
100
AcDbLine
 10
16.04138920774245
 20
140.1880126684138
 30
0.0
 11
17.92512167282356
 21
138.3042802033334
 31
0.0
  0
LINE
  5
C8
330
74
100
AcDbEntity
  8
A1------T2_______Text_1_5
  6
Continuous
 62
     7
 48
1000.0
370
    13
100
AcDbLine
 10
17.93840822296988
 20
101.5241420824979
 30
0.0
 11
43.5659578304064
 21
101.5241420824979
 31
0.0
  0
LINE
  5
C9
330
74
100
AcDbEntity
  8
A1------T2_______Text_1_5
  6
Continuous
 62
     7
 48
1000.0
370
    60
100
AcDbLine
 10
16.04138920774245
 20
102.4660083150382
 30
0.0
 11
17.92512167282356
 21
100.5822758499577
 31
0.0
  0
LINE
  5
CA
330
74
100
AcDbEntity
  8
A1E-----M5_______Rohbau
  6
Continuous
 62
     7
 48
1000.0
370
    60
100
AcDbLine
 10
117.4248851567885
 20
215.0580211015443
 30
0.0
 11
117.4248851567885
 21
66.59187005658728
 31
0.0
  0
LINE
  5
CB
330
74
100
AcDbEntity
  8
A1E-----M5_______Rohbau
  6
Continuous
 62
     7
 48
1000.0
370
    30
100
AcDbLine
 10
48.85457880204203
 20
143.5473486678764
 30
0.0
 11
48.85457880204203
 21
215.0580211015443
 31
0.0
  0
LINE
  5
CC
330
74
100
AcDbEntity
  8
A1E-----M5_______Rohbau
  6
Continuous
 62
     7
 48
1000.0
370
    13
100
AcDbLine
 10
46.64149286454222
 20
157.5833311738373
 30
0.0
 11
46.58973505204234
 21
158.1510069550871
 31
0.0
  0
LINE
  5
CD
330
74
100
AcDbEntity
  8
A1E-----M5_______Rohbau
  6
Continuous
 62
     7
 48
1000.0
370
    13
100
AcDbLine
 10
46.58973505204234
 20
158.1510069550871
 30
0.0
 11
46.56395380204215
 21
158.847784298837
 31
0.0
  0
LINE
  5
CE
330
74
100
AcDbEntity
  8
A1E-----M5_______Rohbau
  6
Continuous
 62
     7
 48
1000.0
370
    13
100
AcDbLine
 10
46.56395380204215
 20
158.847784298837
 30
0.0
 11
46.56395380204215
 21
159.2606749238372
 31
0.0
  0
LINE
  5
CF
330
74
100
AcDbEntity
  8
A1E-----M5_______Rohbau
  6
Continuous
 62
     7
 48
1000.0
370
    13
100
AcDbLine
 10
46.56395380204215
 20
159.2606749238372
 30
0.0
 11
46.58973505204234
 21
159.6220030488369
 31
0.0
  0
LINE
  5
D0
330
74
100
AcDbEntity
  8
A1E-----M5_______Rohbau
  6
Continuous
 62
     7
 48
1000.0
370
    13
100
AcDbLine
 10
46.58973505204234
 20
159.6220030488369
 30
0.0
 11
46.58973505204234
 21
159.7767882050871
 31
0.0
  0
LINE
  5
D1
330
74
100
AcDbEntity
  8
A1E-----M5_______Rohbau
  6
Continuous
 62
     7
 48
1000.0
370
    13
100
AcDbLine
 10
46.58973505204234
 20
159.7767882050871
 30
0.0
 11
46.58973505204234
 21
160.0864561738371
 31
0.0
  0
LINE
  5
D2
330
74
100
AcDbEntity
  8
A1E-----M5_______Rohbau
  6
Continuous
 62
     7
 48
1000.0
370
    13
100
AcDbLine
 10
46.58973505204234
 20
160.0864561738371
 30
0.0
 11
46.58973505204234
 21
160.2929014863372
 31
0.0
  0
LINE
  5
D3
330
74
100
AcDbEntity
  8
A1E-----M5_______Rohbau
  6
Continuous
 62
     7
 48
1000.0
370
    13
100
AcDbLine
 10
46.58973505204234
 20
160.2929014863372
 30
0.0
 11
46.56395380204215
 21
160.576788205087
 31
0.0
  0
LINE
  5
D4
330
74
100
AcDbEntity
  8
A1E-----M5_______Rohbau
  6
Continuous
 62
     7
 48
1000.0
370
    13
100
AcDbLine
 10
46.56395380204215
 20
160.576788205087
 30
0.0
 11
46.51239130204221
 21
161.4025694550869
 31
0.0
  0
LINE
  5
D5
330
74
100
AcDbEntity
  8
A1E-----M5_______Rohbau
  6
Continuous
 62
     7
 48
1000.0
370
    13
100
AcDbLine
 10
46.51239130204221
 20
161.4025694550869
 30
0.0
 11
46.51239130204221
 21
161.9186827363372
 31
0.0
  0
LINE
  5
D6
330
74
100
AcDbEntity
  8
A1E-----M5_______Rohbau
  6
Continuous
 62
     7
 48
1000.0
370
    13
100
AcDbLine
 10
46.51239130204221
 20
161.9186827363372
 30
0.0
 11
46.58973505204234
 21
162.4090147675874
 31
0.0
  0
LINE
  5
D7
330
74
100
AcDbEntity
  8
A1E-----M5_______Rohbau
  6
Continuous
 62
     7
 48
1000.0
370
    13
100
AcDbLine
 10
46.58973505204234
 20
162.4090147675874
 30
0.0
 11
46.64149286454222
 21
163.1573546113374
 31
0.0
  0
LINE
  5
D8
330
74
100
AcDbEntity
  8
A1E-----M5_______Rohbau
  6
Continuous
 62
     7
 48
1000.0
370
    13
100
AcDbLine
 10
46.64149286454222
 20
163.1573546113374
 30
0.0
 11
46.66727411454197
 21
163.699346798837
 31
0.0
  0
LINE
  5
D9
330
74
100
AcDbEntity
  8
A1E-----M5_______Rohbau
  6
Continuous
 62
     7
 48
1000.0
370
    13
100
AcDbLine
 10
46.66727411454197
 20
163.699346798837
 30
0.0
 11
46.66727411454197
 21
164.189678830087
 31
0.0
  0
LINE
  5
DA
330
74
100
AcDbEntity
  8
A1E-----M5_______Rohbau
  6
Continuous
 62
     7
 48
1000.0
370
    13
100
AcDbLine
 10
46.66727411454197
 20
164.189678830087
 30
0.0
 11
46.69305536454216
 21
164.7832335175872
 31
0.0
  0
LINE
  5
DB
330
74
100
AcDbEntity
  8
A1E-----M5_______Rohbau
  6
Continuous
 62
     7
 48
1000.0
370
    13
100
AcDbLine
 10
46.69305536454216
 20
164.7832335175872
 30
0.0
 11
46.74461786454209
 21
165.8154600800872
 31
0.0
  0
LINE
  5
DC
330
74
100
AcDbEntity
  8
A1E-----M5_______Rohbau
  6
Continuous
 62
     7
 48
1000.0
370
    13
100
AcDbLine
 10
46.74461786454209
 20
165.8154600800872
 30
0.0
 11
46.77039911454229
 21
166.7960264863368
 31
0.0
  0
LINE
  5
DD
330
74
100
AcDbEntity
  8
A1E-----M5_______Rohbau
  6
Continuous
 62
     7
 48
1000.0
370
    13
100
AcDbLine
 10
46.77039911454229
 20
166.7960264863368
 30
0.0
 11
46.77039911454229
 21
168.1380186738371
 31
0.0
  0
LINE
  5
DE
330
74
100
AcDbEntity
  8
A1E-----M5_______Rohbau
  6
Continuous
 62
     7
 48
1000.0
370
    13
100
AcDbLine
 10
46.77039911454229
 20
168.1380186738371
 30
0.0
 11
46.77039911454229
 21
169.6089171113373
 31
0.0
  0
LINE
  5
DF
330
74
100
AcDbEntity
  8
A1E-----M5_______Rohbau
  6
Continuous
 62
     7
 48
1000.0
370
    13
100
AcDbLine
 10
46.77039911454229
 20
169.6089171113373
 30
0.0
 11
46.71883661454235
 21
170.718585080087
 31
0.0
  0
LINE
  5
E0
330
74
100
AcDbEntity
  8
A1E-----M5_______Rohbau
  6
Continuous
 62
     7
 48
1000.0
370
    13
100
AcDbLine
 10
46.71883661454235
 20
170.718585080087
 30
0.0
 11
46.61571161454204
 21
171.9056944550872
 31
0.0
  0
LINE
  5
E1
330
74
100
AcDbEntity
  8
A1E-----M5_______Rohbau
  6
Continuous
 62
     7
 48
1000.0
370
    13
100
AcDbLine
 10
46.61571161454204
 20
171.9056944550872
 30
0.0
 11
46.51239130204221
 21
173.0153624238371
 31
0.0
  0
LINE
  5
E2
330
74
100
AcDbEntity
  8
A1E-----M5_______Rohbau
  6
Continuous
 62
     7
 48
1000.0
370
    13
100
AcDbLine
 10
46.51239130204221
 20
173.0153624238371
 30
0.0
 11
46.4608288020425
 21
174.2023741425869
 31
0.0
  0
LINE
  5
E3
330
74
100
AcDbEntity
  8
A1E-----M5_______Rohbau
  6
Continuous
 62
     7
 48
1000.0
370
    13
100
AcDbLine
 10
46.4608288020425
 20
174.2023741425869
 30
0.0
 11
46.43504755204208
 21
175.5443663300871
 31
0.0
  0
LINE
  5
E4
330
74
100
AcDbEntity
  8
A1E-----M5_______Rohbau
  6
Continuous
 62
     7
 48
1000.0
370
    13
100
AcDbLine
 10
46.43504755204208
 20
175.5443663300871
 30
0.0
 11
46.30594598954207
 21
176.2280577363371
 31
0.0
  0
LINE
  5
E5
330
74
100
AcDbEntity
  8
A1E-----M5_______Rohbau
  6
Continuous
 62
     7
 48
1000.0
370
    13
100
AcDbLine
 10
46.30594598954207
 20
176.2280577363371
 30
0.0
 11
46.30594598954207
 21
177.2345030488372
 31
0.0
  0
LINE
  5
E6
330
74
100
AcDbEntity
  8
A1E-----M5_______Rohbau
  6
Continuous
 62
     7
 48
1000.0
370
    13
100
AcDbLine
 10
46.30594598954207
 20
177.2345030488372
 30
0.0
 11
46.30594598954207
 21
178.6280577363373
 31
0.0
  0
LINE
  5
E7
330
74
100
AcDbEntity
  8
A1E-----M5_______Rohbau
  6
Continuous
 62
     7
 48
1000.0
370
    13
100
AcDbLine
 10
46.30594598954207
 20
178.6280577363373
 30
0.0
 11
46.35750848954201
 21
179.7635069550874
 31
0.0
  0
LINE
  5
E8
330
74
100
AcDbEntity
  8
A1E-----M5_______Rohbau
  6
Continuous
 62
     7
 48
1000.0
370
    13
100
AcDbLine
 10
46.35750848954201
 20
179.7635069550874
 30
0.0
 11
46.35750848954201
 21
180.6409483613374
 31
0.0
  0
LINE
  5
E9
330
74
100
AcDbEntity
  8
A1E-----M5_______Rohbau
  6
Continuous
 62
     7
 48
1000.0
370
    13
100
AcDbLine
 10
46.35750848954201
 20
180.6409483613374
 30
0.0
 11
46.3832897395422
 21
181.9570616425872
 31
0.0
  0
LINE
  5
EA
330
74
100
AcDbEntity
  8
A1E-----M5_______Rohbau
  6
Continuous
 62
     7
 48
1000.0
370
    13
100
AcDbLine
 10
46.3832897395422
 20
181.9570616425872
 30
0.0
 11
46.3832897395422
 21
183.2989561738374
 31
0.0
  0
LINE
  5
EB
330
74
100
AcDbEntity
  8
A1E-----M5_______Rohbau
  6
Continuous
 62
     7
 48
1000.0
370
    13
100
AcDbLine
 10
46.3832897395422
 20
183.2989561738374
 30
0.0
 11
46.4092663020419
 21
184.5118467988372
 31
0.0
  0
LINE
  5
EC
330
74
100
AcDbEntity
  8
A1E-----M5_______Rohbau
  6
Continuous
 62
     7
 48
1000.0
370
    13
100
AcDbLine
 10
46.4092663020419
 20
184.5118467988372
 30
0.0
 11
46.4092663020419
 21
185.8279600800871
 31
0.0
  0
LINE
  5
ED
330
74
100
AcDbEntity
  8
A1E-----M5_______Rohbau
  6
Continuous
 62
     7
 48
1000.0
370
    13
100
AcDbLine
 10
46.4092663020419
 20
185.8279600800871
 30
0.0
 11
46.48661005204202
 21
186.8344053925872
 31
0.0
  0
LINE
  5
EE
330
74
100
AcDbEntity
  8
A1E-----M5_______Rohbau
  6
Continuous
 62
     7
 48
1000.0
370
    13
100
AcDbLine
 10
46.48661005204202
 20
186.8344053925872
 30
0.0
 11
46.51239130204221
 21
188.176299923837
 31
0.0
  0
LINE
  5
EF
330
74
100
AcDbEntity
  8
A1E-----M5_______Rohbau
  6
Continuous
 62
     7
 48
1000.0
370
    13
100
AcDbLine
 10
46.51239130204221
 20
188.176299923837
 30
0.0
 11
46.51239130204221
 21
189.0795225800874
 31
0.0
  0
LINE
  5
F0
330
74
100
AcDbEntity
  8
A1E-----M5_______Rohbau
  6
Continuous
 62
     7
 48
1000.0
370
    13
100
AcDbLine
 10
46.51239130204221
 20
189.0795225800874
 30
0.0
 11
46.51239130204221
 21
189.5698546113373
 31
0.0
  0
LINE
  5
F1
330
74
100
AcDbEntity
  8
A1E-----M5_______Rohbau
  6
Continuous
 62
     7
 48
1000.0
370
    13
100
AcDbLine
 10
46.51239130204221
 20
189.5698546113373
 30
0.0
 11
46.51239130204221
 21
189.9053038300871
 31
0.0
  0
LINE
  5
F2
330
74
100
AcDbEntity
  8
A1E-----M5_______Rohbau
  6
Continuous
 62
     7
 48
1000.0
370
    13
100
AcDbLine
 10
46.51239130204221
 20
189.9053038300871
 30
0.0
 11
46.51239130204221
 21
190.2408507050872
 31
0.0
  0
LINE
  5
F3
330
74
100
AcDbEntity
  8
A1E-----M5_______Rohbau
  6
Continuous
 62
     7
 48
1000.0
370
    13
100
AcDbLine
 10
46.51239130204221
 20
190.2408507050872
 30
0.0
 11
46.51239130204221
 21
190.6537413300873
 31
0.0
  0
LINE
  5
F4
330
74
100
AcDbEntity
  8
A1E-----M5_______Rohbau
  6
Continuous
 62
     7
 48
1000.0
370
    13
100
AcDbLine
 10
46.51239130204221
 20
190.6537413300873
 30
0.0
 11
46.51239130204221
 21
190.9891905488375
 31
0.0
  0
LINE
  5
F5
330
74
100
AcDbEntity
  8
A1E-----M5_______Rohbau
  6
Continuous
 62
     7
 48
1000.0
370
    13
100
AcDbLine
 10
46.51239130204221
 20
190.9891905488375
 30
0.0
 11
46.48661005204202
 21
213.7616343827944
 31
0.0
  0
LINE
  5
F6
330
74
100
AcDbEntity
  8
A1E-----M5_______Rohbau
  6
Continuous
 62
     7
 48
1000.0
370
    13
100
AcDbLine
 10
46.48661005204202
 20
213.7616343827944
 30
0.0
 11
46.48661005204202
 21
214.148646101544
 31
0.0
  0
LINE
  5
F7
330
74
100
AcDbEntity
  8
A1E-----M5_______Rohbau
  6
Continuous
 62
     7
 48
1000.0
370
    13
100
AcDbLine
 10
46.48661005204202
 20
214.148646101544
 30
0.0
 11
46.4608288020425
 21
214.4841929765442
 31
0.0
  0
LINE
  5
F8
330
74
100
AcDbEntity
  8
A1E-----M5_______Rohbau
  6
Continuous
 62
     7
 48
1000.0
370
    13
100
AcDbLine
 10
46.4608288020425
 20
214.4841929765442
 30
0.0
 11
46.4608288020425
 21
214.6131968827942
 31
0.0
  0
LINE
  5
F9
330
74
100
AcDbEntity
  8
A1E-----M5_______Rohbau
  6
Continuous
 62
     7
 48
1000.0
370
    13
100
AcDbLine
 10
46.4608288020425
 20
214.6131968827942
 30
0.0
 11
46.51239130204221
 21
214.8196421952939
 31
0.0
  0
LINE
  5
FA
330
74
100
AcDbEntity
  8
A1E-----M5_______Rohbau
  6
Continuous
 62
     7
 48
1000.0
370
    13
100
AcDbLine
 10
46.51239130204221
 20
214.8196421952939
 30
0.0
 11
46.53817255204262
 21
215.0260875077941
 31
0.0
  0
LINE
  5
FB
330
74
100
AcDbEntity
  8
A1E-----M5_______Rohbau
  6
Continuous
 62
     7
 48
1000.0
370
    13
100
AcDbLine
 10
46.53817255204262
 20
215.0260875077941
 30
0.0
 11
46.53817255204262
 21
215.0580211015443
 31
0.0
  0
LINE
  5
FC
330
74
100
AcDbEntity
  8
A1E-----M5_______Rohbau
  6
Continuous
 62
     7
 48
1000.0
370
    13
100
AcDbLine
 10
46.64149286454222
 20
157.5833311738373
 30
0.0
 11
46.53905145829241
 21
156.317608517587
 31
0.0
  0
LINE
  5
FD
330
74
100
AcDbEntity
  8
A1E-----M5_______Rohbau
  6
Continuous
 62
     7
 48
1000.0
370
    13
100
AcDbLine
 10
46.53905145829241
 20
156.317608517587
 30
0.0
 11
46.52342645829211
 21
155.3165342988374
 31
0.0
  0
LINE
  5
FE
330
74
100
AcDbEntity
  8
A1E-----M5_______Rohbau
  6
Continuous
 62
     7
 48
1000.0
370
    13
100
AcDbLine
 10
46.52342645829211
 20
155.3165342988374
 30
0.0
 11
46.4608288020425
 21
154.1591124238371
 31
0.0
  0
LINE
  5
FF
330
74
100
AcDbEntity
  8
A1E-----M5_______Rohbau
  6
Continuous
 62
     7
 48
1000.0
370
    13
100
AcDbLine
 10
46.4608288020425
 20
154.1591124238371
 30
0.0
 11
46.4608288020425
 21
152.8295225800869
 31
0.0
  0
LINE
  5
100
330
74
100
AcDbEntity
  8
A1E-----M5_______Rohbau
  6
Continuous
 62
     7
 48
1000.0
370
    13
100
AcDbLine
 10
46.4608288020425
 20
152.8295225800869
 30
0.0
 11
46.4608288020425
 21
151.7033507050873
 31
0.0
  0
LINE
  5
101
330
74
100
AcDbEntity
  8
A1E-----M5_______Rohbau
  6
Continuous
 62
     7
 48
1000.0
370
    13
100
AcDbLine
 10
46.4608288020425
 20
151.7033507050873
 30
0.0
 11
46.49207880204243
 21
150.7022764863373
 31
0.0
  0
LINE
  5
102
330
74
100
AcDbEntity
  8
A1E-----M5_______Rohbau
  6
Continuous
 62
     7
 48
1000.0
370
    13
100
AcDbLine
 10
46.49207880204243
 20
150.7022764863373
 30
0.0
 11
46.52342645829211
 21
149.4510069550872
 31
0.0
  0
LINE
  5
103
330
74
100
AcDbEntity
  8
A1E-----M5_______Rohbau
  6
Continuous
 62
     7
 48
1000.0
370
    13
100
AcDbLine
 10
46.52342645829211
 20
149.4510069550872
 30
0.0
 11
46.47645380204213
 21
147.9806944550874
 31
0.0
  0
LINE
  5
104
330
74
100
AcDbEntity
  8
A1E-----M5_______Rohbau
  6
Continuous
 62
     7
 48
1000.0
370
    13
100
AcDbLine
 10
46.47645380204213
 20
147.9806944550874
 30
0.0
 11
46.41385614579186
 21
146.7919249238372
 31
0.0
  0
LINE
  5
105
330
74
100
AcDbEntity
  8
A1E-----M5_______Rohbau
  6
Continuous
 62
     7
 48
1000.0
370
    13
100
AcDbLine
 10
46.41385614579186
 20
146.7919249238372
 30
0.0
 11
46.3200084895421
 21
129.6377901090731
 31
0.0
  0
LINE
  5
106
330
74
100
AcDbEntity
  8
A1E-----M5_______Rohbau
  6
Continuous
 62
     7
 48
1000.0
370
    13
100
AcDbLine
 10
46.3200084895421
 20
129.6377901090731
 30
0.0
 11
46.34031220794732
 21
129.1915726303625
 31
0.0
  0
LINE
  5
107
330
74
100
AcDbEntity
  8
A1E-----M5_______Rohbau
  6
Continuous
 62
     7
 48
1000.0
370
    20
100
AcDbLine
 10
62.21891686422598
 20
110.7341007584721
 30
0.0
 11
35.35039024752207
 21
110.7341007584721
 31
0.0
  0
CIRCLE
  5
108
330
74
100
AcDbEntity
  8
A1E-----M5_______Rohbau
  6
Continuous
 62
     7
 48
1000.0
370
    20
100
AcDbCircle
 10
62.81891686422614
 20
110.7341007584721
 30
0.0
 40
0.6000000000000001
  0
HATCH
  5
109
330
74
100
AcDbEntity
  8
A1E-----M5_______Rohbau
  6
Continuous
 62
     7
370
    20
100
AcDbHatch
 10
0.0
 20
0.0
 30
0.0
210
0.0
220
0.0
230
1.0
  2
SOLID
 70
     1
 71
     0
 91
        1
 92
        3
 72
     0
 73
     1
 93
       16
 10
62.21891686422598
 20
110.7341007584721
 10
62.26458915161604
 20
110.5044906983905
 10
62.39465279155598
 20
110.309836685802
 10
62.58930680414454
 20
110.1797730458622
 10
62.81891686422614
 20
110.1341007584722
 10
63.04852692430774
 20
110.1797730458622
 10
63.24318093689629
 20
110.309836685802
 10
63.37324457683624
 20
110.5044906983905
 10
63.41891686422607
 20
110.7341007584721
 10
63.37324457683624
 20
110.9637108185537
 10
63.24318093689629
 20
111.1583648311423
 10
63.04852692430774
 20
111.288428471082
 10
62.81891686422614
 20
111.3341007584723
 10
62.58930680414454
 20
111.288428471082
 10
62.39465279155598
 20
111.1583648311423
 10
62.26458915161604
 20
110.9637108185537
 97
        0
 75
     0
 76
     1
 98
        0
  0
LINE
  5
10A
330
74
100
AcDbEntity
  8
A1E-----M5_______Rohbau
  6
Continuous
 62
     7
 48
1000.0
370
    13
100
AcDbLine
 10
52.55457880204184
 20
145.2473486678765
 30
0.0
 11
52.55457880204184
 21
139.2461464358736
 31
0.0
  0
LINE
  5
10B
330
74
100
AcDbEntity
  8
A1E-----M5_______Rohbau
  6
Continuous
 62
     7
 48
1000.0
370
    13
100
AcDbLine
 10
52.23321410678738
 20
145.2473486678765
 30
0.0
 11
52.23321410678738
 21
139.2461464358736
 31
0.0
  0
LINE
  5
10C
330
74
100
AcDbEntity
  8
A1E-----M5_______Rohbau
  6
Continuous
 62
     7
 48
1000.0
370
    13
100
AcDbLine
 10
58.08205156042057
 20
140.695066410585
 30
0.0
 11
59.13184289825213
 21
139.9452154549914
 31
0.0
  0
LINE
  5
10D
330
74
100
AcDbEntity
  8
A1E-----M5_______Rohbau
  6
Continuous
 62
     7
 48
1000.0
370
    13
100
AcDbLine
 10
52.23321410678738
 20
145.2473486678765
 30
0.0
 11
52.55457880204184
 21
145.2473486678765
 31
0.0
  0
LINE
  5
10E
330
74
100
AcDbEntity
  8
A1E-----M5_______Rohbau
  6
Continuous
 62
     7
 48
1000.0
370
    13
100
AcDbLine
 10
52.55457880204184
 20
140.695066410585
 30
0.0
 11
58.08205156042057
 21
140.695066410585
 31
0.0
  0
LINE
  5
10F
330
74
100
AcDbEntity
  8
A1E-----M5_______Rohbau
  6
Continuous
 62
     7
 48
1000.0
370
    13
100
AcDbLine
 10
52.55457880204184
 20
133.244944203871
 30
0.0
 11
52.55457880204184
 21
139.2461464358736
 31
0.0
  0
LINE
  5
110
330
74
100
AcDbEntity
  8
A1E-----M5_______Rohbau
  6
Continuous
 62
     7
 48
1000.0
370
    13
100
AcDbLine
 10
52.23321410678738
 20
133.244944203871
 30
0.0
 11
52.23321410678738
 21
139.2461464358736
 31
0.0
  0
LINE
  5
111
330
74
100
AcDbEntity
  8
A1E-----M5_______Rohbau
  6
Continuous
 62
     7
 48
1000.0
370
    13
100
AcDbLine
 10
58.08205156042057
 20
137.7972264611622
 30
0.0
 11
59.13184289825213
 21
138.5470774167559
 31
0.0
  0
LINE
  5
112
330
74
100
AcDbEntity
  8
A1E-----M5_______Rohbau
  6
Continuous
 62
     7
 48
1000.0
370
    13
100
AcDbLine
 10
52.23321410678738
 20
133.244944203871
 30
0.0
 11
52.55457880204184
 21
133.244944203871
 31
0.0
  0
LINE
  5
113
330
74
100
AcDbEntity
  8
A1E-----M5_______Rohbau
  6
Continuous
 62
     7
 48
1000.0
370
    13
100
AcDbLine
 10
52.55457880204184
 20
137.7972264611622
 30
0.0
 11
58.08205156042057
 21
137.7972264611622
 31
0.0
  0
LINE
  5
114
330
74
100
AcDbEntity
  8
A1E-----M5_______Rohbau
  6
Continuous
 62
     7
 48
1000.0
370
    25
100
AcDbLine
 10
59.22798241427451
 20
138.2470774167564
 30
0.0
 11
58.17819107644296
 21
137.4972264611623
 31
0.0
  0
LINE
  5
115
330
74
100
AcDbEntity
  8
A1E-----M5_______Rohbau
  6
Continuous
 62
     7
 48
1000.0
370
    25
100
AcDbLine
 10
58.17819107644296
 20
137.4972264611623
 30
0.0
 11
52.85457880204181
 21
137.4972264611623
 31
0.0
  0
LINE
  5
116
330
74
100
AcDbEntity
  8
A1E-----M5_______Rohbau
  6
Continuous
 62
     7
 48
1000.0
370
    25
100
AcDbLine
 10
52.85457880204181
 20
140.995066410585
 30
0.0
 11
58.17819107644296
 21
140.995066410585
 31
0.0
  0
LINE
  5
117
330
74
100
AcDbEntity
  8
A1E-----M5_______Rohbau
  6
Continuous
 62
     7
 48
1000.0
370
    25
100
AcDbLine
 10
58.17819107644296
 20
140.995066410585
 30
0.0
 11
59.22798241427451
 21
140.2452154549911
 31
0.0
  0
LINE
  5
118
330
74
100
AcDbEntity
  8
A1E-----M5_______Rohbau
  6
Continuous
 62
     7
 48
1000.0
370
    25
100
AcDbLine
 10
52.85457880204181
 20
145.5473486678764
 30
0.0
 11
52.85457880204181
 21
140.995066410585
 31
0.0
  0
LINE
  5
119
330
74
100
AcDbEntity
  8
A1E-----M5_______Rohbau
  6
Continuous
 62
     7
 48
1000.0
370
    25
100
AcDbLine
 10
52.85457880204181
 20
137.4972264611623
 30
0.0
 11
52.85457880204181
 21
132.944944203871
 31
0.0
  0
LINE
  5
11A
330
74
100
AcDbEntity
  8
A1E-----M5_______Rohbau
  6
Continuous
 62
     7
 48
1000.0
370
    25
100
AcDbLine
 10
52.85457880204181
 20
132.944944203871
 30
0.0
 11
48.85457880204203
 21
132.944944203871
 31
0.0
  0
LINE
  5
11B
330
74
100
AcDbEntity
  8
A1E-----M5_______Rohbau
  6
Continuous
 62
     7
 48
1000.0
370
    25
100
AcDbLine
 10
48.85457880204203
 20
145.5473486678764
 30
0.0
 11
52.85457880204181
 21
145.5473486678764
 31
0.0
  0
LINE
  5
11C
330
74
100
AcDbEntity
  8
A1-----1H2_______Schraffur_1_5
  6
Continuous
 62
     7
 48
1000.0
370
    13
100
AcDbLine
 10
60.26891374295239
 20
141.3328430168177
 30
0.0
 11
58.39348984908055
 21
141.3328430168173
 31
0.0
  0
LINE
  5
11D
330
74
100
AcDbEntity
  8
A1-----1H2_______Schraffur_1_5
  6
Continuous
 62
     7
 48
1000.0
370
    13
100
AcDbLine
 10
80.454578802043
 20
141.3328430168177
 30
0.0
 11
60.26891374295239
 21
141.3328430168177
 31
0.0
  0
LINE
  5
11E
330
74
100
AcDbEntity
  8
A1-----1H2_______Schraffur_1_5
  6
Continuous
 62
     7
 48
1000.0
370
    13
100
AcDbLine
 10
60.26891374295239
 20
143.4328431002638
 30
0.0
 11
53.25457880204243
 21
143.4328431002638
 31
0.0
  0
LINE
  5
11F
330
74
100
AcDbEntity
  8
A1-----1H2_______Schraffur_1_5
  6
Continuous
 62
     7
 48
1000.0
370
    13
100
AcDbLine
 10
80.454578802043
 20
143.4328431002638
 30
0.0
 11
60.26891374295239
 21
143.4328431002638
 31
0.0
  0
LINE
  5
120
330
74
100
AcDbEntity
  8
A1E-----M5_______Rohbau
  6
Continuous
 62
     7
 48
1000.0
370
    25
100
AcDbLine
 10
51.68531546934108
 20
145.5473486678764
 30
0.0
 11
51.68531546934108
 21
132.944944203871
 31
0.0
  0
LINE
  5
121
330
74
100
AcDbEntity
  8
A1E-----M5_______Rohbau
  6
Continuous
 62
     7
 48
1000.0
370
    13
100
AcDbLine
 10
86.21552223442875
 20
139.3334121268624
 30
0.0
 11
86.90021778781087
 21
139.4377402618585
 31
0.0
  0
LINE
  5
122
330
74
100
AcDbEntity
  8
A1E-----M5_______Rohbau
  6
Continuous
 62
     7
 48
1000.0
370
    13
100
AcDbLine
 10
86.24803020182826
 20
139.1507638791494
 30
0.0
 11
86.91732114717033
 21
139.0819198655633
 31
0.0
  0
LINE
  5
123
330
74
100
AcDbEntity
  8
A1E-----M5_______Rohbau
  6
Continuous
 62
     7
 48
1000.0
370
    13
100
AcDbLine
 10
94.5672122525425
 20
139.3469938221448
 30
0.0
 11
94.74256463467223
 21
139.3469938221448
 31
0.0
  0
LINE
  5
124
330
74
100
AcDbEntity
  8
A1E-----M5_______Rohbau
  6
Continuous
 62
     7
 48
1000.0
370
    13
100
AcDbLine
 10
94.74256463467223
 20
139.3469938221448
 30
0.0
 11
94.74256463467223
 21
139.2461464358736
 31
0.0
  0
LINE
  5
125
330
74
100
AcDbEntity
  8
A1E-----M5_______Rohbau
  6
Continuous
 62
     7
 48
1000.0
370
    13
100
AcDbLine
 10
93.18405593146318
 20
139.6058648832563
 30
0.0
 11
93.15820845837841
 21
139.471971142145
 31
0.0
  0
LINE
  5
126
330
74
100
AcDbEntity
  8
A1E-----M5_______Rohbau
  6
Continuous
 62
     7
 48
1000.0
370
    13
100
AcDbLine
 10
93.88997003232036
 20
139.4707817219396
 30
0.0
 11
93.88997003232036
 21
138.9494633353545
 31
0.0
  0
LINE
  5
127
330
74
100
AcDbEntity
  8
A1E-----M5_______Rohbau
  6
Continuous
 62
     7
 48
1000.0
370
    13
100
AcDbLine
 10
94.5672122525425
 20
139.9452154549914
 30
0.0
 11
94.5672122525425
 21
139.2461464358736
 31
0.0
  0
LINE
  5
128
330
74
100
AcDbEntity
  8
A1E-----M5_______Rohbau
  6
Continuous
 62
     7
 48
1000.0
370
    13
100
AcDbLine
 10
94.5672122525425
 20
139.1452990496025
 30
0.0
 11
94.74256463467223
 21
139.1452990496025
 31
0.0
  0
LINE
  5
129
330
74
100
AcDbEntity
  8
A1E-----M5_______Rohbau
  6
Continuous
 62
     7
 48
1000.0
370
    13
100
AcDbLine
 10
94.74256463467223
 20
139.1452990496025
 30
0.0
 11
94.74256463467223
 21
139.2461464358736
 31
0.0
  0
LINE
  5
12A
330
74
100
AcDbEntity
  8
A1E-----M5_______Rohbau
  6
Continuous
 62
     7
 48
1000.0
370
    13
100
AcDbLine
 10
94.5672122525425
 20
138.5470774167559
 30
0.0
 11
94.5672122525425
 21
139.2461464358736
 31
0.0
  0
LINE
  5
12B
330
74
100
AcDbEntity
  8
A1E-----M5_______Rohbau
  6
Continuous
 62
     7
 48
1000.0
370
    25
100
AcDbLine
 10
94.6787459238041
 20
138.2659985983144
 30
0.0
 11
95.16925414972621
 21
139.2461464358736
 31
0.0
  0
LINE
  5
12C
330
74
100
AcDbEntity
  8
A1E-----M5_______Rohbau
  6
Continuous
 62
     7
 48
1000.0
370
    25
100
AcDbLine
 10
94.6787459238041
 20
140.2262942734334
 30
0.0
 11
95.16925414972621
 21
139.2461464358736
 31
0.0
  0
LINE
  5
12E
330
74
100
AcDbEntity
  8
A1E-----M5_______Rohbau
  6
GETRENNT2_S6
 62
     7
 48
1000.0
370
    13
100
AcDbLine
 10
48.7637098726561
 20
139.2461464358736
 30
0.0
 11
95.16925414972621
 21
139.2461464358736
 31
0.0
  0
LINE
  5
12F
330
74
100
AcDbEntity
  8
A1E-----M5_______Rohbau
  6
Continuous
 62
     7
 48
1000.0
370
    25
100
AcDbLine
 10
59.22798241427451
 20
140.2452154549911
 30
0.0
 11
86.25457880204212
 21
140.2452154549911
 31
0.0
  0
LINE
  5
130
330
74
100
AcDbEntity
  8
A1E-----M5_______Rohbau
  6
Continuous
 62
     7
 48
1000.0
370
    13
100
AcDbLine
 10
59.13184289825213
 20
139.9452154549914
 30
0.0
 11
86.25457880195864
 21
139.9452154549914
 31
0.0
  0
LINE
  5
131
330
74
100
AcDbEntity
  8
A1E-----M5_______Rohbau
  6
Continuous
 62
     7
 48
1000.0
370
    13
100
AcDbLine
 10
59.13184289825213
 20
138.5470774167559
 30
0.0
 11
86.25457880195864
 21
138.5470774167559
 31
0.0
  0
LINE
  5
132
330
74
100
AcDbEntity
  8
A1E-----M5_______Rohbau
  6
Continuous
 62
     7
 48
1000.0
370
    25
100
AcDbLine
 10
86.25457880195843
 20
138.2470774167564
 30
0.0
 11
59.22798241427451
 21
138.2470774167564
 31
0.0
  0
LINE
  5
133
330
74
100
AcDbEntity
  8
A1E-----M5_______Rohbau
  6
Continuous
 62
     7
 48
1000.0
370
    60
100
AcDbLine
 10
82.42488515678859
 20
66.59187005658728
 30
0.0
 11
82.42488515678859
 21
138.2452154549911
 31
0.0
  0
LINE
  5
135
330
74
100
AcDbEntity
  8
A1E-----M5_______Rohbau
  6
STRICHPUNKT2_S5
 62
     7
 48
1000.0
370
    25
100
AcDbLine
 10
81.50457880204232
 20
85.02616308431766
 30
0.0
 11
81.50457880204232
 21
138.2452154549911
 31
0.0
  0
LINE
  5
136
330
74
100
AcDbEntity
  8
A1E-----M5_______Rohbau
  6
Continuous
 62
     7
 48
1000.0
370
    30
100
AcDbLine
 10
80.85457880204228
 20
85.02616308431766
 30
0.0
 11
80.85457880204228
 21
138.2452154549911
 31
0.0
  0
LINE
  5
137
330
74
100
AcDbEntity
  8
A1E-----M5_______Rohbau
  6
Continuous
 62
     7
 48
1000.0
370
    13
100
AcDbLine
 10
46.47871934084514
 20
128.7150733220082
 30
0.0
 11
47.45457880204241
 21
128.8289157463063
 31
0.0
  0
LINE
  5
138
330
74
100
AcDbEntity
  8
A1-----1H2_______Schraffur_1_5
  6
Continuous
 62
     7
 48
1000.0
370
    13
100
AcDbLine
 10
46.36903396519564
 20
136.5029523847128
 30
0.0
 11
46.37903396519594
 21
136.5029523847128
 31
0.0
  0
LINE
  5
139
330
74
100
AcDbEntity
  8
A1-----1H2_______Schraffur_1_5
  6
Continuous
 62
     7
 48
1000.0
370
    13
100
AcDbLine
 10
46.3690322167405
 20
176.5029529807593
 30
0.0
 11
46.37903221674078
 21
176.5029529807593
 31
0.0
  0
LINE
  5
13A
330
74
100
AcDbEntity
  8
A1-----1H2_______Schraffur_1_5
  6
Continuous
 62
     7
 48
1000.0
370
    13
100
AcDbLine
 10
46.53903401930837
 20
135.3229523745605
 30
0.0
 11
46.54903401930888
 21
135.3229523745605
 31
0.0
  0
LINE
  5
13B
330
74
100
AcDbEntity
  8
A1-----1H2_______Schraffur_1_5
  6
Continuous
 62
     7
 48
1000.0
370
    13
100
AcDbLine
 10
46.53903358219469
 20
145.3229525235722
 30
0.0
 11
46.54903358219498
 21
145.3229525235722
 31
0.0
  0
LINE
  5
13C
330
74
100
AcDbEntity
  8
A1-----1H2_______Schraffur_1_5
  6
Continuous
 62
     7
 48
1000.0
370
    13
100
AcDbLine
 10
46.53903314508079
 20
155.3229526725837
 30
0.0
 11
46.54903314508041
 21
155.3229526725837
 31
0.0
  0
LINE
  5
13D
330
74
100
AcDbEntity
  8
A1-----1H2_______Schraffur_1_5
  6
Continuous
 62
     7
 48
1000.0
370
    13
100
AcDbLine
 10
46.53903227085321
 20
175.3229529706071
 30
0.0
 11
46.54903227085283
 21
175.3229529706071
 31
0.0
  0
LINE
  5
13E
330
74
100
AcDbEntity
  8
A1-----1H2_______Schraffur_1_5
  6
Continuous
 62
     7
 48
1000.0
370
    13
100
AcDbLine
 10
46.53903183373931
 20
185.3229531196185
 30
0.0
 11
46.54903183373893
 21
185.3229531196185
 31
0.0
  0
LINE
  5
13F
330
74
100
AcDbEntity
  8
A1-----1H2_______Schraffur_1_5
  6
Continuous
 62
     7
 48
1000.0
370
    13
100
AcDbLine
 10
46.53903139662563
 20
212.9164791888976
 30
0.0
 11
46.54903139662525
 21
212.9164791888976
 31
0.0
  0
LINE
  5
140
330
74
100
AcDbEntity
  8
A1-----1H2_______Schraffur_1_5
  6
Continuous
 62
     7
 48
1000.0
370
    13
100
AcDbLine
 10
46.59903430039258
 20
128.9129522816668
 30
0.0
 11
46.60903430039288
 21
128.9129522816668
 31
0.0
  0
LINE
  5
141
330
74
100
AcDbEntity
  8
A1-----1H2_______Schraffur_1_5
  6
Continuous
 62
     7
 48
1000.0
370
    13
100
AcDbLine
 10
46.5990338632789
 20
138.9129524306782
 30
0.0
 11
46.6090338632792
 21
138.9129524306782
 31
0.0
  0
LINE
  5
142
330
74
100
AcDbEntity
  8
A1-----1H2_______Schraffur_1_5
  6
Continuous
 62
     7
 48
1000.0
370
    13
100
AcDbLine
 10
46.59903342616501
 20
148.9129525796899
 30
0.0
 11
46.60903342616463
 21
148.9129525796899
 31
0.0
  0
LINE
  5
143
330
74
100
AcDbEntity
  8
A1-----1H2_______Schraffur_1_5
  6
Continuous
 62
     7
 48
1000.0
370
    13
100
AcDbLine
 10
46.5990329890511
 20
158.9129527287014
 30
0.0
 11
46.60903298905072
 21
158.9129527287014
 31
0.0
  0
LINE
  5
144
330
74
100
AcDbEntity
  8
A1-----1H2_______Schraffur_1_5
  6
Continuous
 62
     7
 48
1000.0
370
    13
100
AcDbLine
 10
46.59903211482352
 20
178.9129530267248
 30
0.0
 11
46.60903211482314
 21
178.9129530267248
 31
0.0
  0
LINE
  5
145
330
74
100
AcDbEntity
  8
A1-----1H2_______Schraffur_1_5
  6
Continuous
 62
     7
 48
1000.0
370
    13
100
AcDbLine
 10
46.59903167770895
 20
188.9129531757363
 30
0.0
 11
46.60903167770947
 21
188.9129531757363
 31
0.0
  0
LINE
  5
146
330
74
100
AcDbEntity
  8
A1-----1H2_______Schraffur_1_5
  6
Continuous
 62
     7
 48
1000.0
370
    13
100
AcDbLine
 10
46.75903391680514
 20
137.7429524202378
 30
0.0
 11
46.76903391680543
 21
137.7429524202378
 31
0.0
  0
LINE
  5
147
330
74
100
AcDbEntity
  8
A1-----1H2_______Schraffur_1_5
  6
Continuous
 62
     7
 48
1000.0
370
    13
100
AcDbLine
 10
46.7590334796919
 20
147.7429525692495
 30
0.0
 11
46.76903347969152
 21
147.7429525692495
 31
0.0
  0
LINE
  5
148
330
74
100
AcDbEntity
  8
A1-----1H2_______Schraffur_1_5
  6
Continuous
 62
     7
 48
1000.0
370
    13
100
AcDbLine
 10
46.75903304257734
 20
157.742952718261
 30
0.0
 11
46.76903304257785
 21
157.742952718261
 31
0.0
  0
LINE
  5
149
330
74
100
AcDbEntity
  8
A1-----1H2_______Schraffur_1_5
  6
Continuous
 62
     7
 48
1000.0
370
    13
100
AcDbLine
 10
46.75903216834975
 20
177.7429530162842
 30
0.0
 11
46.76903216835004
 21
177.7429530162842
 31
0.0
  0
LINE
  5
14A
330
74
100
AcDbEntity
  8
A1-----1H2_______Schraffur_1_5
  6
Continuous
 62
     7
 48
1000.0
370
    13
100
AcDbLine
 10
46.75903173123608
 20
187.7429531652959
 30
0.0
 11
46.7690317312357
 21
187.7429531652959
 31
0.0
  0
LINE
  5
14B
330
74
100
AcDbEntity
  8
A1-----1H2_______Schraffur_1_5
  6
Continuous
 62
     7
 48
1000.0
370
    13
100
AcDbLine
 10
46.44903419587254
 20
131.2529523099788
 30
0.0
 11
46.45903419587283
 21
131.2529523099788
 31
0.0
  0
LINE
  5
14C
330
74
100
AcDbEntity
  8
A1-----1H2_______Schraffur_1_5
  6
Continuous
 62
     7
 48
1000.0
370
    13
100
AcDbLine
 10
46.44903375875864
 20
141.2529524589905
 30
0.0
 11
46.45903375875893
 21
141.2529524589905
 31
0.0
  0
LINE
  5
14D
330
74
100
AcDbEntity
  8
A1-----1H2_______Schraffur_1_5
  6
Continuous
 62
     7
 48
1000.0
370
    13
100
AcDbLine
 10
46.44903201030348
 20
181.2529530550366
 30
0.0
 11
46.4590320103031
 21
181.2529530550366
 31
0.0
  0
LINE
  5
14E
330
74
100
AcDbEntity
  8
A1-----1H2_______Schraffur_1_5
  6
Continuous
 62
     7
 48
1000.0
370
    13
100
AcDbLine
 10
46.61903424998526
 20
130.0729522998261
 30
0.0
 11
46.62903424998554
 21
130.0729522998261
 31
0.0
  0
LINE
  5
14F
330
74
100
AcDbEntity
  8
A1-----1H2_______Schraffur_1_5
  6
Continuous
 62
     7
 48
1000.0
370
    13
100
AcDbLine
 10
46.61903381287136
 20
140.0729524488378
 30
0.0
 11
46.62903381287187
 21
140.0729524488378
 31
0.0
  0
LINE
  5
150
330
74
100
AcDbEntity
  8
A1-----1H2_______Schraffur_1_5
  6
Continuous
 62
     7
 48
1000.0
370
    13
100
AcDbLine
 10
46.61903337575768
 20
150.0729525978495
 30
0.0
 11
46.62903337575797
 21
150.0729525978495
 31
0.0
  0
LINE
  5
151
330
74
100
AcDbEntity
  8
A1-----1H2_______Schraffur_1_5
  6
Continuous
 62
     7
 48
1000.0
370
    13
100
AcDbLine
 10
46.61903293864378
 20
160.0729527468614
 30
0.0
 11
46.6290329386434
 21
160.0729527468614
 31
0.0
  0
LINE
  5
152
330
74
100
AcDbEntity
  8
A1-----1H2_______Schraffur_1_5
  6
Continuous
 62
     7
 48
1000.0
370
    13
100
AcDbLine
 10
46.6190320644162
 20
180.0729530448841
 30
0.0
 11
46.62903206441648
 21
180.0729530448841
 31
0.0
  0
LINE
  5
153
330
74
100
AcDbEntity
  8
A1-----1H2_______Schraffur_1_5
  6
Continuous
 62
     7
 48
1000.0
370
    13
100
AcDbLine
 10
46.6190316273023
 20
190.0729531938958
 30
0.0
 11
46.62903162730192
 21
190.0729531938958
 31
0.0
  0
LINE
  5
154
330
74
100
AcDbEntity
  8
A1-----1H2_______Schraffur_1_5
  6
Continuous
 62
     7
 48
1000.0
370
    13
100
AcDbLine
 10
47.40903424121279
 20
130.5429523413617
 30
0.0
 11
47.41903424121308
 21
130.5429523413617
 31
0.0
  0
LINE
  5
155
330
74
100
AcDbEntity
  8
A1-----1H2_______Schraffur_1_5
  6
Continuous
 62
     7
 48
1000.0
370
    13
100
AcDbLine
 10
47.40903380409911
 20
140.5429524903732
 30
0.0
 11
47.4190338040994
 21
140.5429524903732
 31
0.0
  0
LINE
  5
156
330
74
100
AcDbEntity
  8
A1-----1H2_______Schraffur_1_5
  6
Continuous
 62
     7
 48
1000.0
370
    13
100
AcDbLine
 10
47.40903336698521
 20
150.5429526393849
 30
0.0
 11
47.41903336698483
 21
150.5429526393849
 31
0.0
  0
LINE
  5
157
330
74
100
AcDbEntity
  8
A1-----1H2_______Schraffur_1_5
  6
Continuous
 62
     7
 48
1000.0
370
    13
100
AcDbLine
 10
47.40903292987131
 20
160.5429527883968
 30
0.0
 11
47.41903292987093
 21
160.5429527883968
 31
0.0
  0
LINE
  5
158
330
74
100
AcDbEntity
  8
A1-----1H2_______Schraffur_1_5
  6
Continuous
 62
     7
 48
1000.0
370
    13
100
AcDbLine
 10
47.40903249275763
 20
170.5429529374081
 30
0.0
 11
47.41903249275725
 21
170.5429529374081
 31
0.0
  0
LINE
  5
159
330
74
100
AcDbEntity
  8
A1-----1H2_______Schraffur_1_5
  6
Continuous
 62
     7
 48
1000.0
370
    13
100
AcDbLine
 10
47.40903205564373
 20
180.5429530864198
 30
0.0
 11
47.41903205564335
 21
180.5429530864198
 31
0.0
  0
LINE
  5
15A
330
74
100
AcDbEntity
  8
A1-----1H2_______Schraffur_1_5
  6
Continuous
 62
     7
 48
1000.0
370
    13
100
AcDbLine
 10
47.40903161853005
 20
190.5429532354312
 30
0.0
 11
47.41903161852967
 21
190.5429532354312
 31
0.0
  0
LINE
  5
15B
330
74
100
AcDbEntity
  8
A1-----1H2_______Schraffur_1_5
  6
Continuous
 62
     7
 48
1000.0
370
    13
100
AcDbLine
 10
47.44903391309974
 20
138.0629524551673
 30
0.0
 11
47.45903391309936
 21
138.0629524551673
 31
0.0
  0
LINE
  5
15C
330
74
100
AcDbEntity
  8
A1-----1H2_______Schraffur_1_5
  6
Continuous
 62
     7
 48
1000.0
370
    13
100
AcDbLine
 10
47.44903347598584
 20
148.062952604179
 30
0.0
 11
47.45903347598546
 21
148.062952604179
 31
0.0
  0
LINE
  5
15D
330
74
100
AcDbEntity
  8
A1-----1H2_______Schraffur_1_5
  6
Continuous
 62
     7
 48
1000.0
370
    13
100
AcDbLine
 10
47.44903303887149
 20
158.0629527531903
 30
0.0
 11
47.45903303887178
 21
158.0629527531903
 31
0.0
  0
LINE
  5
15E
330
74
100
AcDbEntity
  8
A1-----1H2_______Schraffur_1_5
  6
Continuous
 62
     7
 48
1000.0
370
    13
100
AcDbLine
 10
47.44903260175825
 20
168.0629529022017
 30
0.0
 11
47.45903260175788
 21
168.0629529022017
 31
0.0
  0
LINE
  5
15F
330
74
100
AcDbEntity
  8
A1-----1H2_______Schraffur_1_5
  6
Continuous
 62
     7
 48
1000.0
370
    13
100
AcDbLine
 10
47.44903216464369
 20
178.0629530512134
 30
0.0
 11
47.4590321646442
 21
178.0629530512134
 31
0.0
  0
LINE
  5
160
330
74
100
AcDbEntity
  8
A1-----1H2_______Schraffur_1_5
  6
Continuous
 62
     7
 48
1000.0
370
    13
100
AcDbLine
 10
47.44903172753001
 20
188.0629532002251
 30
0.0
 11
47.4590317275303
 21
188.0629532002251
 31
0.0
  0
LINE
  5
162
330
74
100
AcDbEntity
  8
A1E-----M5_______Rohbau
  6
LINIE_34
 62
     1
 48
1000.0
370
    35
100
AcDbLine
 10
82.00457880204226
 20
66.99187005658746
 30
0.0
 11
82.00457880204226
 21
138.2452154549911
 31
0.0
  0
LINE
  5
163
330
74
100
AcDbEntity
  8
A1E-----M5_______Rohbau
  6
Continuous
 62
     7
 48
1000.0
370
    30
100
AcDbLine
 10
46.34031220794732
 20
127.8294539836511
 30
0.0
 11
56.21163608357826
 21
131.4223220471818
 31
0.0
  0
LINE
  5
164
330
74
100
AcDbEntity
  8
A1E-----M5_______Rohbau
  6
Continuous
 62
     7
 48
1000.0
370
    25
100
AcDbLine
 10
47.45457880204241
 20
130.4617914743085
 30
0.0
 11
47.45457880204241
 21
215.0580211015443
 31
0.0
  0
LINE
  5
165
330
74
100
AcDbEntity
  8
A1E-----M5_______Rohbau
  6
Continuous
 62
     7
 48
1000.0
370
    25
100
AcDbLine
 10
48.85457880204203
 20
128.9162033806017
 30
0.0
 11
48.85457880204203
 21
128.7445721849112
 31
0.0
  0
LINE
  5
167
330
74
100
AcDbEntity
  8
A1E-----M5_______Rohbau
  6
STRICHLINIE_S4
 62
     7
 48
1000.0
370
    13
100
AcDbLine
 10
47.85457880204213
 20
130.0201948761073
 30
0.0
 11
47.85457880204213
 21
215.0580211015443
 31
0.0
  0
LINE
  5
168
330
74
100
AcDbEntity
  8
A1-----1H2_______Schraffur_1_5
  6
Continuous
 62
     7
 48
1000.0
370
    13
100
AcDbLine
 10
60.26891374295239
 20
101.5328401319531
 30
0.0
 11
46.74031220794705
 21
101.5328401319531
 31
0.0
  0
LINE
  5
169
330
74
100
AcDbEntity
  8
A1-----1H2_______Schraffur_1_5
  6
Continuous
 62
     7
 48
1000.0
370
    13
100
AcDbLine
 10
80.454578802043
 20
101.5328401319531
 30
0.0
 11
60.26891374295239
 21
101.5328401319531
 31
0.0
  0
LINE
  5
16A
330
74
100
AcDbEntity
  8
A1-----1H2_______Schraffur_1_5
  6
Continuous
 62
     7
 48
1000.0
370
    13
100
AcDbLine
 10
60.26891374295239
 20
122.5328409664181
 30
0.0
 11
46.74031220794705
 21
122.5328409664181
 31
0.0
  0
LINE
  5
16B
330
74
100
AcDbEntity
  8
A1-----1H2_______Schraffur_1_5
  6
Continuous
 62
     7
 48
1000.0
370
    13
100
AcDbLine
 10
80.454578802043
 20
122.5328409664181
 30
0.0
 11
60.26891374295239
 21
122.5328409664181
 31
0.0
  0
LINE
  5
16C
330
74
100
AcDbEntity
  8
A1-----1H2_______Schraffur_1_5
  6
Continuous
 62
     7
 48
1000.0
370
    13
100
AcDbLine
 10
46.74031220794705
 20
103.6328402153992
 30
0.0
 11
60.26891374295239
 21
103.6328402153992
 31
0.0
  0
LINE
  5
16D
330
74
100
AcDbEntity
  8
A1-----1H2_______Schraffur_1_5
  6
Continuous
 62
     7
 48
1000.0
370
    13
100
AcDbLine
 10
60.26891374295239
 20
103.6328402153992
 30
0.0
 11
80.454578802043
 21
103.6328402153997
 31
0.0
  0
LINE
  5
16E
330
74
100
AcDbEntity
  8
A1-----1H2_______Schraffur_1_5
  6
Continuous
 62
     7
 48
1000.0
370
    13
100
AcDbLine
 10
46.74031220794705
 20
124.6328410498643
 30
0.0
 11
60.26891374295239
 21
124.6328410498643
 31
0.0
  0
LINE
  5
16F
330
74
100
AcDbEntity
  8
A1-----1H2_______Schraffur_1_5
  6
Continuous
 62
     7
 48
1000.0
370
    13
100
AcDbLine
 10
60.26891374295239
 20
124.6328410498643
 30
0.0
 11
80.454578802043
 21
124.6328410498649
 31
0.0
  0
LINE
  5
170
330
74
100
AcDbEntity
  8
A1-----1H2_______Schraffur_1_5
  6
Continuous
 62
     7
 48
1000.0
370
    13
100
AcDbLine
 10
46.74031220794705
 20
105.7328402988458
 30
0.0
 11
60.26891374295239
 21
105.7328402988458
 31
0.0
  0
LINE
  5
171
330
74
100
AcDbEntity
  8
A1-----1H2_______Schraffur_1_5
  6
Continuous
 62
     7
 48
1000.0
370
    13
100
AcDbLine
 10
60.26891374295239
 20
105.7328402988458
 30
0.0
 11
80.454578802043
 21
105.7328402988462
 31
0.0
  0
LINE
  5
172
330
74
100
AcDbEntity
  8
A1-----1H2_______Schraffur_1_5
  6
Continuous
 62
     7
 48
1000.0
370
    13
100
AcDbLine
 10
46.74031220794705
 20
126.7328411333108
 30
0.0
 11
60.26891374295239
 21
126.7328411333108
 31
0.0
  0
LINE
  5
173
330
74
100
AcDbEntity
  8
A1-----1H2_______Schraffur_1_5
  6
Continuous
 62
     7
 48
1000.0
370
    13
100
AcDbLine
 10
60.26891374295239
 20
126.7328411333108
 30
0.0
 11
80.454578802043
 21
126.7328411333113
 31
0.0
  0
LINE
  5
174
330
74
100
AcDbEntity
  8
A1-----1H2_______Schraffur_1_5
  6
Continuous
 62
     7
 48
1000.0
370
    13
100
AcDbLine
 10
49.25457880204176
 20
86.83283954782706
 30
0.0
 11
60.26891374295239
 21
86.83283954782728
 31
0.0
  0
LINE
  5
175
330
74
100
AcDbEntity
  8
A1-----1H2_______Schraffur_1_5
  6
Continuous
 62
     7
 48
1000.0
370
    13
100
AcDbLine
 10
60.26891374295239
 20
86.83283954782728
 30
0.0
 11
80.454578802043
 21
86.83283954782728
 31
0.0
  0
LINE
  5
176
330
74
100
AcDbEntity
  8
A1-----1H2_______Schraffur_1_5
  6
Continuous
 62
     7
 48
1000.0
370
    13
100
AcDbLine
 10
46.74031220794705
 20
107.8328403822923
 30
0.0
 11
60.26891374295239
 21
107.8328403822923
 31
0.0
  0
LINE
  5
177
330
74
100
AcDbEntity
  8
A1-----1H2_______Schraffur_1_5
  6
Continuous
 62
     7
 48
1000.0
370
    13
100
AcDbLine
 10
60.26891374295239
 20
107.8328403822923
 30
0.0
 11
80.454578802043
 21
107.8328403822923
 31
0.0
  0
LINE
  5
178
330
74
100
AcDbEntity
  8
A1-----1H2_______Schraffur_1_5
  6
Continuous
 62
     7
 48
1000.0
370
    13
100
AcDbLine
 10
50.26661773394171
 20
128.8328412167574
 30
0.0
 11
60.26891374295239
 21
128.8328412167574
 31
0.0
  0
LINE
  5
179
330
74
100
AcDbEntity
  8
A1-----1H2_______Schraffur_1_5
  6
Continuous
 62
     7
 48
1000.0
370
    13
100
AcDbLine
 10
60.26891374295239
 20
128.8328412167574
 30
0.0
 11
80.454578802043
 21
128.8328412167579
 31
0.0
  0
LINE
  5
17A
330
74
100
AcDbEntity
  8
A1-----1H2_______Schraffur_1_5
  6
Continuous
 62
     7
 48
1000.0
370
    13
100
AcDbLine
 10
60.26891374295239
 20
88.93283963127362
 30
0.0
 11
49.25457880204176
 21
88.93283963127362
 31
0.0
  0
LINE
  5
17B
330
74
100
AcDbEntity
  8
A1-----1H2_______Schraffur_1_5
  6
Continuous
 62
     7
 48
1000.0
370
    13
100
AcDbLine
 10
80.454578802043
 20
88.93283963127429
 30
0.0
 11
60.26891374295239
 21
88.93283963127362
 31
0.0
  0
LINE
  5
17C
330
74
100
AcDbEntity
  8
A1-----1H2_______Schraffur_1_5
  6
Continuous
 62
     7
 48
1000.0
370
    13
100
AcDbLine
 10
60.26891374295239
 20
109.9328404657387
 30
0.0
 11
46.74031220794705
 21
109.9328404657387
 31
0.0
  0
LINE
  5
17D
330
74
100
AcDbEntity
  8
A1-----1H2_______Schraffur_1_5
  6
Continuous
 62
     7
 48
1000.0
370
    13
100
AcDbLine
 10
80.454578802043
 20
109.9328404657394
 30
0.0
 11
60.26891374295239
 21
109.9328404657387
 31
0.0
  0
LINE
  5
17E
330
74
100
AcDbEntity
  8
A1-----1H2_______Schraffur_1_5
  6
Continuous
 62
     7
 48
1000.0
370
    13
100
AcDbLine
 10
60.26891374295239
 20
130.9328413002036
 30
0.0
 11
56.03632054406327
 21
130.9328413002036
 31
0.0
  0
LINE
  5
17F
330
74
100
AcDbEntity
  8
A1-----1H2_______Schraffur_1_5
  6
Continuous
 62
     7
 48
1000.0
370
    13
100
AcDbLine
 10
54.86679878399791
 20
130.9328413002036
 30
0.0
 11
49.25457880204176
 21
130.9328413002036
 31
0.0
  0
LINE
  5
180
330
74
100
AcDbEntity
  8
A1-----1H2_______Schraffur_1_5
  6
Continuous
 62
     7
 48
1000.0
370
    13
100
AcDbLine
 10
80.454578802043
 20
130.9328413002044
 30
0.0
 11
60.26891374295239
 21
130.9328413002036
 31
0.0
  0
LINE
  5
181
330
74
100
AcDbEntity
  8
A1-----1H2_______Schraffur_1_5
  6
Continuous
 62
     7
 48
1000.0
370
    13
100
AcDbLine
 10
49.25457880204176
 20
91.03283971472021
 30
0.0
 11
60.26891374295239
 21
91.03283971472042
 31
0.0
  0
LINE
  5
182
330
74
100
AcDbEntity
  8
A1-----1H2_______Schraffur_1_5
  6
Continuous
 62
     7
 48
1000.0
370
    13
100
AcDbLine
 10
60.26891374295239
 20
91.03283971472042
 30
0.0
 11
80.454578802043
 21
91.03283971472042
 31
0.0
  0
LINE
  5
183
330
74
100
AcDbEntity
  8
A1-----1H2_______Schraffur_1_5
  6
Continuous
 62
     7
 48
1000.0
370
    13
100
AcDbLine
 10
46.74031220794705
 20
112.0328405491855
 30
0.0
 11
60.26891374295239
 21
112.0328405491855
 31
0.0
  0
LINE
  5
184
330
74
100
AcDbEntity
  8
A1-----1H2_______Schraffur_1_5
  6
Continuous
 62
     7
 48
1000.0
370
    13
100
AcDbLine
 10
60.26891374295239
 20
112.0328405491855
 30
0.0
 11
80.454578802043
 21
112.0328405491855
 31
0.0
  0
LINE
  5
185
330
74
100
AcDbEntity
  8
A1-----1H2_______Schraffur_1_5
  6
Continuous
 62
     7
 48
1000.0
370
    13
100
AcDbLine
 10
53.25457880204243
 20
135.0328413836506
 30
0.0
 11
60.26891374295239
 21
135.0328413836506
 31
0.0
  0
LINE
  5
186
330
74
100
AcDbEntity
  8
A1-----1H2_______Schraffur_1_5
  6
Continuous
 62
     7
 48
1000.0
370
    13
100
AcDbLine
 10
60.26891374295239
 20
135.0328413836506
 30
0.0
 11
80.454578802043
 21
135.0328413836508
 31
0.0
  0
LINE
  5
187
330
74
100
AcDbEntity
  8
A1-----1H2_______Schraffur_1_5
  6
Continuous
 62
     7
 48
1000.0
370
    13
100
AcDbLine
 10
60.26891374295239
 20
93.13283979816677
 30
0.0
 11
54.91872055161151
 21
93.13283979816677
 31
0.0
  0
LINE
  5
188
330
74
100
AcDbEntity
  8
A1-----1H2_______Schraffur_1_5
  6
Continuous
 62
     7
 48
1000.0
370
    13
100
AcDbLine
 10
53.74919879154482
 20
93.13283979816677
 30
0.0
 11
49.25457880204176
 21
93.13283979816677
 31
0.0
  0
LINE
  5
189
330
74
100
AcDbEntity
  8
A1-----1H2_______Schraffur_1_5
  6
Continuous
 62
     7
 48
1000.0
370
    13
100
AcDbLine
 10
80.454578802043
 20
93.132839798167
 30
0.0
 11
60.26891374295239
 21
93.13283979816677
 31
0.0
  0
LINE
  5
18A
330
74
100
AcDbEntity
  8
A1-----1H2_______Schraffur_1_5
  6
Continuous
 62
     7
 48
1000.0
370
    13
100
AcDbLine
 10
60.26891374295239
 20
114.1328406326319
 30
0.0
 11
46.74031220794705
 21
114.1328406326319
 31
0.0
  0
LINE
  5
18B
330
74
100
AcDbEntity
  8
A1-----1H2_______Schraffur_1_5
  6
Continuous
 62
     7
 48
1000.0
370
    13
100
AcDbLine
 10
80.454578802043
 20
114.1328406326321
 30
0.0
 11
60.26891374295239
 21
114.1328406326319
 31
0.0
  0
LINE
  5
18C
330
74
100
AcDbEntity
  8
A1-----1H2_______Schraffur_1_5
  6
Continuous
 62
     7
 48
1000.0
370
    13
100
AcDbLine
 10
60.26891374295239
 20
137.1328414670967
 30
0.0
 11
58.35623810611445
 21
137.1328414670967
 31
0.0
  0
LINE
  5
18D
330
74
100
AcDbEntity
  8
A1-----1H2_______Schraffur_1_5
  6
Continuous
 62
     7
 48
1000.0
370
    13
100
AcDbLine
 10
80.454578802043
 20
137.1328414670971
 30
0.0
 11
60.26891374295239
 21
137.1328414670967
 31
0.0
  0
LINE
  5
18E
330
74
100
AcDbEntity
  8
A1-----1H2_______Schraffur_1_5
  6
Continuous
 62
     7
 48
1000.0
370
    13
100
AcDbLine
 10
49.14901774148905
 20
95.23283988161336
 30
0.0
 11
60.26891374295239
 21
95.23283988161336
 31
0.0
  0
LINE
  5
18F
330
74
100
AcDbEntity
  8
A1-----1H2_______Schraffur_1_5
  6
Continuous
 62
     7
 48
1000.0
370
    13
100
AcDbLine
 10
60.26891374295239
 20
95.23283988161336
 30
0.0
 11
80.454578802043
 21
95.23283988161357
 31
0.0
  0
LINE
  5
190
330
74
100
AcDbEntity
  8
A1-----1H2_______Schraffur_1_5
  6
Continuous
 62
     7
 48
1000.0
370
    13
100
AcDbLine
 10
46.74031220794705
 20
116.2328407160786
 30
0.0
 11
60.26891374295239
 21
116.2328407160786
 31
0.0
  0
LINE
  5
191
330
74
100
AcDbEntity
  8
A1-----1H2_______Schraffur_1_5
  6
Continuous
 62
     7
 48
1000.0
370
    13
100
AcDbLine
 10
60.26891374295239
 20
116.2328407160786
 30
0.0
 11
80.454578802043
 21
116.2328407160786
 31
0.0
  0
LINE
  5
192
330
74
100
AcDbEntity
  8
A1-----1H2_______Schraffur_1_5
  6
Continuous
 62
     7
 48
1000.0
370
    13
100
AcDbLine
 10
60.26891374295239
 20
97.33283996505992
 30
0.0
 11
46.74031220794705
 21
97.33283996505992
 31
0.0
  0
LINE
  5
193
330
74
100
AcDbEntity
  8
A1-----1H2_______Schraffur_1_5
  6
Continuous
 62
     7
 48
1000.0
370
    13
100
AcDbLine
 10
80.454578802043
 20
97.33283996505992
 30
0.0
 11
60.26891374295239
 21
97.33283996505992
 31
0.0
  0
LINE
  5
194
330
74
100
AcDbEntity
  8
A1-----1H2_______Schraffur_1_5
  6
Continuous
 62
     7
 48
1000.0
370
    13
100
AcDbLine
 10
60.26891374295239
 20
118.332840799525
 30
0.0
 11
46.74031220794705
 21
118.332840799525
 31
0.0
  0
LINE
  5
195
330
74
100
AcDbEntity
  8
A1-----1H2_______Schraffur_1_5
  6
Continuous
 62
     7
 48
1000.0
370
    13
100
AcDbLine
 10
80.454578802043
 20
118.332840799525
 30
0.0
 11
60.26891374295239
 21
118.332840799525
 31
0.0
  0
LINE
  5
196
330
74
100
AcDbEntity
  8
A1-----1H2_______Schraffur_1_5
  6
Continuous
 62
     7
 48
1000.0
370
    13
100
AcDbLine
 10
60.26891374295239
 20
99.43284004850605
 30
0.0
 11
46.74031220794705
 21
99.43284004850605
 31
0.0
  0
LINE
  5
197
330
74
100
AcDbEntity
  8
A1-----1H2_______Schraffur_1_5
  6
Continuous
 62
     7
 48
1000.0
370
    13
100
AcDbLine
 10
80.454578802043
 20
99.4328400485067
 30
0.0
 11
60.26891374295239
 21
99.43284004850605
 31
0.0
  0
LINE
  5
198
330
74
100
AcDbEntity
  8
A1-----1H2_______Schraffur_1_5
  6
Continuous
 62
     7
 48
1000.0
370
    13
100
AcDbLine
 10
60.26891374295239
 20
120.4328408829716
 30
0.0
 11
46.74031220794705
 21
120.4328408829716
 31
0.0
  0
LINE
  5
199
330
74
100
AcDbEntity
  8
A1-----1H2_______Schraffur_1_5
  6
Continuous
 62
     7
 48
1000.0
370
    13
100
AcDbLine
 10
80.454578802043
 20
120.4328408829718
 30
0.0
 11
60.26891374295239
 21
120.4328408829716
 31
0.0
  0
LINE
  5
19A
330
74
100
AcDbEntity
  8
A1E-----M5_______Rohbau
  6
Continuous
 62
     7
 48
1000.0
370
    25
100
AcDbLine
 10
48.85457880204203
 20
128.9162033806017
 30
0.0
 11
47.45457880204241
 21
130.4617914743085
 31
0.0
  0
LINE
  5
19B
330
74
100
AcDbEntity
  8
A1------T2_______Text_1_5
  6
Continuous
 62
     7
 48
1000.0
370
    13
100
AcDbLine
 10
47.81281831777329
 20
179.7175475780366
 30
0.0
 11
35.31075687229368
 21
179.7175475780366
 31
0.0
  0
LINE
  5
19C
330
74
100
AcDbEntity
  8
A1------T2_______Text_1_5
  6
Continuous
 62
     7
 48
1000.0
370
    13
100
AcDbLine
 10
47.40852144277329
 20
173.7175475780368
 30
0.0
 11
35.31075687229368
 21
173.7175475780368
 31
0.0
  0
LINE
  5
19D
330
74
100
AcDbEntity
  8
A1------T2_______Text_1_5
  6
Continuous
 62
     7
 48
1000.0
370
    13
100
AcDbLine
 10
47.14755293477868
 20
167.717547578037
 30
0.0
 11
35.31075687229368
 21
167.717547578037
 31
0.0
  0
LINE
  5
19E
330
74
100
AcDbEntity
  8
A1------T2_______Text_1_5
  6
Continuous
 62
     7
 48
1000.0
370
    13
100
AcDbLine
 10
46.54755293477875
 20
161.7175475780368
 30
0.0
 11
35.31075687229368
 21
161.7175475780368
 31
0.0
  0
LINE
  5
19F
330
74
100
AcDbEntity
  8
A1------T2_______Text_1_5
  6
Continuous
 62
     7
 48
1000.0
370
    13
100
AcDbLine
 10
45.93903314508086
 20
155.7175475780368
 30
0.0
 11
35.31075687229368
 21
155.7175475780368
 31
0.0
  0
LINE
  5
1A0
330
74
100
AcDbEntity
  8
A1------T2_______Text_1_5
  6
Continuous
 62
     7
 48
1000.0
370
    13
100
AcDbLine
 10
64.24472401628623
 20
185.7175475780368
 30
0.0
 11
35.31075687229368
 21
185.7175475780368
 31
0.0
  0
LINE
  5
1A1
330
74
100
AcDbEntity
  8
A1------T2_______Text_1_5
  6
Continuous
 62
     7
 48
1000.0
370
    13
100
AcDbLine
 10
80.95885745959097
 20
191.7175475780368
 30
0.0
 11
35.31075687229368
 21
191.7175475780368
 31
0.0
  0
LINE
  5
1A2
330
74
100
AcDbEntity
  8
A1E-----M5_______Rohbau
  6
Continuous
 62
     7
 48
1000.0
370
    20
100
AcDbLine
 10
35.31075687229368
 20
155.7175475780368
 30
0.0
 11
45.93903314508086
 21
155.7175475780368
 31
0.0
  0
CIRCLE
  5
1A3
330
74
100
AcDbEntity
  8
A1E-----M5_______Rohbau
  6
Continuous
 62
     7
 48
1000.0
370
    20
100
AcDbCircle
 10
46.53903314508079
 20
155.7175475780368
 30
0.0
 40
0.6000000000000001
  0
HATCH
  5
1A4
330
74
100
AcDbEntity
  8
A1E-----M5_______Rohbau
  6
Continuous
 62
     7
370
    20
100
AcDbHatch
 10
0.0
 20
0.0
 30
0.0
210
0.0
220
0.0
230
1.0
  2
SOLID
 70
     1
 71
     0
 91
        1
 92
        3
 72
     0
 73
     1
 93
       16
 10
45.93903314508086
 20
155.7175475780368
 10
45.98470543247068
 20
155.4879375179552
 10
46.11476907241063
 20
155.2932835053666
 10
46.30942308499919
 20
155.1632198654269
 10
46.53903314508079
 20
155.1175475780369
 10
46.76864320516238
 20
155.1632198654269
 10
46.96329721775094
 20
155.2932835053666
 10
47.09336085769089
 20
155.4879375179552
 10
47.13903314508094
 20
155.7175475780368
 10
47.09336085769089
 20
155.9471576381184
 10
46.96329721775094
 20
156.141811650707
 10
46.76864320516238
 20
156.2718752906467
 10
46.53903314508079
 20
156.317547578037
 10
46.30942308499919
 20
156.2718752906467
 10
46.11476907241063
 20
156.141811650707
 10
45.98470543247068
 20
155.9471576381184
 97
        0
 75
     0
 76
     1
 98
        0
  0
LINE
  5
1A5
330
74
100
AcDbEntity
  8
A1E-----M5_______Rohbau
  6
Continuous
 62
     7
 48
1000.0
370
    20
100
AcDbLine
 10
35.31075687229368
 20
161.7175475780368
 30
0.0
 11
46.54755293477875
 21
161.7175475780368
 31
0.0
  0
CIRCLE
  5
1A6
330
74
100
AcDbEntity
  8
A1E-----M5_______Rohbau
  6
Continuous
 62
     7
 48
1000.0
370
    20
100
AcDbCircle
 10
47.14755293477868
 20
161.7175475780368
 30
0.0
 40
0.6000000000000001
  0
HATCH
  5
1A7
330
74
100
AcDbEntity
  8
A1E-----M5_______Rohbau
  6
Continuous
 62
     7
370
    20
100
AcDbHatch
 10
0.0
 20
0.0
 30
0.0
210
0.0
220
0.0
230
1.0
  2
SOLID
 70
     1
 71
     0
 91
        1
 92
        3
 72
     0
 73
     1
 93
       16
 10
46.54755293477875
 20
161.7175475780368
 10
46.59322522216858
 20
161.4879375179552
 10
46.72328886210853
 20
161.2932835053666
 10
46.91794287469708
 20
161.1632198654267
 10
47.14755293477868
 20
161.1175475780366
 10
47.37716299486028
 20
161.1632198654267
 10
47.57181700744884
 20
161.2932835053666
 10
47.70188064738878
 20
161.4879375179552
 10
47.74755293477884
 20
161.7175475780368
 10
47.70188064738878
 20
161.9471576381184
 10
47.57181700744884
 20
162.141811650707
 10
47.37716299486028
 20
162.2718752906467
 10
47.14755293477868
 20
162.3175475780367
 10
46.91794287469708
 20
162.2718752906467
 10
46.72328886210853
 20
162.141811650707
 10
46.59322522216858
 20
161.9471576381184
 97
        0
 75
     0
 76
     1
 98
        0
  0
LINE
  5
1A8
330
74
100
AcDbEntity
  8
A1E-----M5_______Rohbau
  6
Continuous
 62
     7
 48
1000.0
370
    20
100
AcDbLine
 10
35.31075687229368
 20
167.717547578037
 30
0.0
 11
47.14755293477868
 21
167.717547578037
 31
0.0
  0
CIRCLE
  5
1A9
330
74
100
AcDbEntity
  8
A1E-----M5_______Rohbau
  6
Continuous
 62
     7
 48
1000.0
370
    20
100
AcDbCircle
 10
47.74755293477884
 20
167.717547578037
 30
0.0
 40
0.6000000000000001
  0
HATCH
  5
1AA
330
74
100
AcDbEntity
  8
A1E-----M5_______Rohbau
  6
Continuous
 62
     7
370
    20
100
AcDbHatch
 10
0.0
 20
0.0
 30
0.0
210
0.0
220
0.0
230
1.0
  2
SOLID
 70
     1
 71
     0
 91
        1
 92
        3
 72
     0
 73
     1
 93
       16
 10
47.14755293477868
 20
167.717547578037
 10
47.19322522216873
 20
167.4879375179554
 10
47.32328886210868
 20
167.2932835053669
 10
47.51794287469724
 20
167.1632198654269
 10
47.74755293477884
 20
167.1175475780369
 10
47.97716299486044
 20
167.1632198654269
 10
48.17181700744899
 20
167.2932835053669
 10
48.30188064738894
 20
167.4879375179554
 10
48.34755293477877
 20
167.717547578037
 10
48.30188064738894
 20
167.9471576381186
 10
48.17181700744899
 20
168.1418116507072
 10
47.97716299486044
 20
168.2718752906469
 10
47.74755293477884
 20
168.317547578037
 10
47.51794287469724
 20
168.2718752906469
 10
47.32328886210868
 20
168.1418116507072
 10
47.19322522216873
 20
167.9471576381186
 97
        0
 75
     0
 76
     1
 98
        0
  0
LINE
  5
1AB
330
74
100
AcDbEntity
  8
A1E-----M5_______Rohbau
  6
Continuous
 62
     7
 48
1000.0
370
    20
100
AcDbLine
 10
35.31075687229368
 20
179.7175475780366
 30
0.0
 11
47.81281831777329
 21
179.7175475780366
 31
0.0
  0
CIRCLE
  5
1AC
330
74
100
AcDbEntity
  8
A1E-----M5_______Rohbau
  6
Continuous
 62
     7
 48
1000.0
370
    20
100
AcDbCircle
 10
48.41281831777344
 20
179.7175475780366
 30
0.0
 40
0.6000000000000001
  0
HATCH
  5
1AD
330
74
100
AcDbEntity
  8
A1E-----M5_______Rohbau
  6
Continuous
 62
     7
370
    20
100
AcDbHatch
 10
0.0
 20
0.0
 30
0.0
210
0.0
220
0.0
230
1.0
  2
SOLID
 70
     1
 71
     0
 91
        1
 92
        3
 72
     0
 73
     1
 93
       16
 10
47.81281831777329
 20
179.7175475780366
 10
47.85849060516334
 20
179.487937517955
 10
47.98855424510329
 20
179.2932835053664
 10
48.18320825769185
 20
179.1632198654267
 10
48.41281831777344
 20
179.1175475780367
 10
48.64242837785504
 20
179.1632198654267
 10
48.8370823904436
 20
179.2932835053664
 10
48.96714603038355
 20
179.487937517955
 10
49.01281831777338
 20
179.7175475780366
 10
48.96714603038355
 20
179.9471576381182
 10
48.8370823904436
 20
180.1418116507068
 10
48.64242837785504
 20
180.2718752906467
 10
48.41281831777344
 20
180.3175475780367
 10
48.18320825769185
 20
180.2718752906467
 10
47.98855424510329
 20
180.1418116507068
 10
47.85849060516334
 20
179.9471576381182
 97
        0
 75
     0
 76
     1
 98
        0
  0
LINE
  5
1AE
330
74
100
AcDbEntity
  8
A1E-----M5_______Rohbau
  6
Continuous
 62
     7
 48
1000.0
370
    20
100
AcDbLine
 10
35.31075687229368
 20
185.7175475780368
 30
0.0
 11
64.24472401628623
 21
185.7175475780368
 31
0.0
  0
CIRCLE
  5
1AF
330
74
100
AcDbEntity
  8
A1E-----M5_______Rohbau
  6
Continuous
 62
     7
 48
1000.0
370
    20
100
AcDbCircle
 10
64.84472401628616
 20
185.7175475780368
 30
0.0
 40
0.6000000000000001
  0
HATCH
  5
1B0
330
74
100
AcDbEntity
  8
A1E-----M5_______Rohbau
  6
Continuous
 62
     7
370
    20
100
AcDbHatch
 10
0.0
 20
0.0
 30
0.0
210
0.0
220
0.0
230
1.0
  2
SOLID
 70
     1
 71
     0
 91
        1
 92
        3
 72
     0
 73
     1
 93
       16
 10
64.24472401628623
 20
185.7175475780368
 10
64.29039630367606
 20
185.4879375179552
 10
64.42045994361601
 20
185.2932835053667
 10
64.61511395620457
 20
185.163219865427
 10
64.84472401628616
 20
185.1175475780369
 10
65.07433407636776
 20
185.163219865427
 10
65.26898808895632
 20
185.2932835053667
 10
65.39905172889627
 20
185.4879375179552
 10
65.44472401628632
 20
185.7175475780368
 10
65.39905172889627
 20
185.9471576381184
 10
65.26898808895632
 20
186.141811650707
 10
65.07433407636776
 20
186.2718752906469
 10
64.84472401628616
 20
186.317547578037
 10
64.61511395620457
 20
186.2718752906469
 10
64.42045994361601
 20
186.141811650707
 10
64.29039630367606
 20
185.9471576381184
 97
        0
 75
     0
 76
     1
 98
        0
  0
LINE
  5
1B1
330
74
100
AcDbEntity
  8
A1E-----M5_______Rohbau
  6
Continuous
 62
     7
 48
1000.0
370
    20
100
AcDbLine
 10
35.31075687229368
 20
191.7175475780368
 30
0.0
 11
80.95885737843412
 21
191.7175475780368
 31
0.0
  0
CIRCLE
  5
1B2
330
74
100
AcDbEntity
  8
A1E-----M5_______Rohbau
  6
Continuous
 62
     7
 48
1000.0
370
    20
100
AcDbCircle
 10
81.55885737843427
 20
191.7175475780368
 30
0.0
 40
0.6000000000000001
  0
HATCH
  5
1B3
330
74
100
AcDbEntity
  8
A1E-----M5_______Rohbau
  6
Continuous
 62
     7
370
    20
100
AcDbHatch
 10
0.0
 20
0.0
 30
0.0
210
0.0
220
0.0
230
1.0
  2
SOLID
 70
     1
 71
     0
 91
        1
 92
        3
 72
     0
 73
     1
 93
       16
 10
80.95885737843412
 20
191.7175475780368
 10
81.00452966582417
 20
191.4879375179552
 10
81.13459330576411
 20
191.2932835053667
 10
81.32924731835267
 20
191.163219865427
 10
81.55885737843427
 20
191.1175475780367
 10
81.78846743851587
 20
191.163219865427
 10
81.98312145110442
 20
191.2932835053667
 10
82.11318509104437
 20
191.4879375179552
 10
82.1588573784342
 20
191.7175475780368
 10
82.11318509104437
 20
191.9471576381184
 10
81.98312145110442
 20
192.141811650707
 10
81.78846743851587
 20
192.2718752906467
 10
81.55885737843427
 20
192.3175475780368
 10
81.32924731835267
 20
192.2718752906467
 10
81.13459330576411
 20
192.141811650707
 10
81.00452966582417
 20
191.9471576381184
 97
        0
 75
     0
 76
     1
 98
        0
  0
LINE
  5
1B4
330
74
100
AcDbEntity
  8
A1E-----M5_______Rohbau
  6
Continuous
 62
     7
 48
1000.0
370
    20
100
AcDbLine
 10
35.31075687229368
 20
173.7175475780368
 30
0.0
 11
47.40852144277329
 21
173.7175475780368
 31
0.0
  0
CIRCLE
  5
1B5
330
74
100
AcDbEntity
  8
A1E-----M5_______Rohbau
  6
Continuous
 62
     7
 48
1000.0
370
    20
100
AcDbCircle
 10
48.00852144277346
 20
173.7175475780368
 30
0.0
 40
0.6000000000000001
  0
HATCH
  5
1B6
330
74
100
AcDbEntity
  8
A1E-----M5_______Rohbau
  6
Continuous
 62
     7
370
    20
100
AcDbHatch
 10
0.0
 20
0.0
 30
0.0
210
0.0
220
0.0
230
1.0
  2
SOLID
 70
     1
 71
     0
 91
        1
 92
        3
 72
     0
 73
     1
 93
       16
 10
47.4085214427733
 20
173.7175475780368
 10
47.45419373016335
 20
173.4879375179552
 10
47.5842573701033
 20
173.2932835053666
 10
47.77891138269186
 20
173.1632198654269
 10
48.00852144277346
 20
173.1175475780369
 10
48.23813150285505
 20
173.1632198654269
 10
48.43278551544361
 20
173.2932835053666
 10
48.56284915538356
 20
173.4879375179552
 10
48.60852144277339
 20
173.7175475780368
 10
48.56284915538356
 20
173.9471576381184
 10
48.43278551544361
 20
174.141811650707
 10
48.23813150285505
 20
174.2718752906467
 10
48.00852144277346
 20
174.3175475780367
 10
47.77891138269186
 20
174.2718752906467
 10
47.5842573701033
 20
174.141811650707
 10
47.45419373016335
 20
173.9471576381184
 97
        0
 75
     0
 76
     1
 98
        0
  0
LINE
  5
1B7
330
74
100
AcDbEntity
  8
A1E-----M5_______Rohbau
  6
Continuous
 62
     7
 48
1000.0
370
    20
100
AcDbLine
 10
35.32452836167677
 20
147.009933989636
 30
0.0
 11
55.85558973840698
 21
147.009933989636
 31
0.0
  0
LINE
  5
1B8
330
74
100
AcDbEntity
  8
A1------T2_______Text_1_5
  6
Continuous
 62
   252
 48
1000.0
370
    80
100
AcDbLine
 10
189.9999999999993
 20
231.5633238266017
 30
0.0
 11
14.99999999999901
 21
231.5633238266017
 31
0.0
  0
LINE
  5
1B9
330
74
100
AcDbEntity
  8
A1E-----M5_______Rohbau
  6
Continuous
 62
     7
 48
1000.0
370
    13
100
AcDbLine
 10
14.99999999999901
 20
101.5241420824979
 30
0.0
 11
43.5659578304064
 21
101.5241420824979
 31
0.0
  0
LINE
  5
1BA
330
74
100
AcDbEntity
  8
A1E-----M5_______Rohbau
  6
Continuous
 62
     7
 48
1000.0
370
    80
100
AcDbLine
 10
14.99999999999901
 20
66.59187005658728
 30
0.0
 11
126.1755329784138
 21
66.59187005658728
 31
0.0
  0
LINE
  5
1BB
330
74
100
AcDbEntity
  8
A1E-----M5_______Rohbau
  6
Continuous
 62
     7
 48
1000.0
370
    25
100
AcDbLine
 10
14.99999999999901
 20
67.3918700565872
 30
0.0
 11
81.60865989654931
 21
67.3918700565872
 31
0.0
  0
LINE
  5
1BC
330
74
100
AcDbEntity
  8
A1-----1H2_______Schraffur_1_5
  6
Continuous
 62
     7
 48
1000.0
370
    13
100
AcDbLine
 10
80.454578802043
 20
145.6328432671577
 30
0.0
 11
60.26891374295239
 21
145.6328432671577
 31
0.0
  0
LINE
  5
1BD
330
74
100
AcDbEntity
  8
A1-----1H2_______Schraffur_1_5
  6
Continuous
 62
     7
 48
1000.0
370
    13
100
AcDbLine
 10
60.26891374295239
 20
145.6328432671577
 30
0.0
 11
53.25457880204243
 21
145.632843267157
 31
0.0
  0
LINE
  5
1BE
330
74
100
AcDbEntity
  8
A1-----1H2_______Schraffur_1_5
  6
Continuous
 62
     7
 48
1000.0
370
    13
100
AcDbLine
 10
80.454578802043
 20
133.0328413836512
 30
0.0
 11
53.25457880204243
 21
133.0328413836506
 31
0.0
  0
LINE
  5
1BF
330
74
100
AcDbEntity
  8
A1E-----M5_______Rohbau
  6
Continuous
 62
     7
 48
1000.0
370
    60
100
AcDbLine
 10
82.42488515678859
 20
140.2452154549911
 30
0.0
 11
82.42488515678859
 21
215.0580211015443
 31
0.0
  0
LINE
  5
1C0
330
74
100
AcDbEntity
  8
A1E-----M5_______Rohbau
  6
STRICHPUNKT2_S5
 62
     7
 48
1000.0
370
    25
100
AcDbLine
 10
81.50457880204232
 20
140.2452154549911
 30
0.0
 11
81.50457880204232
 21
148.9110135101193
 31
0.0
  0
LINE
  5
1C1
330
74
100
AcDbEntity
  8
A1E-----M5_______Rohbau
  6
Continuous
 62
     7
 48
1000.0
370
    30
100
AcDbLine
 10
80.85457880204228
 20
140.2452154549911
 30
0.0
 11
80.85457880204228
 21
215.0580211015443
 31
0.0
  0
LINE
  5
1C2
330
74
100
AcDbEntity
  8
A1-----1H2_______Schraffur_1_5
  6
Continuous
 62
     7
 48
1000.0
370
    13
100
AcDbLine
 10
80.454578802043
 20
147.8328434340517
 30
0.0
 11
60.26891374295239
 21
147.8328434340517
 31
0.0
  0
LINE
  5
1C3
330
74
100
AcDbEntity
  8
A1-----1H2_______Schraffur_1_5
  6
Continuous
 62
     7
 48
1000.0
370
    13
100
AcDbLine
 10
60.26891374295239
 20
147.8328434340517
 30
0.0
 11
49.25457880204176
 21
147.832843434051
 31
0.0
  0
LINE
  5
1C4
330
74
100
AcDbEntity
  8
A1E-----M5_______Rohbau
  6
Continuous
 62
     7
 48
1000.0
370
    20
100
AcDbLine
 10
55.85558973840698
 20
147.009933989636
 30
0.0
 11
55.85558973840698
 21
139.8461464358738
 31
0.0
  0
CIRCLE
  5
1C5
330
74
100
AcDbEntity
  8
A1E-----M5_______Rohbau
  6
Continuous
 62
     7
 48
1000.0
370
    20
100
AcDbCircle
 10
55.85558973840698
 20
139.2461464358736
 30
0.0
 40
0.6000000000000001
  0
HATCH
  5
1C6
330
74
100
AcDbEntity
  8
A1E-----M5_______Rohbau
  6
Continuous
 62
     7
370
    20
100
AcDbHatch
 10
0.0
 20
0.0
 30
0.0
210
0.0
220
0.0
230
1.0
  2
SOLID
 70
     1
 71
     0
 91
        1
 92
        3
 72
     0
 73
     1
 93
       16
 10
55.25558973840705
 20
139.2461464358736
 10
55.30126202579688
 20
139.016536375792
 10
55.43132566573683
 20
138.8218823632035
 10
55.62597967832539
 20
138.6918187232637
 10
55.85558973840698
 20
138.6461464358737
 10
56.08519979848858
 20
138.6918187232637
 10
56.27985381107714
 20
138.8218823632035
 10
56.40991745101709
 20
139.016536375792
 10
56.45558973840714
 20
139.2461464358736
 10
56.40991745101709
 20
139.4757564959552
 10
56.27985381107714
 20
139.6704105085438
 10
56.08519979848858
 20
139.8004741484835
 10
55.85558973840698
 20
139.8461464358738
 10
55.62597967832539
 20
139.8004741484835
 10
55.43132566573683
 20
139.6704105085438
 10
55.30126202579688
 20
139.4757564959552
 97
        0
 75
     0
 76
     1
 98
        0
  0
LINE
  5
1C7
330
74
100
AcDbEntity
  8
A1E-----M5_______Rohbau
  6
Continuous
 62
     7
 48
1000.0
370
    20
100
AcDbLine
 10
81.40457880204212
 20
117.3206543721685
 30
0.0
 11
35.35156212252222
 21
117.3206543721685
 31
0.0
  0
CIRCLE
  5
1C8
330
74
100
AcDbEntity
  8
A1E-----M5_______Rohbau
  6
Continuous
 62
     7
 48
1000.0
370
    20
100
AcDbCircle
 10
82.00457880204226
 20
117.3206543721685
 30
0.0
 40
0.6000000000000001
  0
HATCH
  5
1C9
330
74
100
AcDbEntity
  8
A1E-----M5_______Rohbau
  6
Continuous
 62
     7
370
    20
100
AcDbHatch
 10
0.0
 20
0.0
 30
0.0
210
0.0
220
0.0
230
1.0
  2
SOLID
 70
     1
 71
     0
 91
        1
 92
        3
 72
     0
 73
     1
 93
       16
 10
81.40457880204211
 20
117.3206543721685
 10
81.45025108943216
 20
117.091044312087
 10
81.5803147293721
 20
116.8963902994984
 10
81.77496874196066
 20
116.7663266595587
 10
82.00457880204226
 20
116.7206543721686
 10
82.23418886212386
 20
116.7663266595587
 10
82.42884287471242
 20
116.8963902994984
 10
82.55890651465236
 20
117.091044312087
 10
82.6045788020422
 20
117.3206543721685
 10
82.55890651465236
 20
117.5502644322501
 10
82.42884287471242
 20
117.7449184448387
 10
82.23418886212386
 20
117.8749820847787
 10
82.00457880204226
 20
117.9206543721687
 10
81.77496874196066
 20
117.8749820847787
 10
81.5803147293721
 20
117.7449184448387
 10
81.45025108943216
 20
117.5502644322501
 97
        0
 75
     0
 76
     1
 98
        0
  0
LINE
  5
1CA
330
74
100
AcDbEntity
  8
A1E-----M5_______Rohbau
  6
Continuous
 62
     7
 48
1000.0
370
    25
100
AcDbLine
 10
153.9632463166125
 20
179.8494307940732
 30
0.0
 11
189.4050905041285
 21
192.7492071258288
 31
0.0
  0
LINE
  5
1CB
330
74
100
AcDbEntity
  8
A1E-----M5_______Rohbau
  6
Continuous
 62
     7
 48
1000.0
370
    25
100
AcDbLine
 10
152.1538185337152
 20
181.1164057675019
 30
0.0
 11
152.1538185337152
 21
162.9067578543231
 31
0.0
  0
LINE
  5
1CC
330
74
100
AcDbEntity
  8
A1E-----M5_______Rohbau
  6
Continuous
 62
     7
 48
1000.0
370
    25
100
AcDbLine
 10
153.9632463166125
 20
162.2188597415887
 30
0.0
 11
153.9632463166125
 21
179.8494307940732
 31
0.0
  0
LINE
  5
1CD
330
74
100
AcDbEntity
  8
A1-----1H2_______Schraffur_1_5
  6
Continuous
 62
     7
 48
1000.0
370
    60
100
AcDbLine
 10
162.854816110769
 20
215.0575136096282
 30
0.0
 11
162.854816110769
 21
185.011250362503
 31
0.0
  0
LINE
  5
1CE
330
74
100
AcDbEntity
  8
A1E-----M5_______Rohbau
  6
Continuous
 62
     7
 48
1000.0
370
    25
100
AcDbLine
 10
162.854816110769
 20
185.7876359972383
 30
0.0
 11
162.854816110769
 21
185.011250362503
 31
0.0
  0
LINE
  5
1CF
330
74
100
AcDbEntity
  8
A1E-----M5_______Rohbau
  6
Continuous
 62
     7
 48
1000.0
370
    25
100
AcDbLine
 10
162.854816110769
 20
185.011250362503
 30
0.0
 11
156.5218188706357
 21
192.7792110913986
 31
0.0
  0
LINE
  5
1D0
330
74
100
AcDbEntity
  8
A1E-----M5_______Rohbau
  6
Continuous
 62
     7
 48
1000.0
370
    25
100
AcDbLine
 10
156.5218188706357
 20
182.7062278734051
 30
0.0
 11
156.5218188706357
 21
214.3460632345597
 31
0.0
  0
LINE
  5
1D1
330
74
100
AcDbEntity
  8
A1E-----M5_______Rohbau
  6
Continuous
 62
     7
 48
1000.0
370
    13
100
AcDbLine
 10
156.5218188706357
 20
183.7657789207614
 30
0.0
 11
156.5670545652091
 21
183.7657789207614
 31
0.0
  0
LINE
  5
1D2
330
74
100
AcDbEntity
  8
A1-----1H2_______Schraffur_1_5
  6
Continuous
 62
     7
 48
1000.0
370
    13
100
AcDbLine
 10
153.3754683182091
 20
192.5268706506531
 30
0.0
 11
153.4207040127828
 21
192.5268706506531
 31
0.0
  0
LINE
  5
1D3
330
74
100
AcDbEntity
  8
A1-----1H2_______Schraffur_1_5
  6
Continuous
 62
     7
 48
1000.0
370
    13
100
AcDbLine
 10
156.3157879555799
 20
205.1928654481816
 30
0.0
 11
156.3610236501534
 21
205.1928654481816
 31
0.0
  0
LINE
  5
1D4
330
74
100
AcDbEntity
  8
A1-----1H2_______Schraffur_1_5
  6
Continuous
 62
     7
 48
1000.0
370
    13
100
AcDbLine
 10
156.4967312269412
 20
193.9744130349741
 30
0.0
 11
156.541966921512
 21
193.9744130349741
 31
0.0
  0
LINE
  5
1D5
330
74
100
AcDbEntity
  8
A1-----1H2_______Schraffur_1_5
  6
Continuous
 62
     7
 48
1000.0
370
    13
100
AcDbLine
 10
167.7759248721822
 20
186.8023874712439
 30
0.0
 11
169.9652187674916
 21
187.9836167869033
 31
0.0
  0
LINE
  5
1D6
330
74
100
AcDbEntity
  8
A1E-----M5_______Rohbau
  6
STRICHLINIE_S4
 62
     7
 48
1000.0
370
    25
100
AcDbLine
 10
158.3312466535327
 20
190.7816182073491
 30
0.0
 11
158.3312466535327
 21
214.7044875139872
 31
0.0
  0
LINE
  5
1D7
330
74
100
AcDbEntity
  8
A1E-----M5_______Rohbau
  6
Continuous
 62
     7
 48
1000.0
370
    25
100
AcDbLine
 10
189.0196084538731
 20
194.5344559611488
 30
0.0
 11
152.1538185337152
 21
181.1164057675019
 31
0.0
  0
LINE
  5
1D8
330
74
100
AcDbEntity
  8
A1E-----M5_______Rohbau
  6
Continuous
 62
     7
 48
1000.0
370
    20
100
AcDbLine
 10
155.2840473876132
 20
187.9709958468016
 30
0.0
 11
131.7830851463571
 21
187.9709958468016
 31
0.0
  0
LINE
  5
1D9
330
74
100
AcDbEntity
  8
A1E-----M5_______Rohbau
  6
Continuous
 62
     7
 48
1000.0
370
    13
100
AcDbLine
 10
21.41921416636517
 20
103.7071142467174
 30
0.0
 11
43.5197818996107
 21
104.1028592003357
 31
0.0
  0
LINE
  5
1DA
330
74
100
AcDbEntity
  8
A1E-----M5_______Rohbau
  6
Continuous
 62
     7
 48
1000.0
370
    13
100
AcDbLine
 10
20.16941452105026
 20
103.6847346450423
 30
0.0
 11
21.39683456469
 21
104.9569138920321
 31
0.0
  0
LINE
  5
1DB
330
74
100
AcDbEntity
  8
A1E-----M5_______Rohbau
  6
Continuous
 62
     7
 48
1000.0
370
    13
100
AcDbLine
 10
20.16941452105026
 20
103.6847346450423
 30
0.0
 11
21.44159376804033
 21
102.4573146014027
 31
0.0
  0
LINE
  5
1DC
330
74
100
AcDbEntity
  8
A1E-----M5_______Rohbau
  6
Continuous
 62
     7
 48
1000.0
370
    13
100
AcDbLine
 10
21.39683456469
 20
104.9569138920321
 30
0.0
 11
21.44159376804033
 21
102.4573146014027
 31
0.0
  0
HATCH
  5
1DD
330
74
100
AcDbEntity
  8
A1E-----M5_______Rohbau
  6
Continuous
 62
     7
370
    13
100
AcDbHatch
 10
0.0
 20
0.0
 30
0.0
210
0.0
220
0.0
230
1.0
  2
SOLID
 70
     1
 71
     0
 91
        1
 92
        3
 72
     0
 73
     1
 93
        3
 10
20.16941452105026
 20
103.6847346450422
 10
21.44159376804033
 20
102.4573146014027
 10
21.39683456468999
 20
104.9569138920321
 97
        0
 75
     0
 76
     1
 98
        0
  0
LINE
  5
1DE
330
74
100
AcDbEntity
  8
A1E-----M5_______Rohbau
  6
Continuous
 62
     7
 48
1000.0
370
    13
100
AcDbLine
 10
47.45457880204241
 20
130.4617914743085
 30
0.0
 11
47.45457880204241
 21
128.3160836220452
 31
0.0
  0
LINE
  5
1DF
330
74
100
AcDbEntity
  8
A1-----1H2_______Schraffur_1_5
  6
Continuous
 62
     7
 48
1000.0
370
    60
100
AcDbLine
 10
162.854816110769
 20
185.011250362503
 30
0.0
 11
189.0196084538731
 21
194.5344559611488
 31
0.0
  0
ELLIPSE
  5
1E0
330
74
100
AcDbEntity
  8
A1-----1H2_______Schraffur_1_5
  6
Continuous
 62
     7
 48
1000.0
370
    13
100
AcDbEllipse
 10
15.26903264229795
 20
88.93285360260262
 30
0.0
 11
2.057406704322052E-17
 21
0.3360000133515229
 31
0.0
210
0.0
220
0.0
230
1.0
 40
0.9821428571428568
 41
0.0
 42
6.283185307179586
  0
ELLIPSE
  5
1E1
330
74
100
AcDbEntity
  8
A1-----1H2_______Schraffur_1_5
  6
Continuous
 62
     7
 48
1000.0
370
    13
100
AcDbEllipse
 10
30.2690332383444
 20
88.93285360260262
 30
0.0
 11
2.057406704322052E-17
 21
0.3360000133515229
 31
0.0
210
0.0
220
0.0
230
1.0
 40
0.9821428571428568
 41
0.0
 42
6.283185307179586
  0
ELLIPSE
  5
1E2
330
74
100
AcDbEntity
  8
A1-----1H2_______Schraffur_1_5
  6
Continuous
 62
     7
 48
1000.0
370
    13
100
AcDbEllipse
 10
45.26903383439085
 20
88.93285360260262
 30
0.0
 11
2.057406704322052E-17
 21
0.3360000133515229
 31
0.0
210
0.0
220
0.0
230
1.0
 40
0.9821428571428568
 41
0.0
 42
6.283185307179586
  0
ELLIPSE
  5
1E3
330
74
100
AcDbEntity
  8
A1-----1H2_______Schraffur_1_5
  6
Continuous
 62
     7
 48
1000.0
370
    13
100
AcDbEllipse
 10
15.26903264229795
 20
93.73285379333728
 30
0.0
 11
2.057406704321870E-17
 21
0.3360000133514932
 31
0.0
210
0.0
220
0.0
230
1.0
 40
0.9821428571428569
 41
2.241025732532958
 42
4.042159574646628
  0
ELLIPSE
  5
1E4
330
74
100
AcDbEntity
  8
A1-----1H2_______Schraffur_1_5
  6
Continuous
 62
     7
 48
1000.0
370
    13
100
AcDbEllipse
 10
45.26903383439085
 20
93.73285379333728
 30
0.0
 11
2.057406704322052E-17
 21
0.3360000133515229
 31
0.0
210
0.0
220
0.0
230
1.0
 40
0.9821428571428568
 41
0.0
 42
6.283185307179586
  0
ELLIPSE
  5
1E5
330
74
100
AcDbEntity
  8
A1-----1H2_______Schraffur_1_5
  6
Continuous
 62
     7
 48
1000.0
370
    13
100
AcDbEllipse
 10
22.76903294032117
 20
90.13285365028611
 30
0.0
 11
2.057406704322052E-17
 21
0.3360000133515229
 31
0.0
210
0.0
220
0.0
230
1.0
 40
0.9821428571428568
 41
0.0
 42
6.283185307179586
  0
ELLIPSE
  5
1E6
330
74
100
AcDbEntity
  8
A1-----1H2_______Schraffur_1_5
  6
Continuous
 62
     7
 48
1000.0
370
    13
100
AcDbEllipse
 10
37.76903353636762
 20
90.13285365028611
 30
0.0
 11
2.057406704322052E-17
 21
0.3360000133515229
 31
0.0
210
0.0
220
0.0
230
1.0
 40
0.9821428571428568
 41
0.0
 42
6.283185307179586
  0
ELLIPSE
  5
1E7
330
74
100
AcDbEntity
  8
A1-----1H2_______Schraffur_1_5
  6
Continuous
 62
     7
 48
1000.0
370
    13
100
AcDbEllipse
 10
26.53403308992885
 20
87.12085353060006
 30
0.0
 11
2.057406704322052E-17
 21
0.3360000133515229
 31
0.0
210
0.0
220
0.0
230
1.0
 40
0.9821428571428568
 41
0.0
 42
6.283185307179586
  0
ELLIPSE
  5
1E8
330
74
100
AcDbEntity
  8
A1-----1H2_______Schraffur_1_5
  6
Continuous
 62
     7
 48
1000.0
370
    13
100
AcDbEllipse
 10
41.5340336859753
 20
87.12085353060006
 30
0.0
 11
2.057406704322052E-17
 21
0.3360000133515229
 31
0.0
210
0.0
220
0.0
230
1.0
 40
0.9821428571428568
 41
0.0
 42
6.283185307179586
  0
ELLIPSE
  5
1E9
330
74
100
AcDbEntity
  8
A1-----1H2_______Schraffur_1_5
  6
Continuous
 62
     7
 48
1000.0
370
    13
100
AcDbEllipse
 10
48.37403395777251
 20
93.64885378999955
 30
0.0
 11
2.057406704322052E-17
 21
0.3360000133515229
 31
0.0
210
0.0
220
0.0
230
1.0
 40
0.9821428571428568
 41
0.0
 42
6.283185307179586
  0
ELLIPSE
  5
1EA
330
74
100
AcDbEntity
  8
A1-----1H2_______Schraffur_1_5
  6
Continuous
 62
     7
 48
1000.0
370
    13
100
AcDbEllipse
 10
28.7690331787398
 20
85.33285345955144
 30
0.0
 11
2.057406704322052E-17
 21
0.3360000133515229
 31
0.0
210
0.0
220
0.0
230
1.0
 40
0.9821428571428568
 41
0.0
 42
6.283185307179586
  0
ELLIPSE
  5
1EB
330
74
100
AcDbEntity
  8
A1-----1H2_______Schraffur_1_5
  6
Continuous
 62
     7
 48
1000.0
370
    13
100
AcDbEllipse
 10
43.76903377478625
 20
85.33285345955144
 30
0.0
 11
2.057406704322052E-17
 21
0.3360000133515229
 31
0.0
210
0.0
220
0.0
230
1.0
 40
0.9821428571428568
 41
0.0
 42
6.283185307179586
  0
ELLIPSE
  5
1EC
330
74
100
AcDbEntity
  8
A1-----1H2_______Schraffur_1_5
  6
Continuous
 62
     7
 48
1000.0
370
    13
100
AcDbEllipse
 10
43.76903377478625
 20
97.33285393638846
 30
0.0
 11
2.057406704321459E-17
 21
0.336000013351426
 31
0.0
210
0.0
220
0.0
230
1.0
 40
0.9821428571428568
 41
4.71238898038469
 42
6.94605533298733
  0
ELLIPSE
  5
1ED
330
74
100
AcDbEntity
  8
A1-----1H2_______Schraffur_1_5
  6
Continuous
 62
     7
 48
1000.0
370
    13
100
AcDbEllipse
 10
43.76903377478625
 20
97.33285393638846
 30
0.0
 11
2.057406704321429E-17
 21
0.336000013351421
 31
0.0
210
0.0
220
0.0
230
1.0
 40
0.9821428571428568
 41
2.478722627782049
 42
4.71238898038469
  0
ELLIPSE
  5
1EE
330
74
100
AcDbEntity
  8
A1-----1H2_______Schraffur_1_5
  6
Continuous
 62
     7
 48
1000.0
370
    13
100
AcDbEllipse
 10
19.4690328091911
 20
89.4728536240601
 30
0.0
 11
2.057406704322052E-17
 21
0.3360000133515229
 31
0.0
210
0.0
220
0.0
230
1.0
 40
0.9821428571428568
 41
0.0
 42
6.283185307179586
  0
ELLIPSE
  5
1EF
330
74
100
AcDbEntity
  8
A1-----1H2_______Schraffur_1_5
  6
Continuous
 62
     7
 48
1000.0
370
    13
100
AcDbEllipse
 10
34.46903340523755
 20
89.4728536240601
 30
0.0
 11
2.057406704322052E-17
 21
0.3360000133515229
 31
0.0
210
0.0
220
0.0
230
1.0
 40
0.9821428571428568
 41
0.0
 42
6.283185307179586
  0
ELLIPSE
  5
1F0
330
74
100
AcDbEntity
  8
A1-----1H2_______Schraffur_1_5
  6
Continuous
 62
     7
 48
1000.0
370
    13
100
AcDbEllipse
 10
17.92403274779808
 20
85.16485345287572
 30
0.0
 11
2.057406704322052E-17
 21
0.3360000133515229
 31
0.0
210
0.0
220
0.0
230
1.0
 40
0.9821428571428568
 41
0.0
 42
6.283185307179586
  0
ELLIPSE
  5
1F1
330
74
100
AcDbEntity
  8
A1-----1H2_______Schraffur_1_5
  6
Continuous
 62
     7
 48
1000.0
370
    13
100
AcDbEllipse
 10
32.92403334384453
 20
85.16485345287572
 30
0.0
 11
2.057406704322052E-17
 21
0.3360000133515229
 31
0.0
210
0.0
220
0.0
230
1.0
 40
0.9821428571428568
 41
0.0
 42
6.283185307179586
  0
ELLIPSE
  5
1F2
330
74
100
AcDbEntity
  8
A1-----1H2_______Schraffur_1_5
  6
Continuous
 62
     7
 48
1000.0
370
    13
100
AcDbEllipse
 10
47.92403393989098
 20
85.16485345287572
 30
0.0
 11
2.057406704322052E-17
 21
0.3360000133515229
 31
0.0
210
0.0
220
0.0
230
1.0
 40
0.9821428571428568
 41
0.0
 42
6.283185307179586
  0
ELLIPSE
  5
1F3
330
74
100
AcDbEntity
  8
A1-----1H2_______Schraffur_1_5
  6
Continuous
 62
     7
 48
1000.0
370
    13
100
AcDbEllipse
 10
25.72403305774196
 20
90.42085366173058
 30
0.0
 11
2.057406704322052E-17
 21
0.3360000133515229
 31
0.0
210
0.0
220
0.0
230
1.0
 40
0.9821428571428568
 41
0.0
 42
6.283185307179586
  0
ELLIPSE
  5
1F4
330
74
100
AcDbEntity
  8
A1-----1H2_______Schraffur_1_5
  6
Continuous
 62
     7
 48
1000.0
370
    13
100
AcDbEllipse
 10
40.7240336537884
 20
90.42085366173058
 30
0.0
 11
2.057406704322052E-17
 21
0.3360000133515229
 31
0.0
210
0.0
220
0.0
230
1.0
 40
0.9821428571428568
 41
0.0
 42
6.283185307179586
  0
ELLIPSE
  5
1F5
330
74
100
AcDbEntity
  8
A1-----1H2_______Schraffur_1_5
  6
Continuous
 62
     7
 48
1000.0
370
    13
100
AcDbEllipse
 10
20.78903286164313
 20
87.54085354728946
 30
0.0
 11
2.057406704322052E-17
 21
0.3360000133515229
 31
0.0
210
0.0
220
0.0
230
1.0
 40
0.9821428571428568
 41
0.0
 42
6.283185307179586
  0
ELLIPSE
  5
1F6
330
74
100
AcDbEntity
  8
A1-----1H2_______Schraffur_1_5
  6
Continuous
 62
     7
 48
1000.0
370
    13
100
AcDbEllipse
 10
35.78903345768958
 20
87.54085354728946
 30
0.0
 11
2.057406704322052E-17
 21
0.3360000133515229
 31
0.0
210
0.0
220
0.0
230
1.0
 40
0.9821428571428568
 41
0.0
 42
6.283185307179586
  0
ELLIPSE
  5
1F7
330
74
100
AcDbEntity
  8
A1-----1H2_______Schraffur_1_5
  6
Continuous
 62
     7
 48
1000.0
370
    13
100
AcDbEllipse
 10
28.28903315966635
 20
91.26085369510872
 30
0.0
 11
2.057406704322052E-17
 21
0.3360000133515229
 31
0.0
210
0.0
220
0.0
230
1.0
 40
0.9821428571428568
 41
0.0
 42
6.283185307179586
  0
ELLIPSE
  5
1F8
330
74
100
AcDbEntity
  8
A1-----1H2_______Schraffur_1_5
  6
Continuous
 62
     7
 48
1000.0
370
    13
100
AcDbEllipse
 10
43.2890337557128
 20
91.26085369510872
 30
0.0
 11
2.057406704322052E-17
 21
0.3360000133515229
 31
0.0
210
0.0
220
0.0
230
1.0
 40
0.9821428571428568
 41
0.0
 42
6.283185307179586
  0
ARC
  5
1F9
330
74
100
AcDbEntity
  8
A1E-----M5_______Rohbau
  6
Continuous
 62
     7
 48
1000.0
370
    13
100
AcDbCircle
 10
89.43531148769246
 20
139.2461464358736
 30
0.0
 40
37.68302638811913
100
AcDbArc
 50
170.8363561152584
 51
189.1636438847416
  0
ARC
  5
1FA
330
74
100
AcDbEntity
  8
A1E-----M5_______Rohbau
  6
Continuous
 62
     7
 48
1000.0
370
    13
100
AcDbCircle
 10
87.26355161521649
 20
139.4954566880171
 30
0.0
 40
0.3678894616399422
100
AcDbArc
 50
7.587881189094084
 51
189.0261503407334
  0
ARC
  5
1FB
330
74
100
AcDbEntity
  8
A1E-----M5_______Rohbau
  6
Continuous
 62
     7
 48
1000.0
370
    13
100
AcDbCircle
 10
88.66855620920111
 20
139.6822953362087
 30
0.0
 40
0.3407140873236387
100
AcDbArc
 50
5.274420873411983
 51
187.5612015363785
  0
ARC
  5
1FC
330
74
100
AcDbEntity
  8
A1E-----M5_______Rohbau
  6
Continuous
 62
     7
 48
1000.0
370
    13
100
AcDbCircle
 10
87.97950128616017
 20
139.5908306452847
 30
0.0
 40
0.354384809706504
100
AcDbArc
 50
187.5878811891816
 51
7.56120153653193
  0
ARC
  5
1FD
330
74
100
AcDbEntity
  8
A1E-----M5_______Rohbau
  6
Continuous
 62
     7
 48
1000.0
370
    13
100
AcDbCircle
 10
90.04168461908901
 20
139.7685762210357
 30
0.0
 40
0.3488346725100354
100
AcDbArc
 50
359.5496420128553
 51
181.9362161675861
  0
ARC
  5
1FE
330
74
100
AcDbEntity
  8
A1E-----M5_______Rohbau
  6
Continuous
 62
     7
 48
1000.0
370
    13
100
AcDbCircle
 10
89.34980934308601
 20
139.74518653537
 30
0.0
 40
0.3434358489914388
100
AcDbArc
 50
185.274420873306
 51
1.936216167553681
  0
ARC
  5
1FF
330
74
100
AcDbEntity
  8
A1E-----M5_______Rohbau
  6
Continuous
 62
     7
 48
1000.0
370
    13
100
AcDbCircle
 10
91.44028219631251
 20
139.7425728120434
 30
0.0
 40
0.3489490958312002
100
AcDbArc
 50
0.0
 51
180.0101113474059
  0
ARC
  5
200
330
74
100
AcDbEntity
  8
A1E-----M5_______Rohbau
  6
Continuous
 62
     7
 48
1000.0
370
    13
100
AcDbCircle
 10
90.74130864429986
 20
139.7658266041117
 30
0.0
 40
0.3508001287936442
100
AcDbArc
 50
179.5509036478219
 51
356.1891178203896
  0
ARC
  5
201
330
74
100
AcDbEntity
  8
A1E-----M5_______Rohbau
  6
Continuous
 62
     7
 48
1000.0
370
    13
100
AcDbCircle
 10
92.1290763618543
 20
139.6858458316974
 30
0.0
 40
0.3445469804042081
100
AcDbArc
 50
170.5235489613103
 51
0.0
  0
ARC
  5
202
330
74
100
AcDbEntity
  8
A1E-----M5_______Rohbau
  6
Continuous
 62
     7
 48
1000.0
370
    13
100
AcDbCircle
 10
92.8243374840807
 20
139.6058648832563
 30
0.0
 40
0.3597184473825331
100
AcDbArc
 50
0.0
 51
167.1533025839318
  0
ARC
  5
203
330
74
100
AcDbEntity
  8
A1E-----M5_______Rohbau
  6
Continuous
 62
     7
 48
1000.0
370
    13
100
AcDbCircle
 10
93.52408827869519
 20
139.4707817219396
 30
0.0
 40
0.3658817536248077
100
AcDbArc
 50
179.8137407039537
 51
0.0
  0
ARC
  5
204
330
74
100
AcDbEntity
  8
A1E-----M5_______Rohbau
  6
Continuous
 62
     7
 48
1000.0
370
    13
100
AcDbCircle
 10
92.82506859067219
 20
138.8938107192592
 30
0.0
 40
0.3488255426586656
100
AcDbArc
 50
8.505219617751374
 51
187.9562101226096
  0
ARC
  5
205
330
74
100
AcDbEntity
  8
A1E-----M5_______Rohbau
  6
Continuous
 62
     7
 48
1000.0
370
    13
100
AcDbCircle
 10
93.52972197697883
 20
138.9991875017242
 30
0.0
 40
0.3636635176897644
100
AcDbArc
 50
188.5052196176639
 51
352.1412585348168
  0
ARC
  5
206
330
74
100
AcDbEntity
  8
A1E-----M5_______Rohbau
  6
Continuous
 62
     7
 48
1000.0
370
    13
100
AcDbCircle
 10
92.12990663477028
 20
138.7966538103354
 30
0.0
 40
0.3530929781719104
100
AcDbArc
 50
183.1433938091672
 51
7.956210122660544
  0
ARC
  5
207
330
74
100
AcDbEntity
  8
A1E-----M5_______Rohbau
  6
Continuous
 62
     7
 48
1000.0
370
    13
100
AcDbCircle
 10
91.43620424247612
 20
138.75855728319
 30
0.0
 40
0.3416547130478033
100
AcDbArc
 50
3.143393809105245
 51
182.8613630919975
  0
ARC
  5
208
330
74
100
AcDbEntity
  8
A1E-----M5_______Rohbau
  6
Continuous
 62
     7
 48
1000.0
370
    13
100
AcDbCircle
 10
90.73815087794924
 20
138.7236673433572
 30
0.0
 40
0.3572700380010599
100
AcDbArc
 50
180.2327933047607
 51
2.861363091997296
  0
ARC
  5
209
330
74
100
AcDbEntity
  8
A1E-----M5_______Rohbau
  6
Continuous
 62
     7
 48
1000.0
370
    13
100
AcDbCircle
 10
90.04038887408194
 20
138.7208323140057
 30
0.0
 40
0.3404977252500958
100
AcDbArc
 50
0.2327933047374001
 51
176.8749494337702
  0
ARC
  5
20A
330
74
100
AcDbEntity
  8
A1E-----M5_______Rohbau
  6
Continuous
 62
     7
 48
1000.0
370
    13
100
AcDbCircle
 10
89.3567795484822
 20
138.7581550396011
 30
0.0
 40
0.3441296886713412
100
AcDbArc
 50
175.8706245018515
 51
356.8749494336955
  0
ARC
  5
20B
330
74
100
AcDbEntity
  8
A1E-----M5_______Rohbau
  6
Continuous
 62
     7
 48
1000.0
370
    13
100
AcDbCircle
 10
88.66627232889002
 20
138.8080070671483
 30
0.0
 40
0.3481747566128737
100
AcDbArc
 50
355.8706245019072
 51
173.0744307417708
  0
ARC
  5
20C
330
74
100
AcDbEntity
  8
A1E-----M5_______Rohbau
  6
Continuous
 62
     7
 48
1000.0
370
    13
100
AcDbCircle
 10
87.97157147301738
 20
138.8923896876142
 30
0.0
 40
0.3516321494594279
100
AcDbArc
 50
168.9004850201225
 51
353.0744307417681
  0
ARC
  5
20D
330
74
100
AcDbEntity
  8
A1E-----M5_______Rohbau
  6
Continuous
 62
     7
 48
1000.0
370
    13
100
AcDbCircle
 10
87.2733562618162
 20
139.0293679279013
 30
0.0
 40
0.3598926353967974
100
AcDbArc
 50
348.900485020136
 51
171.6035836225723
  0
ARC
  5
20E
330
74
100
AcDbEntity
  8
A1E-----M5_______Rohbau
  6
Continuous
 62
     7
 48
1000.0
370
    13
100
AcDbCircle
 10
86.25457880195864
 20
139.2461464358736
 30
0.0
 40
0.095607093308725
100
AcDbArc
 50
114.1113443878471
 51
266.0724550718765
  0
ARC
  5
20F
330
74
100
AcDbEntity
  8
A1E-----M5_______Rohbau
  6
Continuous
 62
     7
 48
1000.0
370
    25
100
AcDbCircle
 10
90.41089552729176
 20
115.4070124429572
 30
0.0
 40
25.18355212410708
100
AcDbArc
 50
80.2430090953885
 51
99.49961186452556
  0
ARC
  5
210
330
74
100
AcDbEntity
  8
A1E-----M5_______Rohbau
  6
Continuous
 62
     7
 48
1000.0
370
    13
100
AcDbCircle
 10
90.41089552725046
 20
115.4070124429643
 30
0.0
 40
24.88771535879469
100
AcDbArc
 50
80.38640232522856
 51
99.61359767477146
  0
ARC
  5
211
330
74
100
AcDbEntity
  8
A1E-----M5_______Rohbau
  6
Continuous
 62
     7
 48
1000.0
370
    13
100
AcDbCircle
 10
90.41089552725046
 20
163.0852804287832
 30
0.0
 40
24.88771535879469
100
AcDbArc
 50
260.3864023252286
 51
279.6135976747714
  0
ARC
  5
212
330
74
100
AcDbEntity
  8
A1E-----M5_______Rohbau
  6
Continuous
 62
     7
 48
1000.0
370
    25
100
AcDbCircle
 10
90.41089552725023
 20
163.0852804287832
 30
0.0
 40
25.18355212410708
100
AcDbArc
 50
260.5003881353765
 51
279.756990904707
  0
CIRCLE
  5
213
330
74
100
AcDbEntity
  8
A1E-----M5_______Rohbau
  6
Continuous
 62
   252
 48
1000.0
370
    80
100
AcDbCircle
 10
162.6973769786804
 20
187.9165534983873
 30
0.0
 40
27.14141674342478
  0
CIRCLE
  5
214
330
74
100
AcDbEntity
  8
A1E-----M5_______Rohbau
  6
Continuous
 62
   252
 48
1000.0
370
    80
100
AcDbCircle
 10
46.94088860315082
 20
128.8694426672581
 30
0.0
 40
6.000000000000051
  0
MTEXT
  5
216
102
{ACAD_XDICTIONARY
360
25C
102
}
330
74
100
AcDbEntity
  8
A1------T2_______Text_1_5
  6
Continuous
 62
     7
370
    25
100
AcDbMText
 10
29.44659645768044
 20
117.4279570507399
 30
0.0
 40
2.2
 41
0.0
 71
     4
 72
     1
  1
{\A1;15}
  7
ERSTELLTER_STIL_1
 73
     1
 44
1.0
  0
MTEXT
  5
217
102
{ACAD_XDICTIONARY
360
25E
102
}
330
74
100
AcDbEntity
  8
A1------T2_______Text_1_5
  6
Continuous
 62
     7
370
    25
100
AcDbMText
 10
135.4714956610927
 20
58.72133143237345
 30
0.0
 40
2.2
 41
0.0
 71
     4
 72
     1
  1
{\A1;1\U+22127}
  7
ERSTELLTER_STIL_1
 73
     1
 44
1.0
  0
MTEXT
  5
218
102
{ACAD_XDICTIONARY
360
260
102
}
330
74
100
AcDbEntity
  8
A1------T2_______Text_1_5
  6
Continuous
 62
     7
370
    25
100
AcDbMText
 10
138.9190456610927
 20
53.77431980000662
 30
0.0
 40
2.2
 41
0.0
 71
     4
 72
     1
  1
{\A1;8}
  7
ERSTELLTER_STIL_1
 73
     1
 44
1.0
  0
MTEXT
  5
219
102
{ACAD_XDICTIONARY
360
262
102
}
330
74
100
AcDbEntity
  8
A1------T2_______Text_1_5
  6
Continuous
 62
     7
370
    25
100
AcDbMText
 10
31.4162022523492
 20
124.0145106644358
 30
0.0
 40
2.2
 41
0.0
 71
     4
 72
     1
  1
{\A1;9}
  7
ERSTELLTER_STIL_1
 73
     1
 44
1.0
  0
MTEXT
  5
21A
102
{ACAD_XDICTIONARY
360
264
102
}
330
74
100
AcDbEntity
  8
A1------T2_______Text_1_5
  6
Continuous
 62
     7
370
    25
100
AcDbMText
 10
29.59306942168727
 20
110.8414034370435
 30
0.0
 40
2.2
 41
0.0
 71
     4
 72
     1
  1
{\A1;18}
  7
ERSTELLTER_STIL_1
 73
     1
 44
1.0
  0
MTEXT
  5
21B
102
{ACAD_XDICTIONARY
360
266
102
}
330
74
100
AcDbEntity
  8
A1------T2_______Text_1_5
  6
Continuous
 62
     7
370
    25
100
AcDbMText
 10
14.26330976460626
 20
110.3142425963561
 30
0.0
 40
2.2
 41
0.0
 71
     4
 72
     1
  1
{\A1;mind. 12 cm}
  7
ERSTELLTER_STIL_1
 11
6.123233995736766E-17
 21
1.0
 31
0.0
 73
     1
 44
1.0
  0
MTEXT
  5
21C
102
{ACAD_XDICTIONARY
360
268
102
}
330
74
100
AcDbEntity
  8
A1------T2_______Text_1_5
  6
Continuous
 62
     7
370
    25
100
AcDbMText
 10
137.2253366843559
 20
34.99337863803736
 30
0.0
 40
2.2
 41
0.0
 71
     4
 72
     1
  1
{\A1;18}
  7
ERSTELLTER_STIL_1
 73
     1
 44
1.0
  0
MTEXT
  5
21D
102
{ACAD_XDICTIONARY
360
26A
102
}
330
74
100
AcDbEntity
  8
A1------T2_______Text_1_5
  6
Continuous
 62
     7
370
    25
100
AcDbMText
 10
145.0749956610926
 20
34.89147123757139
 30
0.0
 40
2.2
 41
0.0
 71
     4
 72
     1
  1
{\A1;RÖFIX gedämmter Blechsockel XPS}
  7
ERSTELLTER_STIL_1
 73
     1
 44
1.0
  0
MTEXT
  5
21E
102
{ACAD_XDICTIONARY
360
26C
102
}
330
74
100
AcDbEntity
  8
A1------T2_______Text_1_5
  6
Continuous
 62
     7
370
    25
100
AcDbMText
 10
137.2253366843559
 20
39.92195009183301
 30
0.0
 40
2.2
 41
0.0
 71
     4
 72
     1
  1
{\A1;15}
  7
ERSTELLTER_STIL_1
 73
     1
 44
1.0
  0
MTEXT
  5
21F
102
{ACAD_XDICTIONARY
360
26E
102
}
330
74
100
AcDbEntity
  8
A1------T2_______Text_1_5
  6
Continuous
 62
     7
370
    25
100
AcDbMText
 10
145.0749956610926
 20
39.62287638653532
 30
0.0
 40
2.2
 41
0.0
 71
     4
 72
     1
  1
{\A1;Bauwerksabdichtung (bauseits)}
  7
ERSTELLTER_STIL_1
 73
     1
 44
1.0
  0
MTEXT
  5
220
102
{ACAD_XDICTIONARY
360
270
102
}
330
74
100
AcDbEntity
  8
A1------T2_______Text_1_5
  6
Continuous
 62
     7
370
    25
100
AcDbMText
 10
145.0749956610926
 20
29.76573460520464
 30
0.0
 40
2.2
 41
0.0
 71
     4
 72
     1
  1
{\A1;Verdeckte Kittfuge mit Trennschnitt}
  7
ERSTELLTER_STIL_1
 73
     1
 44
1.0
  0
MTEXT
  5
221
102
{ACAD_XDICTIONARY
360
272
102
}
330
74
100
AcDbEntity
  8
A1------T2_______Text_1_5
  6
Continuous
 62
     7
370
    25
100
AcDbMText
 10
145.0749956610926
 20
26.13548250685884
 30
0.0
 40
2.2
 41
0.0
 71
     4
 72
     1
  1
{\A1;nach SIA 243}
  7
ERSTELLTER_STIL_1
 73
     1
 44
1.0
  0
MTEXT
  5
222
102
{ACAD_XDICTIONARY
360
274
102
}
330
74
100
AcDbEntity
  8
A1------T2_______Text_1_5
  6
Continuous
 62
     7
370
    25
100
AcDbMText
 10
137.2253366843559
 20
30.08322236281334
 30
0.0
 40
2.2
 41
0.0
 71
     4
 72
     1
  1
{\A1;27}
  7
ERSTELLTER_STIL_1
 73
     1
 44
1.0
  0
MTEXT
  5
223
102
{ACAD_XDICTIONARY
360
276
102
}
330
74
100
AcDbEntity
  8
A1------T2_______Text_1_5
  6
Continuous
 62
     7
370
    40
100
AcDbMText
 10
31.41096637007568
 20
186.5575498101796
 30
0.0
 40
2.2
 41
0.0
 71
     4
 72
     1
  1
{\A1;2}
  7
ERSTELLTER_STIL_1
 73
     1
 44
1.0
  0
MTEXT
  5
224
102
{ACAD_XDICTIONARY
360
278
102
}
330
74
100
AcDbEntity
  8
A1------T2_______Text_1_5
  6
Continuous
 62
     7
370
    40
100
AcDbMText
 10
31.41794977101808
 20
180.4940596888581
 30
0.0
 40
2.2
 41
0.0
 71
     4
 72
     1
  1
{\A1;3}
  7
ERSTELLTER_STIL_1
 73
     1
 44
1.0
  0
MTEXT
  5
225
102
{ACAD_XDICTIONARY
360
27A
102
}
330
74
100
AcDbEntity
  8
A1------T2_______Text_1_5
  6
Continuous
 62
     7
370
    40
100
AcDbMText
 10
31.37299711802033
 20
174.5575498101794
 30
0.0
 40
2.2
 41
0.0
 71
     4
 72
     1
  1
{\A1;4}
  7
ERSTELLTER_STIL_1
 73
     1
 44
1.0
  0
MTEXT
  5
226
102
{ACAD_XDICTIONARY
360
27C
102
}
330
74
100
AcDbEntity
  8
A1------T2_______Text_1_5
  6
Continuous
 62
     7
370
    40
100
AcDbMText
 10
31.40762115398022
 20
168.4982069372011
 30
0.0
 40
2.2
 41
0.0
 71
     4
 72
     1
  1
{\A1;5}
  7
ERSTELLTER_STIL_1
 73
     1
 44
1.0
  0
MTEXT
  5
227
102
{ACAD_XDICTIONARY
360
27E
102
}
330
74
100
AcDbEntity
  8
A1------T2_______Text_1_5
  6
Continuous
 62
     7
370
    40
100
AcDbMText
 10
31.41278546249882
 20
162.4982069372016
 30
0.0
 40
2.2
 41
0.0
 71
     4
 72
     1
  1
{\A1;6}
  7
ERSTELLTER_STIL_1
 73
     1
 44
1.0
  0
MTEXT
  5
228
102
{ACAD_XDICTIONARY
360
280
102
}
330
74
100
AcDbEntity
  8
A1------T2_______Text_1_5
  6
Continuous
 62
     7
370
    40
100
AcDbMText
 10
31.42827838805529
 20
156.5575498101796
 30
0.0
 40
2.2
 41
0.0
 71
     4
 72
     1
  1
{\A1;7}
  7
ERSTELLTER_STIL_1
 73
     1
 44
1.0
  0
MTEXT
  5
229
102
{ACAD_XDICTIONARY
360
282
102
}
330
74
100
AcDbEntity
  8
A1------T2_______Text_1_5
  6
Continuous
 62
     7
370
    40
100
AcDbMText
 10
31.41096637007568
 20
192.5575498101798
 30
0.0
 40
2.2
 41
0.0
 71
     4
 72
     1
  1
{\A1;1}
  7
ERSTELLTER_STIL_1
 73
     1
 44
1.0
  0
MTEXT
  5
22A
102
{ACAD_XDICTIONARY
360
284
102
}
330
74
100
AcDbEntity
  8
A1------T2_______Text_1_5
  6
Continuous
 62
     7
370
    40
100
AcDbMText
 10
31.42827838805529
 20
147.1172366682073
 30
0.0
 40
2.2
 41
0.0
 71
     4
 72
     1
  1
{\A1;8}
  7
ERSTELLTER_STIL_1
 73
     1
 44
1.0
  0
LINE
  5
22B
330
74
100
AcDbEntity
  8
A1------T2_______Text_1_5
  6
Continuous
 62
   255
 48
1000.0
370
     5
100
AcDbLine
 10
14.99999999999901
 20
224.5680793633149
 30
0.0
 11
105.8870334232922
 21
224.5680793633149
 31
0.0
  0
LINE
  5
22C
330
74
100
AcDbEntity
  8
A1------T2_______Text_1_5
  6
Continuous
 62
   255
 48
1000.0
370
     5
100
AcDbLine
 10
105.8870334232922
 20
224.5680793633149
 30
0.0
 11
105.8870334232922
 21
228.0240966350076
 31
0.0
  0
LINE
  5
22D
330
74
100
AcDbEntity
  8
A1------T2_______Text_1_5
  6
Continuous
 62
   255
 48
1000.0
370
     5
100
AcDbLine
 10
105.8870334232922
 20
228.0240966350076
 30
0.0
 11
14.99999999999901
 21
228.0240966350076
 31
0.0
  0
LINE
  5
22E
330
74
100
AcDbEntity
  8
A1------T2_______Text_1_5
  6
Continuous
 62
   255
 48
1000.0
370
     5
100
AcDbLine
 10
14.99999999999901
 20
228.0240966350076
 30
0.0
 11
14.99999999999901
 21
224.5680793633149
 31
0.0
  0
MTEXT
  5
22F
102
{ACAD_XDICTIONARY
360
286
102
}
330
74
100
AcDbEntity
  8
A1------T2_______Text_1_5
  6
Continuous
 62
     7
370
    25
100
AcDbMText
 10
14.99999999999901
 20
226.2796168047169
 30
0.0
 40
2.50009201388889
 41
0.0
 71
     4
 72
     1
  1
{\A1;\W0.93383x;Datum 08.04.2020}
 73
     1
 44
1.0
  0
LINE
  5
230
330
74
100
AcDbEntity
  8
A1------T2_______Text_1_5
  6
Continuous
 62
   255
 48
1000.0
370
     5
100
AcDbLine
 10
14.99999999999901
 20
246.054272789997
 30
0.0
 11
121.7916666666659
 21
246.054272789997
 31
0.0
  0
LINE
  5
231
330
74
100
AcDbEntity
  8
A1------T2_______Text_1_5
  6
Continuous
 62
   255
 48
1000.0
370
     5
100
AcDbLine
 10
121.7916666666659
 20
246.054272789997
 30
0.0
 11
121.7916666666659
 21
251.5835589408613
 31
0.0
  0
LINE
  5
232
330
74
100
AcDbEntity
  8
A1------T2_______Text_1_5
  6
Continuous
 62
   255
 48
1000.0
370
     5
100
AcDbLine
 10
121.7916666666659
 20
251.5835589408613
 30
0.0
 11
14.99999999999901
 21
251.5835589408613
 31
0.0
  0
LINE
  5
233
330
74
100
AcDbEntity
  8
A1------T2_______Text_1_5
  6
Continuous
 62
   255
 48
1000.0
370
     5
100
AcDbLine
 10
14.99999999999901
 20
251.5835589408613
 30
0.0
 11
14.99999999999901
 21
246.054272789997
 31
0.0
  0
MTEXT
  5
234
102
{ACAD_XDICTIONARY
360
288
102
}
330
74
100
AcDbEntity
  8
A1------T2_______Text_1_5
  6
Continuous
 62
     7
370
    25
100
AcDbMText
 10
14.99999999999901
 20
249.1026814390093
 30
0.0
 40
3.999897337962964
 41
0.0
 71
     4
 72
     1
  1
{\A1;\W0.93383x;E. Sitzplatz, Balkon, Terrasse}
 73
     1
 44
1.0
  0
LINE
  5
235
330
74
100
AcDbEntity
  8
A1------T2_______Text_1_5
  6
Continuous
 62
   255
 48
1000.0
370
     5
100
AcDbLine
 10
14.99999999999901
 20
235.2014669514502
 30
0.0
 11
192.7597883780616
 21
235.2014669514502
 31
0.0
  0
LINE
  5
236
330
74
100
AcDbEntity
  8
A1------T2_______Text_1_5
  6
Continuous
 62
   255
 48
1000.0
370
     5
100
AcDbLine
 10
192.7597883780616
 20
235.2014669514502
 30
0.0
 11
192.7597883780616
 21
239.2604553901276
 31
0.0
  0
LINE
  5
237
330
74
100
AcDbEntity
  8
A1------T2_______Text_1_5
  6
Continuous
 62
   255
 48
1000.0
370
     5
100
AcDbLine
 10
192.7597883780616
 20
239.2604553901276
 30
0.0
 11
14.99999999999901
 21
239.2604553901276
 31
0.0
  0
LINE
  5
238
330
74
100
AcDbEntity
  8
A1------T2_______Text_1_5
  6
Continuous
 62
   255
 48
1000.0
370
     5
100
AcDbLine
 10
14.99999999999901
 20
239.2604553901276
 30
0.0
 11
14.99999999999901
 21
235.2014669514502
 31
0.0
  0
MTEXT
  5
239
102
{ACAD_XDICTIONARY
360
28A
102
}
330
74
100
AcDbEntity
  8
A1------T2_______Text_1_5
  6
Continuous
 62
     7
370
    25
100
AcDbMText
 10
14.99999999999901
 20
237.3742683234609
 30
0.0
 40
2.999999999999997
 41
0.0
 71
     4
 72
     1
  1
{\A1;\W0.93383x;E.5 ^I }{\A1;\H1.00004x;\W0.93383x;Anschluss beim Sockel mit ged}{\A1;\fArial|b0|i0|c0|p0;\H1.00004x;\W0.93383x;ä}{\A1;\H1.00004x;\W0.93383x;mmtem Blechsockel}
 73
     1
 44
1.0
  0
MTEXT
  5
23A
102
{ACAD_XDICTIONARY
360
28C
102
}
330
74
100
AcDbEntity
  8
A1------T2_______Text_1_5
  6
Continuous
 62
     7
370
    40
100
AcDbMText
 10
138.9222834727699
 20
48.84574802673018
 30
0.0
 40
2.2
 41
0.0
 71
     4
 72
     1
  1
{\A1;9}
  7
ERSTELLTER_STIL_1
 73
     1
 44
1.0
  0
MTEXT
  5
23B
102
{ACAD_XDICTIONARY
360
28E
102
}
330
74
100
AcDbEntity
  8
A1------T2_______Text_1_5
  6
Continuous
 62
     7
370
    25
100
AcDbMText
 10
126.931061728413
 20
188.0967139142082
 30
0.0
 40
2.200000000000001
 41
0.0
 71
     4
 72
     1
  1
{\A1;27}
  7
ERSTELLTER_STIL_1
 73
     1
 44
1.0
  0
MTEXT
  5
23C
102
{ACAD_XDICTIONARY
360
290
102
}
330
74
100
AcDbEntity
  8
A1------T2_______Text_1_5
  6
Continuous
 62
     7
370
    25
100
AcDbMText
 10
145.0748572367717
 20
58.60099393237337
 30
0.0
 40
2.2
 41
0.0
 71
     4
 72
     1
  1
{\A1;RÖFIX Systemaufbau}
  7
ERSTELLTER_STIL_1
 73
     1
 44
1.0
  0
MTEXT
  5
23D
102
{ACAD_XDICTIONARY
360
292
102
}
330
74
100
AcDbEntity
  8
A1------T2_______Text_1_5
  6
Continuous
 62
     7
370
    40
100
AcDbMText
 10
20.35040391190006
 20
107.4000614977412
 30
0.0
 40
2.2
 41
0.0
 71
     4
 72
     1
  1
{\A1;Gefälle mind.1.5%}
  7
ERSTELLTER_STIL_1
 11
0.999839716251794
 21
0.01790368134021516
 31
0.0
 73
     1
 44
1.0
  0
MTEXT
  5
23E
102
{ACAD_XDICTIONARY
360
294
102
}
330
74
100
AcDbEntity
  8
A1------T2_______Text_1_5
  6
Continuous
 62
     7
370
    40
100
AcDbMText
 10
145.0749956610926
 20
48.84771231244491
 30
0.0
 40
2.200000000000001
 41
0.0
 71
     4
 72
     1
  1
{\A1;Kleben mit RÖFIX Collstar, }
  7
ERSTELLTER_STIL_1
 73
     1
 44
1.0
  0
MTEXT
  5
23F
102
{ACAD_XDICTIONARY
360
296
102
}
330
74
100
AcDbEntity
  8
A1------T2_______Text_1_5
  6
Continuous
 62
     7
370
    25
100
AcDbMText
 10
145.0749956610926
 20
44.89950325247643
 30
0.0
 40
2.200120659722223
 41
0.0
 71
     4
 72
     1
  1
{\A1;RÖFIX Optiflex{\A1;\Ftxt.shx;\H0.66000x;\S®^  ;}}
  7
ERSTELLTER_STIL_1
 73
     1
 44
1.0
  0
LINE
  5
240
330
74
100
AcDbEntity
  8
A1E-----M5_______Rohbau
  6
LINIE_34
 62
     1
 48
1000.0
370
    35
100
AcDbLine
 10
14.99999999999901
 20
67.12875111227645
 30
0.0
 11
82.00457880204226
 21
67.12875111227645
 31
0.0
  0
MTEXT
  5
241
102
{ACAD_XDICTIONARY
360
298
102
}
330
74
100
AcDbEntity
  8
A1------T2_______Text_1_5
  6
Continuous
 62
     7
370
    25
100
AcDbMText
 10
145.0749956610926
 20
54.10836531945249
 30
0.0
 40
2.2
 41
0.0
 71
     4
 72
     1
  1
{\A1;RÖFIX Dämmstoffdübel}
  7
ERSTELLTER_STIL_1
 73
     1
 44
1.0
  0
LINE
  5
242
330
74
100
AcDbEntity
  8
A1E-----M5_______Rohbau
  6
Continuous
 62
     7
 48
1000.0
370
    20
100
AcDbLine
 10
80.90457880204215
 20
123.9072079858645
 30
0.0
 11
35.35156212252222
 21
123.9072079858645
 31
0.0
  0
CIRCLE
  5
243
330
74
100
AcDbEntity
  8
A1E-----M5_______Rohbau
  6
Continuous
 62
     7
 48
1000.0
370
    20
100
AcDbCircle
 10
81.50457880204232
 20
123.9072079858645
 30
0.0
 40
0.6000000000000001
  0
HATCH
  5
244
330
74
100
AcDbEntity
  8
A1E-----M5_______Rohbau
  6
Continuous
 62
     7
370
    20
100
AcDbHatch
 10
0.0
 20
0.0
 30
0.0
210
0.0
220
0.0
230
1.0
  2
SOLID
 70
     1
 71
     0
 91
        1
 92
        3
 72
     0
 73
     1
 93
       16
 10
80.90457880204215
 20
123.9072079858645
 10
80.95025108943221
 20
123.6775979257829
 10
81.08031472937216
 20
123.4829439131944
 10
81.27496874196072
 20
123.3528802732546
 10
81.50457880204232
 20
123.3072079858646
 10
81.73418886212391
 20
123.3528802732546
 10
81.92884287471247
 20
123.4829439131944
 10
82.05890651465242
 20
123.6775979257829
 10
82.10457880204225
 20
123.9072079858645
 10
82.05890651465242
 20
124.1368180459461
 10
81.92884287471247
 20
124.3314720585347
 10
81.73418886212391
 20
124.4615356984744
 10
81.50457880204232
 20
124.5072079858647
 10
81.27496874196072
 20
124.4615356984744
 10
81.08031472937216
 20
124.3314720585347
 10
80.95025108943221
 20
124.1368180459461
 97
        0
 75
     0
 76
     1
 98
        0
  0
LINE
  5
245
330
74
100
AcDbEntity
  8
A1E-----M5_______Rohbau
  6
Continuous
 62
     7
 48
1000.0
370
    20
100
AcDbLine
 10
157.7267195687533
 20
185.5283236656615
 30
0.0
 11
155.2840473876132
 21
187.9709958468016
 31
0.0
  0
CIRCLE
  5
246
330
74
100
AcDbEntity
  8
A1E-----M5_______Rohbau
  6
Continuous
 62
     7
 48
1000.0
370
    20
100
AcDbCircle
 10
158.1509836374653
 20
185.1040595969498
 30
0.0
 40
0.6000000000000001
  0
HATCH
  5
247
330
74
100
AcDbEntity
  8
A1E-----M5_______Rohbau
  6
Continuous
 62
     7
370
    20
100
AcDbHatch
 10
0.0
 20
0.0
 30
0.0
210
0.0
220
0.0
230
1.0
  2
SOLID
 70
     1
 71
     0
 91
        1
 92
        3
 72
     0
 73
     1
 93
       16
 10
157.5509836374653
 20
185.1040595969498
 10
157.5966559248554
 20
184.8744495368682
 10
157.7267195647951
 20
184.6797955242796
 10
157.9213735773837
 20
184.5497318843396
 10
158.1509836374653
 20
184.5040595969496
 10
158.3805936975469
 20
184.5497318843396
 10
158.5752477101354
 20
184.6797955242796
 10
158.7053113500752
 20
184.8744495368682
 10
158.7509836374652
 20
185.1040595969498
 10
158.7053113500752
 20
185.3336696570314
 10
158.5752477101354
 20
185.5283236696199
 10
158.3805936975469
 20
185.6583873095596
 10
158.1509836374653
 20
185.7040595969497
 10
157.9213735773837
 20
185.6583873095596
 10
157.7267195647951
 20
185.5283236696199
 10
157.5966559248554
 20
185.3336696570314
 97
        0
 75
     0
 76
     1
 98
        0
  0
ENDBLK
  5
76
330
74
100
AcDbEntity
  8
0
100
AcDbBlockEnd
  0
BLOCK
  5
24D
330
24C
100
AcDbEntity
  8
0
100
AcDbBlockBegin
  2
02.22 26. Detail E.5_STORY_MARKER
 70
     0
 10
0.0
 20
0.0
 30
0.0
  3
02.22 26. Detail E.5_STORY_MARKER
  1

  0
ENDBLK
  5
24E
330
24C
100
AcDbEntity
  8
0
100
AcDbBlockEnd
  0
ENDSEC
  0
SECTION
  2
ENTITIES
  0
VIEWPORT
  5
6E
102
{ACAD_XDICTIONARY
360
25A
102
}
330
1B
100
AcDbEntity
 67
     1
  8
0
  6
Continuous
370
     0
100
AcDbViewport
 10
105.0
 20
148.5
 30
0.0
 40
0.252
 41
0.3564
 68
     1
 69
     1
 12
105.0
 22
148.5
 13
0.0
 23
0.0
 14
0.5
 24
0.5
 15
0.0
 25
0.0
 16
0.0
 26
0.0
 36
1.0
 17
0.0
 27
0.0
 37
0.0
 42
50.0
 43
0.0
 44
0.0
 45
0.3564
 50
0.0
 51
0.0
 72
   100
 90
   557152
  1

281
     0
 71
     1
 74
     0
110
0.0
120
0.0
130
0.0
111
1.0
121
0.0
131
0.0
112
0.0
122
1.0
132
0.0
 79
     0
146
0.0
  0
LINE
  5
6F
330
1B
100
AcDbEntity
 67
     1
  8
FORMAT
  6
Continuous
 62
     7
 48
1000.0
370
    13
100
AcDbLine
 10
15.0
 20
215.0
 30
0.0
 11
190.0
 21
215.0
 31
0.0
  0
LINE
  5
71
330
1B
100
AcDbEntity
 67
     1
  8
FORMAT
  6
Continuous
 62
     7
 48
1000.0
370
    13
100
AcDbLine
 10
190.0
 20
215.0
 30
0.0
 11
190.0
 21
25.0
 31
0.0
  0
LINE
  5
72
330
1B
100
AcDbEntity
 67
     1
  8
FORMAT
  6
Continuous
 62
     7
 48
1000.0
370
    13
100
AcDbLine
 10
190.0
 20
25.0
 30
0.0
 11
15.0
 21
25.0
 31
0.0
  0
LINE
  5
73
330
1B
100
AcDbEntity
 67
     1
  8
FORMAT
  6
Continuous
 62
     7
 48
1000.0
370
    13
100
AcDbLine
 10
15.0
 20
25.0
 30
0.0
 11
15.0
 21
215.0
 31
0.0
  0
INSERT
  5
248
102
{ACAD_XDICTIONARY
360
249
102
}
330
1B
100
AcDbEntity
 67
     1
  8
0
  6
Continuous
 62
     1
 48
1000.0
370
    35
100
AcDbBlockReference
  2
Zeichnung_1_1
 10
1688.024586529066
 20
1652.125871091721
 30
0.0
  0
ENDSEC
  0
SECTION
  2
OBJECTS
  0
DICTIONARY
  5
C
330
0
100
AcDbDictionary
281
     1
  3
ACAD_GROUP
350
D
  3
ACAD_LAYOUT
350
1A
  3
ACAD_MATERIAL
350
43
  3
ACAD_MLEADERSTYLE
350
6B
  3
ACAD_MLINESTYLE
350
17
  3
ACAD_PLOTSETTINGS
350
19
  3
ACAD_PLOTSTYLENAME
350
E
  3
ACAD_SCALELIST
350
47
  3
ACAD_TABLESTYLE
350
69
  3
ACAD_VISUALSTYLE
350
2A
  3
AcDbVariableDictionary
350
252
  3
ACDB_RECOMPOSE_DATA
350
2D7
  3
WATERMARKS
350
250
  0
DICTIONARY
  5
29A
330
8
100
AcDbDictionary
280
     1
281
     1
  3
ACAD_XREC_ROUNDTRIP
360
29B
  0
DICTIONARY
  5
25C
330
216
100
AcDbDictionary
280
     1
281
     1
  3
ACAD_MTEXT_RT
360
25D
  0
DICTIONARY
  5
25E
330
217
100
AcDbDictionary
280
     1
281
     1
  3
ACAD_MTEXT_RT
360
25F
  0
DICTIONARY
  5
260
330
218
100
AcDbDictionary
280
     1
281
     1
  3
ACAD_MTEXT_RT
360
261
  0
DICTIONARY
  5
262
330
219
100
AcDbDictionary
280
     1
281
     1
  3
ACAD_MTEXT_RT
360
263
  0
DICTIONARY
  5
264
330
21A
100
AcDbDictionary
280
     1
281
     1
  3
ACAD_MTEXT_RT
360
265
  0
DICTIONARY
  5
266
330
21B
100
AcDbDictionary
280
     1
281
     1
  3
ACAD_MTEXT_RT
360
267
  0
DICTIONARY
  5
268
330
21C
100
AcDbDictionary
280
     1
281
     1
  3
ACAD_MTEXT_RT
360
269
  0
DICTIONARY
  5
26A
330
21D
100
AcDbDictionary
280
     1
281
     1
  3
ACAD_MTEXT_RT
360
26B
  0
DICTIONARY
  5
26C
330
21E
100
AcDbDictionary
280
     1
281
     1
  3
ACAD_MTEXT_RT
360
26D
  0
DICTIONARY
  5
26E
330
21F
100
AcDbDictionary
280
     1
281
     1
  3
ACAD_MTEXT_RT
360
26F
  0
DICTIONARY
  5
270
330
220
100
AcDbDictionary
280
     1
281
     1
  3
ACAD_MTEXT_RT
360
271
  0
DICTIONARY
  5
272
330
221
100
AcDbDictionary
280
     1
281
     1
  3
ACAD_MTEXT_RT
360
273
  0
DICTIONARY
  5
274
330
222
100
AcDbDictionary
280
     1
281
     1
  3
ACAD_MTEXT_RT
360
275
  0
DICTIONARY
  5
276
330
223
100
AcDbDictionary
280
     1
281
     1
  3
ACAD_MTEXT_RT
360
277
  0
DICTIONARY
  5
278
330
224
100
AcDbDictionary
280
     1
281
     1
  3
ACAD_MTEXT_RT
360
279
  0
DICTIONARY
  5
27A
330
225
100
AcDbDictionary
280
     1
281
     1
  3
ACAD_MTEXT_RT
360
27B
  0
DICTIONARY
  5
27C
330
226
100
AcDbDictionary
280
     1
281
     1
  3
ACAD_MTEXT_RT
360
27D
  0
DICTIONARY
  5
27E
330
227
100
AcDbDictionary
280
     1
281
     1
  3
ACAD_MTEXT_RT
360
27F
  0
DICTIONARY
  5
280
330
228
100
AcDbDictionary
280
     1
281
     1
  3
ACAD_MTEXT_RT
360
281
  0
DICTIONARY
  5
282
330
229
100
AcDbDictionary
280
     1
281
     1
  3
ACAD_MTEXT_RT
360
283
  0
DICTIONARY
  5
284
330
22A
100
AcDbDictionary
280
     1
281
     1
  3
ACAD_MTEXT_RT
360
285
  0
DICTIONARY
  5
286
330
22F
100
AcDbDictionary
280
     1
281
     1
  3
ACAD_MTEXT_RT
360
287
  0
DICTIONARY
  5
288
330
234
100
AcDbDictionary
280
     1
281
     1
  3
ACAD_MTEXT_RT
360
289
  0
DICTIONARY
  5
28A
330
239
100
AcDbDictionary
280
     1
281
     1
  3
ACAD_MTEXT_RT
360
28B
  0
DICTIONARY
  5
28C
330
23A
100
AcDbDictionary
280
     1
281
     1
  3
ACAD_MTEXT_RT
360
28D
  0
DICTIONARY
  5
28E
330
23B
100
AcDbDictionary
280
     1
281
     1
  3
ACAD_MTEXT_RT
360
28F
  0
DICTIONARY
  5
290
330
23C
100
AcDbDictionary
280
     1
281
     1
  3
ACAD_MTEXT_RT
360
291
  0
DICTIONARY
  5
292
330
23D
100
AcDbDictionary
280
     1
281
     1
  3
ACAD_MTEXT_RT
360
293
  0
DICTIONARY
  5
294
330
23E
100
AcDbDictionary
280
     1
281
     1
  3
ACAD_MTEXT_RT
360
295
  0
DICTIONARY
  5
296
330
23F
100
AcDbDictionary
280
     1
281
     1
  3
ACAD_MTEXT_RT
360
297
  0
DICTIONARY
  5
298
330
241
100
AcDbDictionary
280
     1
281
     1
  3
ACAD_MTEXT_RT
360
299
  0
DICTIONARY
  5
25A
330
6E
100
AcDbDictionary
280
     1
281
     1
  3
ACAD_XREC_ROUNDTRIP
360
25B
  0
DICTIONARY
  5
249
330
248
100
AcDbDictionary
280
     1
281
     1
  3
ACAD_FILTER
360
24A
  0
DICTIONARY
  5
D
102
{ACAD_REACTORS
330
C
102
}
330
C
100
AcDbDictionary
281
     1
  0
DICTIONARY
  5
1A
102
{ACAD_REACTORS
330
C
102
}
330
C
100
AcDbDictionary
281
     1
  3
02.22 26. Detail E.5
350
1E
  3
Model
350
22
  0
DICTIONARY
  5
43
102
{ACAD_REACTORS
330
C
102
}
330
C
100
AcDbDictionary
281
     1
  3
ByBlock
350
45
  3
ByLayer
350
44
  3
Global
350
46
  0
DICTIONARY
  5
6B
102
{ACAD_REACTORS
330
C
102
}
330
C
100
AcDbDictionary
281
     1
  3
Standard
350
6C
  0
DICTIONARY
  5
17
102
{ACAD_REACTORS
330
C
102
}
330
C
100
AcDbDictionary
281
     1
  3
Standard
350
18
  0
DICTIONARY
  5
19
102
{ACAD_REACTORS
330
C
102
}
330
C
100
AcDbDictionary
281
     1
  0
ACDBDICTIONARYWDFLT
  5
E
102
{ACAD_REACTORS
330
C
102
}
330
C
100
AcDbDictionary
281
     1
  3
Normal
350
F
100
AcDbDictionaryWithDefault
340
F
  0
DICTIONARY
  5
47
102
{ACAD_REACTORS
330
C
102
}
330
C
100
AcDbDictionary
281
     1
  3
A0
350
48
  3
A1
350
49
  3
A2
350
4A
  3
A3
350
4B
  3
A4
350
4C
  3
A5
350
4D
  3
A6
350
4E
  3
A7
350
4F
  3
A8
350
50
  3
A9
350
51
  3
B0
350
52
  3
B1
350
53
  3
B2
350
54
  3
B3
350
55
  3
B4
350
56
  3
B5
350
57
  3
B6
350
58
  3
B7
350
59
  3
B8
350
5A
  3
B9
350
5B
  3
C0
350
5C
  3
C1
350
5D
  3
C2
350
5E
  3
C3
350
5F
  3
C4
350
60
  3
C5
350
61
  3
C6
350
62
  3
C7
350
63
  3
C8
350
64
  3
C9
350
65
  3
D0
350
66
  3
D1
350
67
  3
D2
350
68
  0
DICTIONARY
  5
69
102
{ACAD_REACTORS
330
C
102
}
330
C
100
AcDbDictionary
281
     1
  3
Standard
350
6A
  0
DICTIONARY
  5
2A
102
{ACAD_REACTORS
330
C
102
}
330
C
100
AcDbDictionary
281
     1
  3
2dWireframe
350
2F
  3
Basic
350
32
  3
Brighten
350
36
  3
ColorChange
350
3A
  3
Conceptual
350
34
  3
Dim
350
35
  3
EdgeColorOff
350
3D
  3
Facepattern
350
39
  3
Flat
350
2B
  3
FlatWithEdges
350
2C
  3
Gouraud
350
2D
  3
GouraudWithEdges
350
2E
  3
Hidden
350
31
  3
JitterOff
350
3B
  3
Linepattern
350
38
  3
OverhangOff
350
3C
  3
Realistic
350
33
  3
Shaded
350
42
  3
Shaded with edges
350
41
  3
Shades of Gray
350
3E
  3
Sketchy
350
3F
  3
Thicken
350
37
  3
Wireframe
350
30
  3
X-Ray
350
40
  0
DICTIONARY
  5
252
102
{ACAD_REACTORS
330
C
102
}
330
C
100
AcDbDictionary
281
     1
  3
CANNOSCALE
350
29C
  3
CMLEADERSTYLE
350
254
  3
CTABLESTYLE
350
253
  3
DIMASSOC
350
258
  3
HIDETEXT
350
259
  3
MSLTSCALE
350
29D
  3
XCLIPFRAME
350
255
  0
XRECORD
  5
2D7
102
{ACAD_REACTORS
330
C
102
}
330
C
100
AcDbXrecord
280
     1
 90
        1
330
217
330
218
330
216
330
219
330
21A
330
21B
330
21C
330
21D
330
223
330
21E
330
220
330
21F
330
22A
330
221
330
222
330
224
330
225
330
226
330
227
330
228
330
229
330
22F
330
234
330
239
330
23A
330
23E
330
23B
330
23C
330
241
330
23D
330
23F
  0
DICTIONARY
  5
250
102
{ACAD_REACTORS
330
C
102
}
330
C
100
AcDbDictionary
281
     1
  3
AC_WATERMARK
350
251
  0
XRECORD
  5
29B
102
{ACAD_REACTORS
330
29A
102
}
330
29A
100
AcDbXrecord
280
     1
102
VTR_0.000_0.000_1.000_1.000_VISUALSTYLE
340
2F
102
VTR_0.000_0.000_1.000_1.000_GRIDDISPLAY
 70
     3
102
VTR_0.000_0.000_1.000_1.000_GRIDMAJOR
 70
     5
102
VTR_0.000_0.000_1.000_1.000_DEFAULTLIGHTING
280
     1
102
VTR_0.000_0.000_1.000_1.000_DEFAULTLIGHTINGTYPE
 70
     1
102
VTR_0.000_0.000_1.000_1.000_BRIGHTNESS
141
0.0
102
VTR_0.000_0.000_1.000_1.000_CONTRAST
142
0.0
  0
XRECORD
  5
25D
102
{ACAD_REACTORS
330
25C
102
}
330
25C
100
AcDbXrecord
280
     1
 40
2658.0
  1
\A1;{\pql;\fArial|b0|i0|c0|p34;15}
  0
XRECORD
  5
25F
102
{ACAD_REACTORS
330
25E
102
}
330
25E
100
AcDbXrecord
280
     1
 40
7931.0
  1
\A1;{\pql;\fArial|b0|i0|c0|p34;1\U+22127}
  0
XRECORD
  5
261
102
{ACAD_REACTORS
330
260
102
}
330
260
100
AcDbXrecord
280
     1
 40
2204.0
  1
\A1;{\pql;\fArial|b0|i0|c0|p34;8}
  0
XRECORD
  5
263
102
{ACAD_REACTORS
330
262
102
}
330
262
100
AcDbXrecord
280
     1
 40
2210.0
  1
\A1;{\pql;\fArial|b0|i0|c0|p34;9}
  0
XRECORD
  5
265
102
{ACAD_REACTORS
330
264
102
}
330
264
100
AcDbXrecord
280
     1
 40
2679.0
  1
\A1;{\pql;\fArial|b0|i0|c0|p34;18}
  0
XRECORD
  5
267
102
{ACAD_REACTORS
330
266
102
}
330
266
100
AcDbXrecord
280
     1
 40
12014.0
  1
\A1;{\pql;\fArial|b0|i0|c0|p34;mind. 12 cm}
  0
XRECORD
  5
269
102
{ACAD_REACTORS
330
268
102
}
330
268
100
AcDbXrecord
280
     1
 40
2679.0
  1
\A1;{\pql;\fArial|b0|i0|c0|p34;18}
  0
XRECORD
  5
26B
102
{ACAD_REACTORS
330
26A
102
}
330
26A
100
AcDbXrecord
280
     1
 40
62606.0
  1
\A1;{\pql;\fArial|b0|i0|c0|p34;RÖFIX gedämmter Blechsockel XPS}
  0
XRECORD
  5
26D
102
{ACAD_REACTORS
330
26C
102
}
330
26C
100
AcDbXrecord
280
     1
 40
2658.0
  1
\A1;{\pql;\fArial|b0|i0|c0|p34;15}
  0
XRECORD
  5
26F
102
{ACAD_REACTORS
330
26E
102
}
330
26E
100
AcDbXrecord
280
     1
 40
61762.0
  1
\A1;{\pql;\fArial|b0|i0|c0|p34;Bauwerksabdichtung (bauseits)}
  0
XRECORD
  5
271
102
{ACAD_REACTORS
330
270
102
}
330
270
100
AcDbXrecord
280
     1
 40
87032.0
  1
\A1;{\pql;\fArial|b0|i0|c0|p34;Verdeckte Kittfuge mit Trennschnitt}
  0
XRECORD
  5
273
102
{ACAD_REACTORS
330
272
102
}
330
272
100
AcDbXrecord
280
     1
 40
12161.0
  1
\A1;{\pql;\fArial|b0|i0|c0|p34;nach SIA 243}
  0
XRECORD
  5
275
102
{ACAD_REACTORS
330
274
102
}
330
274
100
AcDbXrecord
280
     1
 40
2678.0
  1
\A1;{\pql;\fArial|b0|i0|c0|p34;27}
  0
XRECORD
  5
277
102
{ACAD_REACTORS
330
276
102
}
330
276
100
AcDbXrecord
280
     1
 40
2168.0
  1
\A1;{\pql;\fArial|b0|i0|c0|p34;2}
  0
XRECORD
  5
279
102
{ACAD_REACTORS
330
278
102
}
330
278
100
AcDbXrecord
280
     1
 40
2174.0
  1
\A1;{\pql;\fArial|b0|i0|c0|p34;3}
  0
XRECORD
  5
27B
102
{ACAD_REACTORS
330
27A
102
}
330
27A
100
AcDbXrecord
280
     1
 40
2180.0
  1
\A1;{\pql;\fArial|b0|i0|c0|p34;4}
  0
XRECORD
  5
27D
102
{ACAD_REACTORS
330
27C
102
}
330
27C
100
AcDbXrecord
280
     1
 40
2186.0
  1
\A1;{\pql;\fArial|b0|i0|c0|p34;5}
  0
XRECORD
  5
27F
102
{ACAD_REACTORS
330
27E
102
}
330
27E
100
AcDbXrecord
280
     1
 40
2192.0
  1
\A1;{\pql;\fArial|b0|i0|c0|p34;6}
  0
XRECORD
  5
281
102
{ACAD_REACTORS
330
280
102
}
330
280
100
AcDbXrecord
280
     1
 40
2198.0
  1
\A1;{\pql;\fArial|b0|i0|c0|p34;7}
  0
XRECORD
  5
283
102
{ACAD_REACTORS
330
282
102
}
330
282
100
AcDbXrecord
280
     1
 40
2162.0
  1
\A1;{\pql;\fArial|b0|i0|c0|p34;1}
  0
XRECORD
  5
285
102
{ACAD_REACTORS
330
284
102
}
330
284
100
AcDbXrecord
280
     1
 40
2204.0
  1
\A1;{\pql;\fArial|b0|i0|c0|p34;8}
  0
XRECORD
  5
287
102
{ACAD_REACTORS
330
286
102
}
330
286
100
AcDbXrecord
280
     1
 40
36959.0
  1
\A1;{\W0.933831x;\pql;\Ftxt.shx;Datum 08.04.2020}
  0
XRECORD
  5
289
102
{ACAD_REACTORS
330
288
102
}
330
288
100
AcDbXrecord
280
     1
 40
102153.0
  1
\A1;{\W0.933831x;\pql;\Ftxt.shx;E. \Ftxt.shx;Sitzplatz, Balkon, Terrasse}
  0
XRECORD
  5
28B
102
{ACAD_REACTORS
330
28A
102
}
330
28A
100
AcDbXrecord
280
     1
 40
1208434.0
  1
\A1;{\W0.933831x;\pql;\Ftxt.shx;E.5 ^I \Ftxt.shx;\H1.000037x;Anschluss beim Sockel mit gedämmtem Blechsockel}
  0
XRECORD
  5
28D
102
{ACAD_REACTORS
330
28C
102
}
330
28C
100
AcDbXrecord
280
     1
 40
2210.0
  1
\A1;{\pql;\fArial|b0|i0|c0|p34;9}
  0
XRECORD
  5
28F
102
{ACAD_REACTORS
330
28E
102
}
330
28E
100
AcDbXrecord
280
     1
 40
2678.0
  1
\A1;{\pql;\fArial|b0|i0|c0|p34;27}
  0
XRECORD
  5
291
102
{ACAD_REACTORS
330
290
102
}
330
290
100
AcDbXrecord
280
     1
 40
28920.0
  1
\A1;{\pql;\fArial|b0|i0|c0|p34;RÖFIX Systemaufbau}
  0
XRECORD
  5
293
102
{ACAD_REACTORS
330
292
102
}
330
292
100
AcDbXrecord
280
     1
 40
20628.0
  1
\A1;{\pql;\fArial|b0|i0|c0|p34;Gefälle mind.1.5%}
  0
XRECORD
  5
295
102
{ACAD_REACTORS
330
294
102
}
330
294
100
AcDbXrecord
280
     1
 40
46424.0
  1
\A1;{\pql;\fArial|b0|i0|c0|p34;Kleben mit RÖFIX Collstar, }
  0
XRECORD
  5
297
102
{ACAD_REACTORS
330
296
102
}
330
296
100
AcDbXrecord
280
     1
 40
107511.0
  1
\A1;{\pql;\fArial|b0|i0|c0|p34;RÖFIX Optiflex\Ftxt.shx;\A1{\H.66x;\S®^  ;}}
  0
XRECORD
  5
299
102
{ACAD_REACTORS
330
298
102
}
330
298
100
AcDbXrecord
280
     1
 40
29681.0
  1
\A1;{\pql;\fArial|b0|i0|c0|p34;RÖFIX Dämmstoffdübel}
  0
XRECORD
  5
25B
102
{ACAD_REACTORS
330
25A
102
}
330
25A
100
AcDbXrecord
280
     1
102
VISUALSTYLE
340
2F
102
GRIDDISPLAY
 70
     2
102
GRIDMAJOR
 70
     5
102
DEFAULTLIGHTING
280
     1
102
DEFAULTLIGHTINGTYPE
 70
     1
102
BRIGHTNESS
141
0.0
102
CONTRAST
142
0.0
  0
DICTIONARY
  5
24A
102
{ACAD_REACTORS
330
249
102
}
330
249
100
AcDbDictionary
280
     1
281
     1
  3
SPATIAL
360
24B
  0
LAYOUT
  5
1E
102
{ACAD_REACTORS
330
1A
102
}
330
1A
100
AcDbPlotSettings
  1

  2
none_device
  4

  6

 40
0.0
 41
0.0
 42
0.0
 43
0.0
 44
210.0
 45
297.0
 46
0.0
 47
0.0
 48
0.0
 49
0.0
140
0.0
141
0.0
142
1.0
143
1.0
 70
   688
 72
     1
 73
     0
 74
     5
  7

 75
    16
147
1.0
148
0.0
149
0.0
100
AcDbLayout
  1
02.22 26. Detail E.5
 70
     0
 71
     1
 10
0.0
 20
0.0
 11
12.0
 21
9.0
 12
0.0
 22
0.0
 32
0.0
 14
1.000000000000000E+20
 24
1.000000000000000E+20
 34
1.000000000000000E+20
 15
-1.000000000000000E+20
 25
-1.000000000000000E+20
 35
-1.000000000000000E+20
146
0.0
 13
0.0
 23
0.0
 33
0.0
 16
1.0
 26
0.0
 36
0.0
 17
0.0
 27
1.0
 37
0.0
 76
     0
330
1B
331
6E
  0
LAYOUT
  5
22
102
{ACAD_REACTORS
330
1A
102
}
330
1A
100
AcDbPlotSettings
  1

  2
none_device
  4
Letter_(8.50_x_11.00_Inches)
  6

 40
6.35
 41
6.35
 42
6.35000508
 43
6.35000508
 44
215.9
 45
279.4
 46
0.0
 47
0.0
 48
0.0
 49
0.0
140
0.0
141
0.0
142
1.0
143
1.0
 70
  1712
 72
     0
 73
     0
 74
     0
  7

 75
     0
147
1.0
148
0.0
149
0.0
100
AcDbLayout
  1
Model
 70
     1
 71
     0
 10
0.0
 20
0.0
 11
12.0
 21
9.0
 12
0.0
 22
0.0
 32
0.0
 14
1.000000000000000E+20
 24
1.000000000000000E+20
 34
1.000000000000000E+20
 15
-1.000000000000000E+20
 25
-1.000000000000000E+20
 35
-1.000000000000000E+20
146
0.0
 13
0.0
 23
0.0
 33
0.0
 16
1.0
 26
0.0
 36
0.0
 17
0.0
 27
1.0
 37
0.0
 76
     0
330
1F
331
29
  0
MATERIAL
  5
45
102
{ACAD_REACTORS
330
43
102
}
102
{ACAD_XDICTIONARY
360
2D0
102
}
330
43
100
AcDbMaterial
  1
ByBlock
  0
MATERIAL
  5
44
102
{ACAD_REACTORS
330
43
102
}
102
{ACAD_XDICTIONARY
360
2CE
102
}
330
43
100
AcDbMaterial
  1
ByLayer
  0
MATERIAL
  5
46
102
{ACAD_REACTORS
330
43
102
}
102
{ACAD_XDICTIONARY
360
2D2
102
}
330
43
100
AcDbMaterial
  1
Global
  0
MLEADERSTYLE
  5
6C
102
{ACAD_REACTORS
330
6B
102
}
102
{ACAD_XDICTIONARY
360
2D5
102
}
330
6B
100
AcDbMLeaderStyle
170
     2
171
     1
172
     0
 90
        2
 40
0.0
 41
0.0
173
     1
 91
-1056964608
340
14
 92
       -2
290
     1
 42
0.09
291
     1
 43
0.36
  3
Standard
341
0
 44
0.18
300

342
11
174
     1
178
     6
175
     1
176
     0
 93
-1056964608
 45
0.18
292
     0
297
     0
 46
0.18
343
0
 94
-1056964608
 47
1.0
 49
1.0
140
1.0
293
     1
141
0.0
294
     1
177
     0
142
1.0
295
     0
296
     0
143
0.125
1001
ACAD_MLEADERVER
1070
     2
  0
MLINESTYLE
  5
18
102
{ACAD_REACTORS
330
17
102
}
330
17
100
AcDbMlineStyle
  2
Standard
 70
     0
  3

 62
   256
 51
90.0
 52
90.0
 71
     2
 49
0.5
 62
   256
  6
BYLAYER
 49
-0.5
 62
   256
  6
BYLAYER
  0
ACDBPLACEHOLDER
  5
F
102
{ACAD_REACTORS
330
E
102
}
330
E
  0
SCALE
  5
48
102
{ACAD_REACTORS
330
47
102
}
330
47
100
AcDbScale
 70
     0
300
1:1
140
1.0
141
1.0
290
     1
  0
SCALE
  5
49
102
{ACAD_REACTORS
330
47
102
}
330
47
100
AcDbScale
 70
     0
300
1:2
140
1.0
141
2.0
290
     0
  0
SCALE
  5
4A
102
{ACAD_REACTORS
330
47
102
}
330
47
100
AcDbScale
 70
     0
300
1:4
140
1.0
141
4.0
290
     0
  0
SCALE
  5
4B
102
{ACAD_REACTORS
330
47
102
}
330
47
100
AcDbScale
 70
     0
300
1:5
140
1.0
141
5.0
290
     0
  0
SCALE
  5
4C
102
{ACAD_REACTORS
330
47
102
}
330
47
100
AcDbScale
 70
     0
300
1:8
140
1.0
141
8.0
290
     0
  0
SCALE
  5
4D
102
{ACAD_REACTORS
330
47
102
}
330
47
100
AcDbScale
 70
     0
300
1:10
140
1.0
141
10.0
290
     0
  0
SCALE
  5
4E
102
{ACAD_REACTORS
330
47
102
}
330
47
100
AcDbScale
 70
     0
300
1:16
140
1.0
141
16.0
290
     0
  0
SCALE
  5
4F
102
{ACAD_REACTORS
330
47
102
}
330
47
100
AcDbScale
 70
     0
300
1:20
140
1.0
141
20.0
290
     0
  0
SCALE
  5
50
102
{ACAD_REACTORS
330
47
102
}
330
47
100
AcDbScale
 70
     0
300
1:30
140
1.0
141
30.0
290
     0
  0
SCALE
  5
51
102
{ACAD_REACTORS
330
47
102
}
330
47
100
AcDbScale
 70
     0
300
1:40
140
1.0
141
40.0
290
     0
  0
SCALE
  5
52
102
{ACAD_REACTORS
330
47
102
}
330
47
100
AcDbScale
 70
     0
300
1:50
140
1.0
141
50.0
290
     0
  0
SCALE
  5
53
102
{ACAD_REACTORS
330
47
102
}
330
47
100
AcDbScale
 70
     0
300
1:100
140
1.0
141
100.0
290
     0
  0
SCALE
  5
54
102
{ACAD_REACTORS
330
47
102
}
330
47
100
AcDbScale
 70
     0
300
2:1
140
2.0
141
1.0
290
     0
  0
SCALE
  5
55
102
{ACAD_REACTORS
330
47
102
}
330
47
100
AcDbScale
 70
     0
300
4:1
140
4.0
141
1.0
290
     0
  0
SCALE
  5
56
102
{ACAD_REACTORS
330
47
102
}
330
47
100
AcDbScale
 70
     0
300
8:1
140
8.0
141
1.0
290
     0
  0
SCALE
  5
57
102
{ACAD_REACTORS
330
47
102
}
330
47
100
AcDbScale
 70
     0
300
10:1
140
10.0
141
1.0
290
     0
  0
SCALE
  5
58
102
{ACAD_REACTORS
330
47
102
}
330
47
100
AcDbScale
 70
     0
300
100:1
140
100.0
141
1.0
290
     0
  0
SCALE
  5
59
102
{ACAD_REACTORS
330
47
102
}
330
47
100
AcDbScale
 70
     0
300
1/128" = 1'-0"
140
0.0078125
141
12.0
290
     0
  0
SCALE
  5
5A
102
{ACAD_REACTORS
330
47
102
}
330
47
100
AcDbScale
 70
     0
300
1/64" = 1'-0"
140
0.015625
141
12.0
290
     0
  0
SCALE
  5
5B
102
{ACAD_REACTORS
330
47
102
}
330
47
100
AcDbScale
 70
     0
300
1/32" = 1'-0"
140
0.03125
141
12.0
290
     0
  0
SCALE
  5
5C
102
{ACAD_REACTORS
330
47
102
}
330
47
100
AcDbScale
 70
     0
300
1/16" = 1'-0"
140
0.0625
141
12.0
290
     0
  0
SCALE
  5
5D
102
{ACAD_REACTORS
330
47
102
}
330
47
100
AcDbScale
 70
     0
300
3/32" = 1'-0"
140
0.09375
141
12.0
290
     0
  0
SCALE
  5
5E
102
{ACAD_REACTORS
330
47
102
}
330
47
100
AcDbScale
 70
     0
300
1/8" = 1'-0"
140
0.125
141
12.0
290
     0
  0
SCALE
  5
5F
102
{ACAD_REACTORS
330
47
102
}
330
47
100
AcDbScale
 70
     0
300
3/16" = 1'-0"
140
0.1875
141
12.0
290
     0
  0
SCALE
  5
60
102
{ACAD_REACTORS
330
47
102
}
330
47
100
AcDbScale
 70
     0
300
1/4" = 1'-0"
140
0.25
141
12.0
290
     0
  0
SCALE
  5
61
102
{ACAD_REACTORS
330
47
102
}
330
47
100
AcDbScale
 70
     0
300
3/8" = 1'-0"
140
0.375
141
12.0
290
     0
  0
SCALE
  5
62
102
{ACAD_REACTORS
330
47
102
}
330
47
100
AcDbScale
 70
     0
300
1/2" = 1'-0"
140
0.5
141
12.0
290
     0
  0
SCALE
  5
63
102
{ACAD_REACTORS
330
47
102
}
330
47
100
AcDbScale
 70
     0
300
3/4" = 1'-0"
140
0.75
141
12.0
290
     0
  0
SCALE
  5
64
102
{ACAD_REACTORS
330
47
102
}
330
47
100
AcDbScale
 70
     0
300
1" = 1'-0"
140
1.0
141
12.0
290
     0
  0
SCALE
  5
65
102
{ACAD_REACTORS
330
47
102
}
330
47
100
AcDbScale
 70
     0
300
1-1/2" = 1'-0"
140
1.5
141
12.0
290
     0
  0
SCALE
  5
66
102
{ACAD_REACTORS
330
47
102
}
330
47
100
AcDbScale
 70
     0
300
3" = 1'-0"
140
3.0
141
12.0
290
     0
  0
SCALE
  5
67
102
{ACAD_REACTORS
330
47
102
}
330
47
100
AcDbScale
 70
     0
300
6" = 1'-0"
140
6.0
141
12.0
290
     0
  0
SCALE
  5
68
102
{ACAD_REACTORS
330
47
102
}
330
47
100
AcDbScale
 70
     0
300
1'-0" = 1'-0"
140
12.0
141
12.0
290
     0
  0
TABLESTYLE
  5
6A
102
{ACAD_REACTORS
330
69
102
}
330
69
100
AcDbTableStyle
  3
Standard
 70
     0
 71
     0
 40
0.06
 41
0.06
280
     0
281
     0
  7
Standard
140
0.18
170
     2
 62
     0
 63
   257
283
     0
274
    -2
284
     1
 64
     0
275
    -2
285
     1
 65
     0
276
    -2
286
     1
 66
     0
277
    -2
287
     1
 67
     0
278
    -2
288
     1
 68
     0
279
    -2
289
     1
 69
     0
  7
Standard
140
0.25
170
     5
 62
     0
 63
   257
283
     0
274
    -2
284
     1
 64
     0
275
    -2
285
     1
 65
     0
276
    -2
286
     1
 66
     0
277
    -2
287
     1
 67
     0
278
    -2
288
     1
 68
     0
279
    -2
289
     1
 69
     0
  7
Standard
140
0.18
170
     5
 62
     0
 63
   257
283
     0
274
    -2
284
     1
 64
     0
275
    -2
285
     1
 65
     0
276
    -2
286
     1
 66
     0
277
    -2
287
     1
 67
     0
278
    -2
288
     1
 68
     0
279
    -2
289
     1
 69
     0
  0
VISUALSTYLE
  5
2F
102
{ACAD_REACTORS
330
2A
102
}
102
{ACAD_XDICTIONARY
360
2A6
102
}
330
2A
100
AcDbVisualStyle
  2
2dWireframe
 70
     4
 71
     0
 72
     2
 73
     0
 90
        0
 40
0.6
 41
30.0
 62
     5
 63
     7
 74
     1
 91
        4
 64
     7
 65
   257
 75
     1
175
     1
 42
1.0
 92
        0
 66
   257
 43
1.0
 76
     1
 77
     6
 78
     2
 67
     7
 79
     5
170
     0
171
     0
290
     0
174
     0
 93
        1
 44
0.0
173
     0
291
     0
 45
0.0
1001
ACAD
1000
AcDbSavedByObjectVersion
1070
     0
  0
VISUALSTYLE
  5
32
102
{ACAD_REACTORS
330
2A
102
}
102
{ACAD_XDICTIONARY
360
2AC
102
}
330
2A
100
AcDbVisualStyle
  2
Basic
 70
     7
 71
     1
 72
     0
 73
     1
 90
        0
 40
0.6
 41
30.0
 62
     5
 63
     7
 74
     0
 91
        4
 64
     7
 65
   257
 75
     1
175
     1
 42
1.0
 92
        8
 66
     7
 43
1.0
 76
     1
 77
     6
 78
     2
 67
     7
 79
     5
170
     0
171
     0
290
     0
174
     0
 93
        1
 44
0.0
173
     0
291
     1
 45
0.0
1001
ACAD
1000
AcDbSavedByObjectVersion
1070
     0
  0
VISUALSTYLE
  5
36
102
{ACAD_REACTORS
330
2A
102
}
102
{ACAD_XDICTIONARY
360
2B4
102
}
330
2A
100
AcDbVisualStyle
  2
Brighten
 70
    12
 71
     2
 72
     2
 73
     0
 90
        0
 40
0.6
 41
30.0
 62
     5
 63
     7
 74
     1
 91
        4
 64
     7
 65
   257
 75
     1
175
     1
 42
1.0
 92
        8
 66
     7
 43
1.0
 76
     1
 77
     6
 78
     2
 67
     7
 79
     5
170
     0
171
     0
290
     0
174
     0
 93
        1
 44
50.0
173
     0
291
     1
 45
0.0
1001
ACAD
1000
AcDbSavedByObjectVersion
1070
     0
  0
VISUALSTYLE
  5
3A
102
{ACAD_REACTORS
330
2A
102
}
102
{ACAD_XDICTIONARY
360
2BC
102
}
330
2A
100
AcDbVisualStyle
  2
ColorChange
 70
    16
 71
     2
 72
     2
 73
     3
 90
        0
 40
0.6
 41
30.0
 62
     5
 63
     8
 74
     1
 91
        4
 64
     7
 65
   257
 75
     1
175
     1
 42
1.0
 92
        8
 66
     8
 43
1.0
 76
     1
 77
     6
 78
     2
 67
     7
 79
     5
170
     0
171
     0
290
     0
174
     0
 93
        1
 44
0.0
173
     0
291
     1
 45
0.0
1001
ACAD
1000
AcDbSavedByObjectVersion
1070
     0
  0
VISUALSTYLE
  5
34
102
{ACAD_REACTORS
330
2A
102
}
102
{ACAD_XDICTIONARY
360
2B0
102
}
330
2A
100
AcDbVisualStyle
  2
Conceptual
 70
     9
 71
     3
 72
     2
 73
     0
 90
        0
 40
0.6
 41
30.0
 62
     5
 63
     7
 74
     2
 91
        2
 64
     7
 65
   257
 75
     1
175
     1
 42
179.0
 92
        8
 66
     7
 43
1.0
 76
     1
 77
     6
 78
     2
 67
     7
 79
     3
170
     0
171
     0
290
     0
174
     0
 93
        1
 44
0.0
173
     0
291
     0
 45
0.0
1001
ACAD
1000
AcDbSavedByObjectVersion
1070
     0
  0
VISUALSTYLE
  5
35
102
{ACAD_REACTORS
330
2A
102
}
102
{ACAD_XDICTIONARY
360
2B2
102
}
330
2A
100
AcDbVisualStyle
  2
Dim
 70
    11
 71
     2
 72
     2
 73
     0
 90
        0
 40
0.6
 41
30.0
 62
     5
 63
     7
 74
     1
 91
        4
 64
     7
 65
   257
 75
     1
175
     1
 42
1.0
 92
        8
 66
     7
 43
1.0
 76
     1
 77
     6
 78
     2
 67
     7
 79
     5
170
     0
171
     0
290
     0
174
     0
 93
        1
 44
-50.0
173
     0
291
     1
 45
0.0
1001
ACAD
1000
AcDbSavedByObjectVersion
1070
     0
  0
VISUALSTYLE
  5
3D
102
{ACAD_REACTORS
330
2A
102
}
102
{ACAD_XDICTIONARY
360
2C2
102
}
330
2A
100
AcDbVisualStyle
  2
EdgeColorOff
 70
    22
 71
     2
 72
     2
 73
     0
 90
        0
 40
0.6
 41
30.0
 62
     5
 63
     7
 74
     1
 91
        4
 64
     7
 65
   257
 75
     1
175
     1
 42
1.0
 92
        8
 66
     7
 43
1.0
 76
     1
 77
     6
 78
     2
 67
     7
 79
     5
170
     0
171
     0
290
     0
174
     0
 93
        1
 44
0.0
173
     0
291
     1
 45
0.0
1001
ACAD
1000
AcDbSavedByObjectVersion
1070
     0
  0
VISUALSTYLE
  5
39
102
{ACAD_REACTORS
330
2A
102
}
102
{ACAD_XDICTIONARY
360
2BA
102
}
330
2A
100
AcDbVisualStyle
  2
Facepattern
 70
    15
 71
     2
 72
     2
 73
     0
 90
        0
 40
0.6
 41
30.0
 62
     5
 63
     7
 74
     1
 91
        4
 64
     7
 65
   257
 75
     1
175
     1
 42
1.0
 92
        8
 66
     7
 43
1.0
 76
     1
 77
     6
 78
     2
 67
     7
 79
     5
170
     0
171
     0
290
     0
174
     0
 93
        1
 44
0.0
173
     0
291
     1
 45
0.0
1001
ACAD
1000
AcDbSavedByObjectVersion
1070
     0
  0
VISUALSTYLE
  5
2B
102
{ACAD_REACTORS
330
2A
102
}
102
{ACAD_XDICTIONARY
360
29E
102
}
330
2A
100
AcDbVisualStyle
  2
Flat
 70
     0
 71
     2
 72
     1
 73
     1
 90
        2
 40
0.6
 41
30.0
 62
     5
 63
     7
 74
     0
 91
        0
 64
     7
 65
   257
 75
     1
175
     1
 42
1.0
 92
        8
 66
     7
 43
1.0
 76
     1
 77
     6
 78
     2
 67
     7
 79
     5
170
     0
171
     0
290
     0
174
     0
 93
       13
 44
0.0
173
     0
291
     1
 45
0.0
1001
ACAD
1000
AcDbSavedByObjectVersion
1070
     0
  0
VISUALSTYLE
  5
2C
102
{ACAD_REACTORS
330
2A
102
}
102
{ACAD_XDICTIONARY
360
2A0
102
}
330
2A
100
AcDbVisualStyle
  2
FlatWithEdges
 70
     1
 71
     2
 72
     1
 73
     1
 90
        2
 40
0.6
 41
30.0
 62
     5
 63
     7
 74
     1
 91
        0
 64
     7
 65
   257
 75
     1
175
     1
 42
1.0
 92
        0
 66
   257
 43
1.0
 76
     1
 77
     6
 78
     2
 67
     7
 79
     5
170
     0
171
     0
290
     0
174
     0
 93
       13
 44
0.0
173
     0
291
     1
 45
0.0
1001
ACAD
1000
AcDbSavedByObjectVersion
1070
     0
  0
VISUALSTYLE
  5
2D
102
{ACAD_REACTORS
330
2A
102
}
102
{ACAD_XDICTIONARY
360
2A2
102
}
330
2A
100
AcDbVisualStyle
  2
Gouraud
 70
     2
 71
     2
 72
     2
 73
     1
 90
        2
 40
0.6
 41
30.0
 62
     5
 63
     7
 74
     0
 91
        0
 64
     7
 65
   257
 75
     1
175
     1
 42
1.0
 92
        0
 66
     7
 43
1.0
 76
     1
 77
     6
 78
     2
 67
     7
 79
     5
170
     0
171
     0
290
     0
174
     0
 93
       13
 44
0.0
173
     0
291
     1
 45
0.0
1001
ACAD
1000
AcDbSavedByObjectVersion
1070
     0
  0
VISUALSTYLE
  5
2E
102
{ACAD_REACTORS
330
2A
102
}
102
{ACAD_XDICTIONARY
360
2A4
102
}
330
2A
100
AcDbVisualStyle
  2
GouraudWithEdges
 70
     3
 71
     2
 72
     2
 73
     1
 90
        2
 40
0.6
 41
30.0
 62
     5
 63
     7
 74
     1
 91
        0
 64
     7
 65
   257
 75
     1
175
     1
 42
1.0
 92
        0
 66
   257
 43
1.0
 76
     1
 77
     6
 78
     2
 67
     7
 79
     5
170
     0
171
     0
290
     0
174
     0
 93
       13
 44
0.0
173
     0
291
     1
 45
0.0
1001
ACAD
1000
AcDbSavedByObjectVersion
1070
     0
  0
VISUALSTYLE
  5
31
102
{ACAD_REACTORS
330
2A
102
}
102
{ACAD_XDICTIONARY
360
2AA
102
}
330
2A
100
AcDbVisualStyle
  2
Hidden
 70
     6
 71
     1
 72
     2
 73
     2
 90
        0
 40
0.6
 41
30.0
 62
     5
 63
     7
 74
     2
 91
        2
 64
     7
 65
   257
 75
     2
175
     1
 42
40.0
 92
        0
 66
   257
 43
1.0
 76
     1
 77
     6
 78
     2
 67
     7
 79
     3
170
     0
171
     0
290
     0
174
     0
 93
        1
 44
0.0
173
     0
291
     0
 45
0.0
1001
ACAD
1000
AcDbSavedByObjectVersion
1070
     0
  0
VISUALSTYLE
  5
3B
102
{ACAD_REACTORS
330
2A
102
}
102
{ACAD_XDICTIONARY
360
2BE
102
}
330
2A
100
AcDbVisualStyle
  2
JitterOff
 70
    20
 71
     2
 72
     2
 73
     0
 90
        0
 40
0.6
 41
30.0
 62
     5
 63
     7
 74
     1
 91
        4
 64
     7
 65
   257
 75
     1
175
     1
 42
1.0
 92
       10
 66
     7
 43
1.0
 76
     1
 77
     6
 78
     2
 67
     7
 79
     5
170
     0
171
     0
290
     0
174
     0
 93
        1
 44
0.0
173
     0
291
     1
 45
0.0
1001
ACAD
1000
AcDbSavedByObjectVersion
1070
     0
  0
VISUALSTYLE
  5
38
102
{ACAD_REACTORS
330
2A
102
}
102
{ACAD_XDICTIONARY
360
2B8
102
}
330
2A
100
AcDbVisualStyle
  2
Linepattern
 70
    14
 71
     2
 72
     2
 73
     0
 90
        0
 40
0.6
 41
30.0
 62
     5
 63
     7
 74
     1
 91
        4
 64
     7
 65
   257
 75
     7
175
     7
 42
1.0
 92
        8
 66
     7
 43
1.0
 76
     1
 77
     6
 78
     2
 67
     7
 79
     5
170
     0
171
     0
290
     0
174
     0
 93
        1
 44
0.0
173
     0
291
     1
 45
0.0
1001
ACAD
1000
AcDbSavedByObjectVersion
1070
     0
  0
VISUALSTYLE
  5
3C
102
{ACAD_REACTORS
330
2A
102
}
102
{ACAD_XDICTIONARY
360
2C0
102
}
330
2A
100
AcDbVisualStyle
  2
OverhangOff
 70
    21
 71
     2
 72
     2
 73
     0
 90
        0
 40
0.6
 41
30.0
 62
     5
 63
     7
 74
     1
 91
        4
 64
     7
 65
   257
 75
     1
175
     1
 42
1.0
 92
        9
 66
     7
 43
1.0
 76
     1
 77
     6
 78
     2
 67
     7
 79
     5
170
     0
171
     0
290
     0
174
     0
 93
        1
 44
0.0
173
     0
291
     1
 45
0.0
1001
ACAD
1000
AcDbSavedByObjectVersion
1070
     0
  0
VISUALSTYLE
  5
33
102
{ACAD_REACTORS
330
2A
102
}
102
{ACAD_XDICTIONARY
360
2AE
102
}
330
2A
100
AcDbVisualStyle
  2
Realistic
 70
     8
 71
     2
 72
     3
 73
     0
 90
        2
 40
0.6
 41
30.0
 62
     5
 63
     7
 74
     0
 91
        0
 64
     7
 65
   257
 75
     1
175
     1
 42
1.0
 92
        8
 66
   257
 43
1.0
 76
     1
 77
     6
 78
     2
 67
     7
 79
     3
170
     0
171
     0
290
     0
174
     0
 93
       13
 44
0.0
173
     0
291
     0
 45
0.0
1001
ACAD
1000
AcDbSavedByObjectVersion
1070
     0
  0
VISUALSTYLE
  5
42
102
{ACAD_REACTORS
330
2A
102
}
102
{ACAD_XDICTIONARY
360
2CC
102
}
330
2A
100
AcDbVisualStyle
  2
Shaded
 70
    27
 71
     2
 72
     2
 73
     1
 90
        2
 40
0.6
 41
30.0
 62
     5
 63
     7
 74
     0
 91
        4
 64
     7
 65
   257
 75
     1
175
     1
 42
1.0
 92
        8
 66
   257
 43
1.0
 76
     1
 77
     6
 78
     2
 67
     8
 79
     3
170
     0
171
     0
290
     0
174
     0
 93
        5
 44
0.0
173
     0
291
     0
 45
0.0
1001
ACAD
1000
AcDbSavedByObjectVersion
1070
     0
  0
VISUALSTYLE
  5
41
102
{ACAD_REACTORS
330
2A
102
}
102
{ACAD_XDICTIONARY
360
2CA
102
}
330
2A
100
AcDbVisualStyle
  2
Shaded with edges
 70
    26
 71
     2
 72
     2
 73
     1
 90
        2
 40
0.6
 41
30.0
 62
     5
 63
     7
 74
     1
 91
       10
 64
     7
 65
   257
 75
     2
175
     1
 42
1.0
 92
        8
 66
   257
 43
1.0
 76
     1
 77
     6
 78
     2
 67
     7
 79
     3
170
     0
171
     0
290
     0
174
     0
 93
        5
 44
0.0
173
     0
291
     0
 45
0.0
1001
ACAD
1000
AcDbSavedByObjectVersion
1070
     0
  0
VISUALSTYLE
  5
3E
102
{ACAD_REACTORS
330
2A
102
}
102
{ACAD_XDICTIONARY
360
2C4
102
}
330
2A
100
AcDbVisualStyle
  2
Shades of Gray
 70
    23
 71
     2
 72
     2
 73
     3
 90
        0
 40
0.6
 41
30.0
 62
     5
 63
     7
 74
     2
 91
        2
 64
     7
 65
     7
 75
     1
175
     1
 42
40.0
 92
        8
 66
     7
 43
1.0
 76
     1
 77
     6
 78
     2
 67
     7
 79
     3
170
     0
171
     0
290
     0
174
     0
 93
        1
 44
0.0
173
     0
291
     0
 45
0.0
1001
ACAD
1000
AcDbSavedByObjectVersion
1070
     0
  0
VISUALSTYLE
  5
3F
102
{ACAD_REACTORS
330
2A
102
}
102
{ACAD_XDICTIONARY
360
2C6
102
}
330
2A
100
AcDbVisualStyle
  2
Sketchy
 70
    24
 71
     1
 72
     2
 73
     2
 90
        0
 40
0.6
 41
30.0
 62
     5
 63
     7
 74
     2
 91
        2
 64
     7
 65
     7
 75
     1
175
     1
 42
40.0
 92
       11
 66
     7
 43
1.0
 76
     1
 77
     6
 78
     2
 67
     7
 79
     6
170
     0
171
     0
290
     0
174
     0
 93
        1
 44
0.0
173
     0
291
     0
 45
0.0
1001
ACAD
1000
AcDbSavedByObjectVersion
1070
     0
  0
VISUALSTYLE
  5
37
102
{ACAD_REACTORS
330
2A
102
}
102
{ACAD_XDICTIONARY
360
2B6
102
}
330
2A
100
AcDbVisualStyle
  2
Thicken
 70
    13
 71
     2
 72
     2
 73
     0
 90
        0
 40
0.6
 41
30.0
 62
     5
 63
     7
 74
     1
 91
        4
 64
     7
 65
   257
 75
     1
175
     1
 42
1.0
 92
       12
 66
     7
 43
1.0
 76
     1
 77
     6
 78
     2
 67
     7
 79
     5
170
     0
171
     0
290
     0
174
     0
 93
        1
 44
0.0
173
     0
291
     1
 45
0.0
1001
ACAD
1000
AcDbSavedByObjectVersion
1070
     0
  0
VISUALSTYLE
  5
30
102
{ACAD_REACTORS
330
2A
102
}
102
{ACAD_XDICTIONARY
360
2A8
102
}
330
2A
100
AcDbVisualStyle
  2
Wireframe
 70
     5
 71
     0
 72
     2
 73
     0
 90
        0
 40
0.6
 41
30.0
 62
     5
 63
     7
 74
     1
 91
        4
 64
     7
 65
   257
 75
     1
175
     1
 42
1.0
 92
        0
 66
   257
 43
1.0
 76
     1
 77
     6
 78
     2
 67
     7
 79
     3
170
     0
171
     0
290
     0
174
     0
 93
        1
 44
0.0
173
     0
291
     0
 45
0.0
1001
ACAD
1000
AcDbSavedByObjectVersion
1070
     0
  0
VISUALSTYLE
  5
40
102
{ACAD_REACTORS
330
2A
102
}
102
{ACAD_XDICTIONARY
360
2C8
102
}
330
2A
100
AcDbVisualStyle
  2
X-Ray
 70
    25
 71
     2
 72
     2
 73
     1
 90
        1
 40
0.5
 41
30.0
 62
     5
 63
     7
 74
     1
 91
        0
 64
     7
 65
   257
 75
     1
175
     1
 42
1.0
 92
        8
 66
     7
 43
1.0
 76
     1
 77
     6
 78
     2
 67
     7
 79
     3
170
     0
171
     0
290
     0
174
     0
 93
       13
 44
0.0
173
     0
291
     0
 45
0.0
1001
ACAD
1000
AcDbSavedByObjectVersion
1070
     0
  0
DICTIONARYVAR
  5
29C
102
{ACAD_REACTORS
330
252
102
}
330
252
100
DictionaryVariables
280
     0
  1
1:1
  0
DICTIONARYVAR
  5
254
102
{ACAD_REACTORS
330
252
102
}
330
252
100
DictionaryVariables
280
     0
  1
Standard
  0
DICTIONARYVAR
  5
253
102
{ACAD_REACTORS
330
252
102
}
330
252
100
DictionaryVariables
280
     0
  1
Standard
  0
DICTIONARYVAR
  5
258
102
{ACAD_REACTORS
330
252
102
}
330
252
100
DictionaryVariables
280
     0
  1
2
  0
DICTIONARYVAR
  5
259
102
{ACAD_REACTORS
330
252
102
}
330
252
100
DictionaryVariables
280
     0
  1
1
  0
DICTIONARYVAR
  5
29D
102
{ACAD_REACTORS
330
252
102
}
330
252
100
DictionaryVariables
280
     0
  1
1
  0
DICTIONARYVAR
  5
255
102
{ACAD_REACTORS
330
252
102
}
330
252
100
DictionaryVariables
280
     0
  1
0
  0
XRECORD
  5
251
102
{ACAD_REACTORS
330
250
102
}
330
250
100
AcDbXrecord
280
     1
1000
Diese DWG-Datei wurde mit ARCHICAD(TM)® erstellt
  0
SPATIAL_FILTER
  5
24B
102
{ACAD_REACTORS
330
24A
102
}
330
24A
100
AcDbFilter
100
AcDbSpatialFilter
 70
     4
 10
0.0
 20
0.0000976562495314
 10
210.0
 20
0.0000976562495314
 10
210.0
 20
296.9999999999999
 10
0.0
 20
296.9999999999999
210
0.0
220
0.0
230
1.0
 11
0.0
 21
0.0
 31
0.0
 71
     1
 72
     0
 73
     0
 40
1.0
 40
0.0
 40
0.0
 40
0.0
 40
0.0
 40
1.0
 40
0.0
 40
0.0
 40
0.0
 40
0.0
 40
1.0
 40
0.0
 40
1.0
 40
0.0
 40
0.0
 40
0.0
 40
0.0
 40
1.0
 40
0.0
 40
0.0
 40
0.0
 40
0.0
 40
1.0
 40
0.0
  0
DICTIONARY
  5
2D0
330
45
100
AcDbDictionary
280
     1
281
     1
  3
ACAD_XREC_ROUNDTRIP
360
2D1
  0
DICTIONARY
  5
2CE
330
44
100
AcDbDictionary
280
     1
281
     1
  3
ACAD_XREC_ROUNDTRIP
360
2CF
  0
DICTIONARY
  5
2D2
330
46
100
AcDbDictionary
280
     1
281
     1
  3
ACAD_XREC_ROUNDTRIP
360
2D3
  0
DICTIONARY
  5
2D5
330
6C
100
AcDbDictionary
280
     1
281
     1
  3
ACAD_XREC_ROUNDTRIP
360
2D6
  0
DICTIONARY
  5
2A6
330
2F
100
AcDbDictionary
280
     1
281
     1
  3
ACAD_XREC_ROUNDTRIP
360
2A7
  0
DICTIONARY
  5
2AC
330
32
100
AcDbDictionary
280
     1
281
     1
  3
ACAD_XREC_ROUNDTRIP
360
2AD
  0
DICTIONARY
  5
2B4
330
36
100
AcDbDictionary
280
     1
281
     1
  3
ACAD_XREC_ROUNDTRIP
360
2B5
  0
DICTIONARY
  5
2BC
330
3A
100
AcDbDictionary
280
     1
281
     1
  3
ACAD_XREC_ROUNDTRIP
360
2BD
  0
DICTIONARY
  5
2B0
330
34
100
AcDbDictionary
280
     1
281
     1
  3
ACAD_XREC_ROUNDTRIP
360
2B1
  0
DICTIONARY
  5
2B2
330
35
100
AcDbDictionary
280
     1
281
     1
  3
ACAD_XREC_ROUNDTRIP
360
2B3
  0
DICTIONARY
  5
2C2
330
3D
100
AcDbDictionary
280
     1
281
     1
  3
ACAD_XREC_ROUNDTRIP
360
2C3
  0
DICTIONARY
  5
2BA
330
39
100
AcDbDictionary
280
     1
281
     1
  3
ACAD_XREC_ROUNDTRIP
360
2BB
  0
DICTIONARY
  5
29E
330
2B
100
AcDbDictionary
280
     1
281
     1
  3
ACAD_XREC_ROUNDTRIP
360
29F
  0
DICTIONARY
  5
2A0
330
2C
100
AcDbDictionary
280
     1
281
     1
  3
ACAD_XREC_ROUNDTRIP
360
2A1
  0
DICTIONARY
  5
2A2
330
2D
100
AcDbDictionary
280
     1
281
     1
  3
ACAD_XREC_ROUNDTRIP
360
2A3
  0
DICTIONARY
  5
2A4
330
2E
100
AcDbDictionary
280
     1
281
     1
  3
ACAD_XREC_ROUNDTRIP
360
2A5
  0
DICTIONARY
  5
2AA
330
31
100
AcDbDictionary
280
     1
281
     1
  3
ACAD_XREC_ROUNDTRIP
360
2AB
  0
DICTIONARY
  5
2BE
330
3B
100
AcDbDictionary
280
     1
281
     1
  3
ACAD_XREC_ROUNDTRIP
360
2BF
  0
DICTIONARY
  5
2B8
330
38
100
AcDbDictionary
280
     1
281
     1
  3
ACAD_XREC_ROUNDTRIP
360
2B9
  0
DICTIONARY
  5
2C0
330
3C
100
AcDbDictionary
280
     1
281
     1
  3
ACAD_XREC_ROUNDTRIP
360
2C1
  0
DICTIONARY
  5
2AE
330
33
100
AcDbDictionary
280
     1
281
     1
  3
ACAD_XREC_ROUNDTRIP
360
2AF
  0
DICTIONARY
  5
2CC
330
42
100
AcDbDictionary
280
     1
281
     1
  3
ACAD_XREC_ROUNDTRIP
360
2CD
  0
DICTIONARY
  5
2CA
330
41
100
AcDbDictionary
280
     1
281
     1
  3
ACAD_XREC_ROUNDTRIP
360
2CB
  0
DICTIONARY
  5
2C4
330
3E
100
AcDbDictionary
280
     1
281
     1
  3
ACAD_XREC_ROUNDTRIP
360
2C5
  0
DICTIONARY
  5
2C6
330
3F
100
AcDbDictionary
280
     1
281
     1
  3
ACAD_XREC_ROUNDTRIP
360
2C7
  0
DICTIONARY
  5
2B6
330
37
100
AcDbDictionary
280
     1
281
     1
  3
ACAD_XREC_ROUNDTRIP
360
2B7
  0
DICTIONARY
  5
2A8
330
30
100
AcDbDictionary
280
     1
281
     1
  3
ACAD_XREC_ROUNDTRIP
360
2A9
  0
DICTIONARY
  5
2C8
330
40
100
AcDbDictionary
280
     1
281
     1
  3
ACAD_XREC_ROUNDTRIP
360
2C9
  0
XRECORD
  5
2D1
102
{ACAD_REACTORS
330
2D0
102
}
330
2D0
100
AcDbXrecord
280
     1
102
MATERIAL
148
0.0
149
0.0
149
0.0
 93
        0
 94
      127
282
     0
 72
     1
 77
     1
171
     1
175
     1
179
     1
273
     0
  0
XRECORD
  5
2CF
102
{ACAD_REACTORS
330
2CE
102
}
330
2CE
100
AcDbXrecord
280
     1
102
MATERIAL
148
0.0
149
0.0
149
0.0
 93
        0
 94
      127
282
     0
 72
     1
 77
     1
171
     1
175
     1
179
     1
273
     0
  0
XRECORD
  5
2D3
102
{ACAD_REACTORS
330
2D2
102
}
330
2D2
100
AcDbXrecord
280
     1
102
MATERIAL
148
0.0
149
0.0
149
0.0
 93
        0
 94
      127
282
     0
 72
     1
 77
     1
171
     1
175
     1
179
     1
273
     0
  0
XRECORD
  5
2D6
102
{ACAD_REACTORS
330
2D5
102
}
330
2D5
100
AcDbXrecord
280
     1
102
ACAD_ROUNDTRIP_2010_MLEADER_STYLE
  0
XRECORD
  5
2A7
102
{ACAD_REACTORS
330
2A6
102
}
330
2A6
100
AcDbXrecord
280
     1
102
RTVSPropertyOp0
 70
     1
102
RTVSPropertyOp1
 70
     1
102
RTVSPropertyOp2
 70
     1
102
RTVSPropertyOp3
 70
     1
102
RTVSPropertyOp4
 70
     1
102
RTVSPropertyOp5
 70
     1
102
RTVSPropertyOp6
 70
     1
102
RTVSPropertyOp7
 70
     1
102
RTVSPropertyOp8
 70
     1
102
RTVSPropertyOp9
 70
     1
102
RTVSPropertyOp10
 70
     1
102
RTVSPropertyOp11
 70
     1
102
RTVSPropertyOp12
 70
     1
102
RTVSPropertyOp13
 70
     1
102
RTVSPropertyOp14
 70
     1
102
RTVSPropertyOp15
 70
     1
102
RTVSPropertyOp16
 70
     1
102
RTVSPropertyOp17
 70
     1
102
RTVSPropertyOp18
 70
     1
102
RTVSPropertyOp19
 70
     1
102
RTVSPropertyOp20
 70
     1
102
RTVSPropertyOp21
 70
     1
102
RTVSPropertyOp22
 70
     1
102
RTVSPropertyOp23
 70
     1
102
RTVSPropertyOp24
 70
     1
102
RTVSPropertyOp25
 70
     1
102
RTVSPropertyOp26
 70
     1
102
RTVSPropertyOp27
 70
     1
102
RTVSPropertyOp28
 70
     1
102
RTVSPropertyOp29
 70
     1
102
RTVSPropertyOp30
 70
     1
102
RTVSPropertyOp31
 70
     1
102
RTVSPropertyOp32
 70
     1
102
RTVSPropertyOp33
 70
     1
102
RTVSPropertyOp34
 70
     1
102
RTVSPropertyOp35
 70
     1
102
RTVSPropertyOp36
 70
     1
102
RTVSPropertyOp37
 70
     1
102
RTVSPropertyOp38
 70
     1
102
RTVSPropertyOp39
 70
     1
102
RTVSPropertyOp40
 70
     1
102
RTVSPropertyOp41
 70
     1
102
RTVSPropertyOp42
 70
     1
102
RTVSPropertyOp43
 70
     1
102
RTVSPropertyOp44
 70
     1
102
RTVSPropertyOp45
 70
     1
102
RTVSPropertyOp46
 70
     1
102
RTVSPropertyOp47
 70
     1
102
RTVSPropertyOp48
 70
     1
102
RTVSPropertyOp49
 70
     1
102
RTVSPropertyOp50
 70
     1
102
RTVSPropertyOp51
 70
     0
102
RTVSPropertyOp52
 70
     0
102
RTVSPropertyOp53
 70
     1
102
RTVSPropertyOp54
 70
     1
102
RTVSPropertyOp55
 70
     1
102
RTVSPropertyOp56
 70
     1
102
RTVSPropertyOp57
 70
     1
102
RTVSPost2010Prop28
280
     1
102
RTVSPost2010PropOp28
 70
     1
102
RTVSPost2010Prop29
280
     1
102
RTVSPost2010PropOp29
 70
     1
102
RTVSPost2010Prop30
280
     0
102
RTVSPost2010PropOp30
 70
     1
102
RTVSPost2010Prop31
280
     0
102
RTVSPost2010PropOp31
 70
     1
102
RTVSPost2010Prop32
280
     0
102
RTVSPost2010PropOp32
 70
     1
102
RTVSPost2010Prop33
280
     0
102
RTVSPost2010PropOp33
 70
     1
102
RTVSPost2010Prop34
280
     0
102
RTVSPost2010PropOp34
 70
     1
102
RTVSPost2010Prop35
280
     0
102
RTVSPost2010PropOp35
 70
     1
102
RTVSPost2010Prop36
280
     0
102
RTVSPost2010PropOp36
 70
     1
102
RTVSPost2010Prop37
 90
       50
102
RTVSPost2010PropOp37
 70
     1
102
RTVSPost2010Prop38
140
0.0
102
RTVSPost2010PropOp38
 70
     1
102
RTVSPost2010Prop39
140
1.0
102
RTVSPost2010PropOp39
 70
     1
102
RTVSPost2010Prop40
 90
        0
102
RTVSPost2010PropOp40
 70
     1
102
RTVSPost2010Prop41ColorIndex
 90
      178
102
RTVSPost2010Prop41ColorRGB
 90
        0
102
RTVSPost2010PropOp41
 70
     1
102
RTVSPost2010Prop42
 90
       50
102
RTVSPost2010PropOp42
 70
     1
102
RTVSPost2010Prop43
 90
        3
102
RTVSPost2010PropOp43
 70
     1
102
RTVSPost2010Prop44ColorIndex
 90
        5
102
RTVSPost2010Prop44ColorRGB
 90
      255
102
RTVSPost2010PropOp44
 70
     1
102
RTVSPost2010Prop45
280
     0
102
RTVSPost2010PropOp45
 70
     1
102
RTVSPost2010Prop46
 90
       50
102
RTVSPost2010PropOp46
 70
     1
102
RTVSPost2010Prop47
 90
       50
102
RTVSPost2010PropOp47
 70
     1
102
RTVSPost2010Prop48
 90
       50
102
RTVSPost2010PropOp48
 70
     1
102
RTVSPost2010Prop49
280
     0
102
RTVSPost2010PropOp49
 70
     1
102
RTVSPost2010Prop50
 90
       50
102
RTVSPost2010PropOp50
 70
     1
102
RTVSPost2010Prop51ColorIndex
 90
      256
102
RTVSPost2010Prop51ColorRGB
 90
-16777216
102
RTVSPost2010PropOp51
 70
     0
102
RTVSPost2010Prop52
140
1.0
102
RTVSPost2010PropOp52
 70
     0
102
RTVSPost2010Prop53
 90
        2
102
RTVSPost2010PropOp53
 70
     1
102
RTVSPost2010Prop54
  1
strokes_ogs.tif
102
RTVSPost2010PropOp54
 70
     1
102
RTVSPost2010Prop55
280
     0
102
RTVSPost2010PropOp55
 70
     1
102
RTVSPost2010Prop56
140
1.0
102
RTVSPost2010PropOp56
 70
     1
102
RTVSPost2010Prop57
140
1.0
102
RTVSPost2010PropOp57
 70
     1
  0
XRECORD
  5
2AD
102
{ACAD_REACTORS
330
2AC
102
}
330
2AC
100
AcDbXrecord
280
     1
102
RTVSPropertyOp0
 70
     1
102
RTVSPropertyOp1
 70
     1
102
RTVSPropertyOp2
 70
     1
102
RTVSPropertyOp3
 70
     1
102
RTVSPropertyOp4
 70
     1
102
RTVSPropertyOp5
 70
     1
102
RTVSPropertyOp6
 70
     1
102
RTVSPropertyOp7
 70
     1
102
RTVSPropertyOp8
 70
     1
102
RTVSPropertyOp9
 70
     1
102
RTVSPropertyOp10
 70
     1
102
RTVSPropertyOp11
 70
     1
102
RTVSPropertyOp12
 70
     1
102
RTVSPropertyOp13
 70
     1
102
RTVSPropertyOp14
 70
     1
102
RTVSPropertyOp15
 70
     1
102
RTVSPropertyOp16
 70
     1
102
RTVSPropertyOp17
 70
     1
102
RTVSPropertyOp18
 70
     1
102
RTVSPropertyOp19
 70
     1
102
RTVSPropertyOp20
 70
     1
102
RTVSPropertyOp21
 70
     1
102
RTVSPropertyOp22
 70
     1
102
RTVSPropertyOp23
 70
     1
102
RTVSPropertyOp24
 70
     1
102
RTVSPropertyOp25
 70
     1
102
RTVSPropertyOp26
 70
     1
102
RTVSPropertyOp27
 70
     1
102
RTVSPropertyOp28
 70
     1
102
RTVSPropertyOp29
 70
     1
102
RTVSPropertyOp30
 70
     1
102
RTVSPropertyOp31
 70
     1
102
RTVSPropertyOp32
 70
     1
102
RTVSPropertyOp33
 70
     1
102
RTVSPropertyOp34
 70
     1
102
RTVSPropertyOp35
 70
     1
102
RTVSPropertyOp36
 70
     1
102
RTVSPropertyOp37
 70
     1
102
RTVSPropertyOp38
 70
     1
102
RTVSPropertyOp39
 70
     1
102
RTVSPropertyOp40
 70
     1
102
RTVSPropertyOp41
 70
     1
102
RTVSPropertyOp42
 70
     1
102
RTVSPropertyOp43
 70
     1
102
RTVSPropertyOp44
 70
     1
102
RTVSPropertyOp45
 70
     1
102
RTVSPropertyOp46
 70
     1
102
RTVSPropertyOp47
 70
     1
102
RTVSPropertyOp48
 70
     1
102
RTVSPropertyOp49
 70
     1
102
RTVSPropertyOp50
 70
     1
102
RTVSPropertyOp51
 70
     0
102
RTVSPropertyOp52
 70
     0
102
RTVSPropertyOp53
 70
     1
102
RTVSPropertyOp54
 70
     1
102
RTVSPropertyOp55
 70
     1
102
RTVSPropertyOp56
 70
     1
102
RTVSPropertyOp57
 70
     1
102
RTVSPost2010Prop28
280
     0
102
RTVSPost2010PropOp28
 70
     1
102
RTVSPost2010Prop29
280
     1
102
RTVSPost2010PropOp29
 70
     1
102
RTVSPost2010Prop30
280
     1
102
RTVSPost2010PropOp30
 70
     1
102
RTVSPost2010Prop31
280
     0
102
RTVSPost2010PropOp31
 70
     1
102
RTVSPost2010Prop32
280
     0
102
RTVSPost2010PropOp32
 70
     1
102
RTVSPost2010Prop33
280
     0
102
RTVSPost2010PropOp33
 70
     1
102
RTVSPost2010Prop34
280
     0
102
RTVSPost2010PropOp34
 70
     1
102
RTVSPost2010Prop35
280
     0
102
RTVSPost2010PropOp35
 70
     1
102
RTVSPost2010Prop36
280
     0
102
RTVSPost2010PropOp36
 70
     1
102
RTVSPost2010Prop37
 90
       50
102
RTVSPost2010PropOp37
 70
     1
102
RTVSPost2010Prop38
140
0.0
102
RTVSPost2010PropOp38
 70
     1
102
RTVSPost2010Prop39
140
1.0
102
RTVSPost2010PropOp39
 70
     1
102
RTVSPost2010Prop40
 90
        0
102
RTVSPost2010PropOp40
 70
     1
102
RTVSPost2010Prop41ColorIndex
 90
      178
102
RTVSPost2010Prop41ColorRGB
 90
        0
102
RTVSPost2010PropOp41
 70
     1
102
RTVSPost2010Prop42
 90
       50
102
RTVSPost2010PropOp42
 70
     1
102
RTVSPost2010Prop43
 90
        3
102
RTVSPost2010PropOp43
 70
     1
102
RTVSPost2010Prop44ColorIndex
 90
        5
102
RTVSPost2010Prop44ColorRGB
 90
      255
102
RTVSPost2010PropOp44
 70
     1
102
RTVSPost2010Prop45
280
     0
102
RTVSPost2010PropOp45
 70
     1
102
RTVSPost2010Prop46
 90
       50
102
RTVSPost2010PropOp46
 70
     1
102
RTVSPost2010Prop47
 90
       50
102
RTVSPost2010PropOp47
 70
     1
102
RTVSPost2010Prop48
 90
       50
102
RTVSPost2010PropOp48
 70
     1
102
RTVSPost2010Prop49
280
     0
102
RTVSPost2010PropOp49
 70
     1
102
RTVSPost2010Prop50
 90
       50
102
RTVSPost2010PropOp50
 70
     1
102
RTVSPost2010Prop51ColorIndex
 90
      256
102
RTVSPost2010Prop51ColorRGB
 90
-16777216
102
RTVSPost2010PropOp51
 70
     0
102
RTVSPost2010Prop52
140
1.0
102
RTVSPost2010PropOp52
 70
     0
102
RTVSPost2010Prop53
 90
        2
102
RTVSPost2010PropOp53
 70
     1
102
RTVSPost2010Prop54
  1
strokes_ogs.tif
102
RTVSPost2010PropOp54
 70
     1
102
RTVSPost2010Prop55
280
     0
102
RTVSPost2010PropOp55
 70
     1
102
RTVSPost2010Prop56
140
1.0
102
RTVSPost2010PropOp56
 70
     1
102
RTVSPost2010Prop57
140
1.0
102
RTVSPost2010PropOp57
 70
     1
  0
XRECORD
  5
2B5
102
{ACAD_REACTORS
330
2B4
102
}
330
2B4
100
AcDbXrecord
280
     1
102
RTVSPropertyOp0
 70
     1
102
RTVSPropertyOp1
 70
     1
102
RTVSPropertyOp2
 70
     1
102
RTVSPropertyOp3
 70
     1
102
RTVSPropertyOp4
 70
     1
102
RTVSPropertyOp5
 70
     1
102
RTVSPropertyOp6
 70
     1
102
RTVSPropertyOp7
 70
     1
102
RTVSPropertyOp8
 70
     1
102
RTVSPropertyOp9
 70
     1
102
RTVSPropertyOp10
 70
     1
102
RTVSPropertyOp11
 70
     1
102
RTVSPropertyOp12
 70
     1
102
RTVSPropertyOp13
 70
     1
102
RTVSPropertyOp14
 70
     1
102
RTVSPropertyOp15
 70
     1
102
RTVSPropertyOp16
 70
     1
102
RTVSPropertyOp17
 70
     1
102
RTVSPropertyOp18
 70
     1
102
RTVSPropertyOp19
 70
     1
102
RTVSPropertyOp20
 70
     1
102
RTVSPropertyOp21
 70
     1
102
RTVSPropertyOp22
 70
     1
102
RTVSPropertyOp23
 70
     1
102
RTVSPropertyOp24
 70
     1
102
RTVSPropertyOp25
 70
     1
102
RTVSPropertyOp26
 70
     1
102
RTVSPropertyOp27
 70
     1
102
RTVSPropertyOp28
 70
     1
102
RTVSPropertyOp29
 70
     1
102
RTVSPropertyOp30
 70
     1
102
RTVSPropertyOp31
 70
     1
102
RTVSPropertyOp32
 70
     1
102
RTVSPropertyOp33
 70
     1
102
RTVSPropertyOp34
 70
     1
102
RTVSPropertyOp35
 70
     1
102
RTVSPropertyOp36
 70
     1
102
RTVSPropertyOp37
 70
     1
102
RTVSPropertyOp38
 70
     1
102
RTVSPropertyOp39
 70
     1
102
RTVSPropertyOp40
 70
     1
102
RTVSPropertyOp41
 70
     1
102
RTVSPropertyOp42
 70
     1
102
RTVSPropertyOp43
 70
     1
102
RTVSPropertyOp44
 70
     1
102
RTVSPropertyOp45
 70
     1
102
RTVSPropertyOp46
 70
     1
102
RTVSPropertyOp47
 70
     1
102
RTVSPropertyOp48
 70
     1
102
RTVSPropertyOp49
 70
     1
102
RTVSPropertyOp50
 70
     1
102
RTVSPropertyOp51
 70
     0
102
RTVSPropertyOp52
 70
     0
102
RTVSPropertyOp53
 70
     1
102
RTVSPropertyOp54
 70
     1
102
RTVSPropertyOp55
 70
     1
102
RTVSPropertyOp56
 70
     1
102
RTVSPropertyOp57
 70
     1
102
RTVSPost2010Prop28
280
     0
102
RTVSPost2010PropOp28
 70
     1
102
RTVSPost2010Prop29
280
     1
102
RTVSPost2010PropOp29
 70
     1
102
RTVSPost2010Prop30
280
     1
102
RTVSPost2010PropOp30
 70
     1
102
RTVSPost2010Prop31
280
     0
102
RTVSPost2010PropOp31
 70
     1
102
RTVSPost2010Prop32
280
     0
102
RTVSPost2010PropOp32
 70
     1
102
RTVSPost2010Prop33
280
     0
102
RTVSPost2010PropOp33
 70
     1
102
RTVSPost2010Prop34
280
     0
102
RTVSPost2010PropOp34
 70
     1
102
RTVSPost2010Prop35
280
     0
102
RTVSPost2010PropOp35
 70
     1
102
RTVSPost2010Prop36
280
     0
102
RTVSPost2010PropOp36
 70
     1
102
RTVSPost2010Prop37
 90
       50
102
RTVSPost2010PropOp37
 70
     1
102
RTVSPost2010Prop38
140
0.0
102
RTVSPost2010PropOp38
 70
     1
102
RTVSPost2010Prop39
140
1.0
102
RTVSPost2010PropOp39
 70
     1
102
RTVSPost2010Prop40
 90
        0
102
RTVSPost2010PropOp40
 70
     1
102
RTVSPost2010Prop41ColorIndex
 90
      178
102
RTVSPost2010Prop41ColorRGB
 90
        0
102
RTVSPost2010PropOp41
 70
     1
102
RTVSPost2010Prop42
 90
       50
102
RTVSPost2010PropOp42
 70
     1
102
RTVSPost2010Prop43
 90
        3
102
RTVSPost2010PropOp43
 70
     1
102
RTVSPost2010Prop44ColorIndex
 90
        5
102
RTVSPost2010Prop44ColorRGB
 90
      255
102
RTVSPost2010PropOp44
 70
     1
102
RTVSPost2010Prop45
280
     0
102
RTVSPost2010PropOp45
 70
     1
102
RTVSPost2010Prop46
 90
       50
102
RTVSPost2010PropOp46
 70
     1
102
RTVSPost2010Prop47
 90
       50
102
RTVSPost2010PropOp47
 70
     1
102
RTVSPost2010Prop48
 90
       50
102
RTVSPost2010PropOp48
 70
     1
102
RTVSPost2010Prop49
280
     0
102
RTVSPost2010PropOp49
 70
     1
102
RTVSPost2010Prop50
 90
       50
102
RTVSPost2010PropOp50
 70
     1
102
RTVSPost2010Prop51ColorIndex
 90
      256
102
RTVSPost2010Prop51ColorRGB
 90
-16777216
102
RTVSPost2010PropOp51
 70
     0
102
RTVSPost2010Prop52
140
1.0
102
RTVSPost2010PropOp52
 70
     0
102
RTVSPost2010Prop53
 90
        2
102
RTVSPost2010PropOp53
 70
     1
102
RTVSPost2010Prop54
  1
strokes_ogs.tif
102
RTVSPost2010PropOp54
 70
     1
102
RTVSPost2010Prop55
280
     0
102
RTVSPost2010PropOp55
 70
     1
102
RTVSPost2010Prop56
140
1.0
102
RTVSPost2010PropOp56
 70
     1
102
RTVSPost2010Prop57
140
1.0
102
RTVSPost2010PropOp57
 70
     1
  0
XRECORD
  5
2BD
102
{ACAD_REACTORS
330
2BC
102
}
330
2BC
100
AcDbXrecord
280
     1
102
RTVSPropertyOp0
 70
     1
102
RTVSPropertyOp1
 70
     1
102
RTVSPropertyOp2
 70
     1
102
RTVSPropertyOp3
 70
     1
102
RTVSPropertyOp4
 70
     1
102
RTVSPropertyOp5
 70
     1
102
RTVSPropertyOp6
 70
     1
102
RTVSPropertyOp7
 70
     1
102
RTVSPropertyOp8
 70
     1
102
RTVSPropertyOp9
 70
     1
102
RTVSPropertyOp10
 70
     1
102
RTVSPropertyOp11
 70
     1
102
RTVSPropertyOp12
 70
     1
102
RTVSPropertyOp13
 70
     1
102
RTVSPropertyOp14
 70
     1
102
RTVSPropertyOp15
 70
     1
102
RTVSPropertyOp16
 70
     1
102
RTVSPropertyOp17
 70
     1
102
RTVSPropertyOp18
 70
     1
102
RTVSPropertyOp19
 70
     1
102
RTVSPropertyOp20
 70
     1
102
RTVSPropertyOp21
 70
     1
102
RTVSPropertyOp22
 70
     1
102
RTVSPropertyOp23
 70
     1
102
RTVSPropertyOp24
 70
     1
102
RTVSPropertyOp25
 70
     1
102
RTVSPropertyOp26
 70
     1
102
RTVSPropertyOp27
 70
     1
102
RTVSPropertyOp28
 70
     1
102
RTVSPropertyOp29
 70
     1
102
RTVSPropertyOp30
 70
     1
102
RTVSPropertyOp31
 70
     1
102
RTVSPropertyOp32
 70
     1
102
RTVSPropertyOp33
 70
     1
102
RTVSPropertyOp34
 70
     1
102
RTVSPropertyOp35
 70
     1
102
RTVSPropertyOp36
 70
     1
102
RTVSPropertyOp37
 70
     1
102
RTVSPropertyOp38
 70
     1
102
RTVSPropertyOp39
 70
     1
102
RTVSPropertyOp40
 70
     1
102
RTVSPropertyOp41
 70
     1
102
RTVSPropertyOp42
 70
     1
102
RTVSPropertyOp43
 70
     1
102
RTVSPropertyOp44
 70
     1
102
RTVSPropertyOp45
 70
     1
102
RTVSPropertyOp46
 70
     1
102
RTVSPropertyOp47
 70
     1
102
RTVSPropertyOp48
 70
     1
102
RTVSPropertyOp49
 70
     1
102
RTVSPropertyOp50
 70
     1
102
RTVSPropertyOp51
 70
     0
102
RTVSPropertyOp52
 70
     0
102
RTVSPropertyOp53
 70
     1
102
RTVSPropertyOp54
 70
     1
102
RTVSPropertyOp55
 70
     1
102
RTVSPropertyOp56
 70
     1
102
RTVSPropertyOp57
 70
     1
102
RTVSPost2010Prop28
280
     0
102
RTVSPost2010PropOp28
 70
     1
102
RTVSPost2010Prop29
280
     1
102
RTVSPost2010PropOp29
 70
     1
102
RTVSPost2010Prop30
280
     1
102
RTVSPost2010PropOp30
 70
     1
102
RTVSPost2010Prop31
280
     0
102
RTVSPost2010PropOp31
 70
     1
102
RTVSPost2010Prop32
280
     0
102
RTVSPost2010PropOp32
 70
     1
102
RTVSPost2010Prop33
280
     0
102
RTVSPost2010PropOp33
 70
     1
102
RTVSPost2010Prop34
280
     0
102
RTVSPost2010PropOp34
 70
     1
102
RTVSPost2010Prop35
280
     0
102
RTVSPost2010PropOp35
 70
     1
102
RTVSPost2010Prop36
280
     0
102
RTVSPost2010PropOp36
 70
     1
102
RTVSPost2010Prop37
 90
       50
102
RTVSPost2010PropOp37
 70
     1
102
RTVSPost2010Prop38
140
0.0
102
RTVSPost2010PropOp38
 70
     1
102
RTVSPost2010Prop39
140
1.0
102
RTVSPost2010PropOp39
 70
     1
102
RTVSPost2010Prop40
 90
        0
102
RTVSPost2010PropOp40
 70
     1
102
RTVSPost2010Prop41ColorIndex
 90
      178
102
RTVSPost2010Prop41ColorRGB
 90
        0
102
RTVSPost2010PropOp41
 70
     1
102
RTVSPost2010Prop42
 90
       50
102
RTVSPost2010PropOp42
 70
     1
102
RTVSPost2010Prop43
 90
        3
102
RTVSPost2010PropOp43
 70
     1
102
RTVSPost2010Prop44ColorIndex
 90
        5
102
RTVSPost2010Prop44ColorRGB
 90
      255
102
RTVSPost2010PropOp44
 70
     1
102
RTVSPost2010Prop45
280
     0
102
RTVSPost2010PropOp45
 70
     1
102
RTVSPost2010Prop46
 90
       50
102
RTVSPost2010PropOp46
 70
     1
102
RTVSPost2010Prop47
 90
       50
102
RTVSPost2010PropOp47
 70
     1
102
RTVSPost2010Prop48
 90
       50
102
RTVSPost2010PropOp48
 70
     1
102
RTVSPost2010Prop49
280
     0
102
RTVSPost2010PropOp49
 70
     1
102
RTVSPost2010Prop50
 90
       50
102
RTVSPost2010PropOp50
 70
     1
102
RTVSPost2010Prop51ColorIndex
 90
      256
102
RTVSPost2010Prop51ColorRGB
 90
-16777216
102
RTVSPost2010PropOp51
 70
     0
102
RTVSPost2010Prop52
140
1.0
102
RTVSPost2010PropOp52
 70
     0
102
RTVSPost2010Prop53
 90
        2
102
RTVSPost2010PropOp53
 70
     1
102
RTVSPost2010Prop54
  1
strokes_ogs.tif
102
RTVSPost2010PropOp54
 70
     1
102
RTVSPost2010Prop55
280
     0
102
RTVSPost2010PropOp55
 70
     1
102
RTVSPost2010Prop56
140
1.0
102
RTVSPost2010PropOp56
 70
     1
102
RTVSPost2010Prop57
140
1.0
102
RTVSPost2010PropOp57
 70
     1
  0
XRECORD
  5
2B1
102
{ACAD_REACTORS
330
2B0
102
}
330
2B0
100
AcDbXrecord
280
     1
102
RTVSPropertyOp0
 70
     1
102
RTVSPropertyOp1
 70
     1
102
RTVSPropertyOp2
 70
     1
102
RTVSPropertyOp3
 70
     1
102
RTVSPropertyOp4
 70
     1
102
RTVSPropertyOp5
 70
     1
102
RTVSPropertyOp6
 70
     1
102
RTVSPropertyOp7
 70
     1
102
RTVSPropertyOp8
 70
     1
102
RTVSPropertyOp9
 70
     1
102
RTVSPropertyOp10
 70
     1
102
RTVSPropertyOp11
 70
     1
102
RTVSPropertyOp12
 70
     1
102
RTVSPropertyOp13
 70
     1
102
RTVSPropertyOp14
 70
     1
102
RTVSPropertyOp15
 70
     1
102
RTVSPropertyOp16
 70
     1
102
RTVSPropertyOp17
 70
     1
102
RTVSPropertyOp18
 70
     1
102
RTVSPropertyOp19
 70
     1
102
RTVSPropertyOp20
 70
     1
102
RTVSPropertyOp21
 70
     1
102
RTVSPropertyOp22
 70
     1
102
RTVSPropertyOp23
 70
     1
102
RTVSPropertyOp24
 70
     1
102
RTVSPropertyOp25
 70
     1
102
RTVSPropertyOp26
 70
     1
102
RTVSPropertyOp27
 70
     1
102
RTVSPropertyOp28
 70
     1
102
RTVSPropertyOp29
 70
     1
102
RTVSPropertyOp30
 70
     1
102
RTVSPropertyOp31
 70
     1
102
RTVSPropertyOp32
 70
     1
102
RTVSPropertyOp33
 70
     1
102
RTVSPropertyOp34
 70
     1
102
RTVSPropertyOp35
 70
     1
102
RTVSPropertyOp36
 70
     1
102
RTVSPropertyOp37
 70
     1
102
RTVSPropertyOp38
 70
     1
102
RTVSPropertyOp39
 70
     1
102
RTVSPropertyOp40
 70
     1
102
RTVSPropertyOp41
 70
     1
102
RTVSPropertyOp42
 70
     1
102
RTVSPropertyOp43
 70
     1
102
RTVSPropertyOp44
 70
     1
102
RTVSPropertyOp45
 70
     1
102
RTVSPropertyOp46
 70
     1
102
RTVSPropertyOp47
 70
     1
102
RTVSPropertyOp48
 70
     1
102
RTVSPropertyOp49
 70
     1
102
RTVSPropertyOp50
 70
     1
102
RTVSPropertyOp51
 70
     0
102
RTVSPropertyOp52
 70
     0
102
RTVSPropertyOp53
 70
     1
102
RTVSPropertyOp54
 70
     1
102
RTVSPropertyOp55
 70
     1
102
RTVSPropertyOp56
 70
     1
102
RTVSPropertyOp57
 70
     1
102
RTVSPost2010Prop28
280
     0
102
RTVSPost2010PropOp28
 70
     1
102
RTVSPost2010Prop29
280
     1
102
RTVSPost2010PropOp29
 70
     1
102
RTVSPost2010Prop30
280
     1
102
RTVSPost2010PropOp30
 70
     1
102
RTVSPost2010Prop31
280
     0
102
RTVSPost2010PropOp31
 70
     1
102
RTVSPost2010Prop32
280
     0
102
RTVSPost2010PropOp32
 70
     1
102
RTVSPost2010Prop33
280
     0
102
RTVSPost2010PropOp33
 70
     1
102
RTVSPost2010Prop34
280
     0
102
RTVSPost2010PropOp34
 70
     1
102
RTVSPost2010Prop35
280
     0
102
RTVSPost2010PropOp35
 70
     1
102
RTVSPost2010Prop36
280
     0
102
RTVSPost2010PropOp36
 70
     1
102
RTVSPost2010Prop37
 90
       50
102
RTVSPost2010PropOp37
 70
     1
102
RTVSPost2010Prop38
140
0.0
102
RTVSPost2010PropOp38
 70
     1
102
RTVSPost2010Prop39
140
1.0
102
RTVSPost2010PropOp39
 70
     1
102
RTVSPost2010Prop40
 90
        0
102
RTVSPost2010PropOp40
 70
     1
102
RTVSPost2010Prop41ColorIndex
 90
      178
102
RTVSPost2010Prop41ColorRGB
 90
        0
102
RTVSPost2010PropOp41
 70
     1
102
RTVSPost2010Prop42
 90
       50
102
RTVSPost2010PropOp42
 70
     1
102
RTVSPost2010Prop43
 90
        3
102
RTVSPost2010PropOp43
 70
     1
102
RTVSPost2010Prop44ColorIndex
 90
        5
102
RTVSPost2010Prop44ColorRGB
 90
      255
102
RTVSPost2010PropOp44
 70
     1
102
RTVSPost2010Prop45
280
     0
102
RTVSPost2010PropOp45
 70
     1
102
RTVSPost2010Prop46
 90
       50
102
RTVSPost2010PropOp46
 70
     1
102
RTVSPost2010Prop47
 90
       50
102
RTVSPost2010PropOp47
 70
     1
102
RTVSPost2010Prop48
 90
       50
102
RTVSPost2010PropOp48
 70
     1
102
RTVSPost2010Prop49
280
     0
102
RTVSPost2010PropOp49
 70
     1
102
RTVSPost2010Prop50
 90
       50
102
RTVSPost2010PropOp50
 70
     1
102
RTVSPost2010Prop51ColorIndex
 90
      256
102
RTVSPost2010Prop51ColorRGB
 90
-16777216
102
RTVSPost2010PropOp51
 70
     0
102
RTVSPost2010Prop52
140
1.0
102
RTVSPost2010PropOp52
 70
     0
102
RTVSPost2010Prop53
 90
        2
102
RTVSPost2010PropOp53
 70
     1
102
RTVSPost2010Prop54
  1
strokes_ogs.tif
102
RTVSPost2010PropOp54
 70
     1
102
RTVSPost2010Prop55
280
     0
102
RTVSPost2010PropOp55
 70
     1
102
RTVSPost2010Prop56
140
1.0
102
RTVSPost2010PropOp56
 70
     1
102
RTVSPost2010Prop57
140
1.0
102
RTVSPost2010PropOp57
 70
     1
  0
XRECORD
  5
2B3
102
{ACAD_REACTORS
330
2B2
102
}
330
2B2
100
AcDbXrecord
280
     1
102
RTVSPropertyOp0
 70
     1
102
RTVSPropertyOp1
 70
     1
102
RTVSPropertyOp2
 70
     1
102
RTVSPropertyOp3
 70
     1
102
RTVSPropertyOp4
 70
     1
102
RTVSPropertyOp5
 70
     1
102
RTVSPropertyOp6
 70
     1
102
RTVSPropertyOp7
 70
     1
102
RTVSPropertyOp8
 70
     1
102
RTVSPropertyOp9
 70
     1
102
RTVSPropertyOp10
 70
     1
102
RTVSPropertyOp11
 70
     1
102
RTVSPropertyOp12
 70
     1
102
RTVSPropertyOp13
 70
     1
102
RTVSPropertyOp14
 70
     1
102
RTVSPropertyOp15
 70
     1
102
RTVSPropertyOp16
 70
     1
102
RTVSPropertyOp17
 70
     1
102
RTVSPropertyOp18
 70
     1
102
RTVSPropertyOp19
 70
     1
102
RTVSPropertyOp20
 70
     1
102
RTVSPropertyOp21
 70
     1
102
RTVSPropertyOp22
 70
     1
102
RTVSPropertyOp23
 70
     1
102
RTVSPropertyOp24
 70
     1
102
RTVSPropertyOp25
 70
     1
102
RTVSPropertyOp26
 70
     1
102
RTVSPropertyOp27
 70
     1
102
RTVSPropertyOp28
 70
     1
102
RTVSPropertyOp29
 70
     1
102
RTVSPropertyOp30
 70
     1
102
RTVSPropertyOp31
 70
     1
102
RTVSPropertyOp32
 70
     1
102
RTVSPropertyOp33
 70
     1
102
RTVSPropertyOp34
 70
     1
102
RTVSPropertyOp35
 70
     1
102
RTVSPropertyOp36
 70
     1
102
RTVSPropertyOp37
 70
     1
102
RTVSPropertyOp38
 70
     1
102
RTVSPropertyOp39
 70
     1
102
RTVSPropertyOp40
 70
     1
102
RTVSPropertyOp41
 70
     1
102
RTVSPropertyOp42
 70
     1
102
RTVSPropertyOp43
 70
     1
102
RTVSPropertyOp44
 70
     1
102
RTVSPropertyOp45
 70
     1
102
RTVSPropertyOp46
 70
     1
102
RTVSPropertyOp47
 70
     1
102
RTVSPropertyOp48
 70
     1
102
RTVSPropertyOp49
 70
     1
102
RTVSPropertyOp50
 70
     1
102
RTVSPropertyOp51
 70
     0
102
RTVSPropertyOp52
 70
     0
102
RTVSPropertyOp53
 70
     1
102
RTVSPropertyOp54
 70
     1
102
RTVSPropertyOp55
 70
     1
102
RTVSPropertyOp56
 70
     1
102
RTVSPropertyOp57
 70
     1
102
RTVSPost2010Prop28
280
     0
102
RTVSPost2010PropOp28
 70
     1
102
RTVSPost2010Prop29
280
     1
102
RTVSPost2010PropOp29
 70
     1
102
RTVSPost2010Prop30
280
     1
102
RTVSPost2010PropOp30
 70
     1
102
RTVSPost2010Prop31
280
     0
102
RTVSPost2010PropOp31
 70
     1
102
RTVSPost2010Prop32
280
     0
102
RTVSPost2010PropOp32
 70
     1
102
RTVSPost2010Prop33
280
     0
102
RTVSPost2010PropOp33
 70
     1
102
RTVSPost2010Prop34
280
     0
102
RTVSPost2010PropOp34
 70
     1
102
RTVSPost2010Prop35
280
     0
102
RTVSPost2010PropOp35
 70
     1
102
RTVSPost2010Prop36
280
     0
102
RTVSPost2010PropOp36
 70
     1
102
RTVSPost2010Prop37
 90
       50
102
RTVSPost2010PropOp37
 70
     1
102
RTVSPost2010Prop38
140
0.0
102
RTVSPost2010PropOp38
 70
     1
102
RTVSPost2010Prop39
140
1.0
102
RTVSPost2010PropOp39
 70
     1
102
RTVSPost2010Prop40
 90
        0
102
RTVSPost2010PropOp40
 70
     1
102
RTVSPost2010Prop41ColorIndex
 90
      178
102
RTVSPost2010Prop41ColorRGB
 90
        0
102
RTVSPost2010PropOp41
 70
     1
102
RTVSPost2010Prop42
 90
       50
102
RTVSPost2010PropOp42
 70
     1
102
RTVSPost2010Prop43
 90
        3
102
RTVSPost2010PropOp43
 70
     1
102
RTVSPost2010Prop44ColorIndex
 90
        5
102
RTVSPost2010Prop44ColorRGB
 90
      255
102
RTVSPost2010PropOp44
 70
     1
102
RTVSPost2010Prop45
280
     0
102
RTVSPost2010PropOp45
 70
     1
102
RTVSPost2010Prop46
 90
       50
102
RTVSPost2010PropOp46
 70
     1
102
RTVSPost2010Prop47
 90
       50
102
RTVSPost2010PropOp47
 70
     1
102
RTVSPost2010Prop48
 90
       50
102
RTVSPost2010PropOp48
 70
     1
102
RTVSPost2010Prop49
280
     0
102
RTVSPost2010PropOp49
 70
     1
102
RTVSPost2010Prop50
 90
       50
102
RTVSPost2010PropOp50
 70
     1
102
RTVSPost2010Prop51ColorIndex
 90
      256
102
RTVSPost2010Prop51ColorRGB
 90
-16777216
102
RTVSPost2010PropOp51
 70
     0
102
RTVSPost2010Prop52
140
1.0
102
RTVSPost2010PropOp52
 70
     0
102
RTVSPost2010Prop53
 90
        2
102
RTVSPost2010PropOp53
 70
     1
102
RTVSPost2010Prop54
  1
strokes_ogs.tif
102
RTVSPost2010PropOp54
 70
     1
102
RTVSPost2010Prop55
280
     0
102
RTVSPost2010PropOp55
 70
     1
102
RTVSPost2010Prop56
140
1.0
102
RTVSPost2010PropOp56
 70
     1
102
RTVSPost2010Prop57
140
1.0
102
RTVSPost2010PropOp57
 70
     1
  0
XRECORD
  5
2C3
102
{ACAD_REACTORS
330
2C2
102
}
330
2C2
100
AcDbXrecord
280
     1
102
RTVSPropertyOp0
 70
     0
102
RTVSPropertyOp1
 70
     0
102
RTVSPropertyOp2
 70
     0
102
RTVSPropertyOp3
 70
     0
102
RTVSPropertyOp4
 70
     0
102
RTVSPropertyOp5
 70
     0
102
RTVSPropertyOp6
 70
     0
102
RTVSPropertyOp7
 70
     0
102
RTVSPropertyOp8
 70
     0
102
RTVSPropertyOp9
 70
     0
102
RTVSPropertyOp10
 70
     0
102
RTVSPropertyOp11
 70
     0
102
RTVSPropertyOp12
 70
     0
102
RTVSPropertyOp13
 70
     0
102
RTVSPropertyOp14
 70
     2
102
RTVSPropertyOp15
 70
     0
102
RTVSPropertyOp16
 70
     0
102
RTVSPropertyOp17
 70
     0
102
RTVSPropertyOp18
 70
     0
102
RTVSPropertyOp19
 70
     0
102
RTVSPropertyOp20
 70
     0
102
RTVSPropertyOp21
 70
     0
102
RTVSPropertyOp22
 70
     0
102
RTVSPropertyOp23
 70
     0
102
RTVSPropertyOp24
 70
     0
102
RTVSPropertyOp25
 70
     0
102
RTVSPropertyOp26
 70
     0
102
RTVSPropertyOp27
 70
     0
102
RTVSPropertyOp28
 70
     0
102
RTVSPropertyOp29
 70
     0
102
RTVSPropertyOp30
 70
     0
102
RTVSPropertyOp31
 70
     0
102
RTVSPropertyOp32
 70
     0
102
RTVSPropertyOp33
 70
     0
102
RTVSPropertyOp34
 70
     0
102
RTVSPropertyOp35
 70
     0
102
RTVSPropertyOp36
 70
     0
102
RTVSPropertyOp37
 70
     0
102
RTVSPropertyOp38
 70
     0
102
RTVSPropertyOp39
 70
     0
102
RTVSPropertyOp40
 70
     0
102
RTVSPropertyOp41
 70
     0
102
RTVSPropertyOp42
 70
     0
102
RTVSPropertyOp43
 70
     0
102
RTVSPropertyOp44
 70
     0
102
RTVSPropertyOp45
 70
     0
102
RTVSPropertyOp46
 70
     0
102
RTVSPropertyOp47
 70
     0
102
RTVSPropertyOp48
 70
     0
102
RTVSPropertyOp49
 70
     0
102
RTVSPropertyOp50
 70
     0
102
RTVSPropertyOp51
 70
     0
102
RTVSPropertyOp52
 70
     0
102
RTVSPropertyOp53
 70
     0
102
RTVSPropertyOp54
 70
     0
102
RTVSPropertyOp55
 70
     0
102
RTVSPropertyOp56
 70
     0
102
RTVSPropertyOp57
 70
     0
102
RTVSPost2010Prop28
280
     0
102
RTVSPost2010PropOp28
 70
     0
102
RTVSPost2010Prop29
280
     1
102
RTVSPost2010PropOp29
 70
     0
102
RTVSPost2010Prop30
280
     1
102
RTVSPost2010PropOp30
 70
     0
102
RTVSPost2010Prop31
280
     0
102
RTVSPost2010PropOp31
 70
     0
102
RTVSPost2010Prop32
280
     0
102
RTVSPost2010PropOp32
 70
     0
102
RTVSPost2010Prop33
280
     0
102
RTVSPost2010PropOp33
 70
     0
102
RTVSPost2010Prop34
280
     0
102
RTVSPost2010PropOp34
 70
     0
102
RTVSPost2010Prop35
280
     0
102
RTVSPost2010PropOp35
 70
     0
102
RTVSPost2010Prop36
280
     0
102
RTVSPost2010PropOp36
 70
     0
102
RTVSPost2010Prop37
 90
       50
102
RTVSPost2010PropOp37
 70
     0
102
RTVSPost2010Prop38
140
0.0
102
RTVSPost2010PropOp38
 70
     0
102
RTVSPost2010Prop39
140
1.0
102
RTVSPost2010PropOp39
 70
     0
102
RTVSPost2010Prop40
 90
        0
102
RTVSPost2010PropOp40
 70
     0
102
RTVSPost2010Prop41ColorIndex
 90
      178
102
RTVSPost2010Prop41ColorRGB
 90
        0
102
RTVSPost2010PropOp41
 70
     0
102
RTVSPost2010Prop42
 90
       50
102
RTVSPost2010PropOp42
 70
     0
102
RTVSPost2010Prop43
 90
        3
102
RTVSPost2010PropOp43
 70
     0
102
RTVSPost2010Prop44ColorIndex
 90
        5
102
RTVSPost2010Prop44ColorRGB
 90
      255
102
RTVSPost2010PropOp44
 70
     0
102
RTVSPost2010Prop45
280
     0
102
RTVSPost2010PropOp45
 70
     0
102
RTVSPost2010Prop46
 90
       50
102
RTVSPost2010PropOp46
 70
     0
102
RTVSPost2010Prop47
 90
       50
102
RTVSPost2010PropOp47
 70
     0
102
RTVSPost2010Prop48
 90
       50
102
RTVSPost2010PropOp48
 70
     0
102
RTVSPost2010Prop49
280
     0
102
RTVSPost2010PropOp49
 70
     0
102
RTVSPost2010Prop50
 90
       50
102
RTVSPost2010PropOp50
 70
     0
102
RTVSPost2010Prop51ColorIndex
 90
      256
102
RTVSPost2010Prop51ColorRGB
 90
-16777216
102
RTVSPost2010PropOp51
 70
     0
102
RTVSPost2010Prop52
140
1.0
102
RTVSPost2010PropOp52
 70
     0
102
RTVSPost2010Prop53
 90
        2
102
RTVSPost2010PropOp53
 70
     0
102
RTVSPost2010Prop54
  1
strokes_ogs.tif
102
RTVSPost2010PropOp54
 70
     0
102
RTVSPost2010Prop55
280
     0
102
RTVSPost2010PropOp55
 70
     0
102
RTVSPost2010Prop56
140
1.0
102
RTVSPost2010PropOp56
 70
     0
102
RTVSPost2010Prop57
140
1.0
102
RTVSPost2010PropOp57
 70
     0
  0
XRECORD
  5
2BB
102
{ACAD_REACTORS
330
2BA
102
}
330
2BA
100
AcDbXrecord
280
     1
102
RTVSPropertyOp0
 70
     1
102
RTVSPropertyOp1
 70
     1
102
RTVSPropertyOp2
 70
     1
102
RTVSPropertyOp3
 70
     1
102
RTVSPropertyOp4
 70
     1
102
RTVSPropertyOp5
 70
     1
102
RTVSPropertyOp6
 70
     1
102
RTVSPropertyOp7
 70
     1
102
RTVSPropertyOp8
 70
     1
102
RTVSPropertyOp9
 70
     1
102
RTVSPropertyOp10
 70
     1
102
RTVSPropertyOp11
 70
     1
102
RTVSPropertyOp12
 70
     1
102
RTVSPropertyOp13
 70
     1
102
RTVSPropertyOp14
 70
     1
102
RTVSPropertyOp15
 70
     1
102
RTVSPropertyOp16
 70
     1
102
RTVSPropertyOp17
 70
     1
102
RTVSPropertyOp18
 70
     1
102
RTVSPropertyOp19
 70
     1
102
RTVSPropertyOp20
 70
     1
102
RTVSPropertyOp21
 70
     1
102
RTVSPropertyOp22
 70
     1
102
RTVSPropertyOp23
 70
     1
102
RTVSPropertyOp24
 70
     1
102
RTVSPropertyOp25
 70
     1
102
RTVSPropertyOp26
 70
     1
102
RTVSPropertyOp27
 70
     1
102
RTVSPropertyOp28
 70
     1
102
RTVSPropertyOp29
 70
     1
102
RTVSPropertyOp30
 70
     1
102
RTVSPropertyOp31
 70
     1
102
RTVSPropertyOp32
 70
     1
102
RTVSPropertyOp33
 70
     1
102
RTVSPropertyOp34
 70
     1
102
RTVSPropertyOp35
 70
     1
102
RTVSPropertyOp36
 70
     1
102
RTVSPropertyOp37
 70
     1
102
RTVSPropertyOp38
 70
     1
102
RTVSPropertyOp39
 70
     1
102
RTVSPropertyOp40
 70
     1
102
RTVSPropertyOp41
 70
     1
102
RTVSPropertyOp42
 70
     1
102
RTVSPropertyOp43
 70
     1
102
RTVSPropertyOp44
 70
     1
102
RTVSPropertyOp45
 70
     1
102
RTVSPropertyOp46
 70
     1
102
RTVSPropertyOp47
 70
     1
102
RTVSPropertyOp48
 70
     1
102
RTVSPropertyOp49
 70
     1
102
RTVSPropertyOp50
 70
     1
102
RTVSPropertyOp51
 70
     0
102
RTVSPropertyOp52
 70
     0
102
RTVSPropertyOp53
 70
     1
102
RTVSPropertyOp54
 70
     1
102
RTVSPropertyOp55
 70
     1
102
RTVSPropertyOp56
 70
     1
102
RTVSPropertyOp57
 70
     1
102
RTVSPost2010Prop28
280
     0
102
RTVSPost2010PropOp28
 70
     1
102
RTVSPost2010Prop29
280
     1
102
RTVSPost2010PropOp29
 70
     1
102
RTVSPost2010Prop30
280
     1
102
RTVSPost2010PropOp30
 70
     1
102
RTVSPost2010Prop31
280
     0
102
RTVSPost2010PropOp31
 70
     1
102
RTVSPost2010Prop32
280
     0
102
RTVSPost2010PropOp32
 70
     1
102
RTVSPost2010Prop33
280
     0
102
RTVSPost2010PropOp33
 70
     1
102
RTVSPost2010Prop34
280
     0
102
RTVSPost2010PropOp34
 70
     1
102
RTVSPost2010Prop35
280
     0
102
RTVSPost2010PropOp35
 70
     1
102
RTVSPost2010Prop36
280
     0
102
RTVSPost2010PropOp36
 70
     1
102
RTVSPost2010Prop37
 90
       50
102
RTVSPost2010PropOp37
 70
     1
102
RTVSPost2010Prop38
140
0.0
102
RTVSPost2010PropOp38
 70
     1
102
RTVSPost2010Prop39
140
1.0
102
RTVSPost2010PropOp39
 70
     1
102
RTVSPost2010Prop40
 90
        0
102
RTVSPost2010PropOp40
 70
     1
102
RTVSPost2010Prop41ColorIndex
 90
      178
102
RTVSPost2010Prop41ColorRGB
 90
        0
102
RTVSPost2010PropOp41
 70
     1
102
RTVSPost2010Prop42
 90
       50
102
RTVSPost2010PropOp42
 70
     1
102
RTVSPost2010Prop43
 90
        3
102
RTVSPost2010PropOp43
 70
     1
102
RTVSPost2010Prop44ColorIndex
 90
        5
102
RTVSPost2010Prop44ColorRGB
 90
      255
102
RTVSPost2010PropOp44
 70
     1
102
RTVSPost2010Prop45
280
     0
102
RTVSPost2010PropOp45
 70
     1
102
RTVSPost2010Prop46
 90
       50
102
RTVSPost2010PropOp46
 70
     1
102
RTVSPost2010Prop47
 90
       50
102
RTVSPost2010PropOp47
 70
     1
102
RTVSPost2010Prop48
 90
       50
102
RTVSPost2010PropOp48
 70
     1
102
RTVSPost2010Prop49
280
     0
102
RTVSPost2010PropOp49
 70
     1
102
RTVSPost2010Prop50
 90
       50
102
RTVSPost2010PropOp50
 70
     1
102
RTVSPost2010Prop51ColorIndex
 90
      256
102
RTVSPost2010Prop51ColorRGB
 90
-16777216
102
RTVSPost2010PropOp51
 70
     0
102
RTVSPost2010Prop52
140
1.0
102
RTVSPost2010PropOp52
 70
     0
102
RTVSPost2010Prop53
 90
        2
102
RTVSPost2010PropOp53
 70
     1
102
RTVSPost2010Prop54
  1
strokes_ogs.tif
102
RTVSPost2010PropOp54
 70
     1
102
RTVSPost2010Prop55
280
     0
102
RTVSPost2010PropOp55
 70
     1
102
RTVSPost2010Prop56
140
1.0
102
RTVSPost2010PropOp56
 70
     1
102
RTVSPost2010Prop57
140
1.0
102
RTVSPost2010PropOp57
 70
     1
  0
XRECORD
  5
29F
102
{ACAD_REACTORS
330
29E
102
}
330
29E
100
AcDbXrecord
280
     1
102
RTVSPropertyOp0
 70
     1
102
RTVSPropertyOp1
 70
     1
102
RTVSPropertyOp2
 70
     1
102
RTVSPropertyOp3
 70
     1
102
RTVSPropertyOp4
 70
     1
102
RTVSPropertyOp5
 70
     1
102
RTVSPropertyOp6
 70
     1
102
RTVSPropertyOp7
 70
     1
102
RTVSPropertyOp8
 70
     1
102
RTVSPropertyOp9
 70
     1
102
RTVSPropertyOp10
 70
     1
102
RTVSPropertyOp11
 70
     1
102
RTVSPropertyOp12
 70
     1
102
RTVSPropertyOp13
 70
     1
102
RTVSPropertyOp14
 70
     1
102
RTVSPropertyOp15
 70
     1
102
RTVSPropertyOp16
 70
     1
102
RTVSPropertyOp17
 70
     1
102
RTVSPropertyOp18
 70
     1
102
RTVSPropertyOp19
 70
     1
102
RTVSPropertyOp20
 70
     1
102
RTVSPropertyOp21
 70
     1
102
RTVSPropertyOp22
 70
     1
102
RTVSPropertyOp23
 70
     1
102
RTVSPropertyOp24
 70
     1
102
RTVSPropertyOp25
 70
     1
102
RTVSPropertyOp26
 70
     1
102
RTVSPropertyOp27
 70
     1
102
RTVSPropertyOp28
 70
     1
102
RTVSPropertyOp29
 70
     1
102
RTVSPropertyOp30
 70
     1
102
RTVSPropertyOp31
 70
     1
102
RTVSPropertyOp32
 70
     1
102
RTVSPropertyOp33
 70
     1
102
RTVSPropertyOp34
 70
     1
102
RTVSPropertyOp35
 70
     1
102
RTVSPropertyOp36
 70
     1
102
RTVSPropertyOp37
 70
     1
102
RTVSPropertyOp38
 70
     1
102
RTVSPropertyOp39
 70
     1
102
RTVSPropertyOp40
 70
     1
102
RTVSPropertyOp41
 70
     1
102
RTVSPropertyOp42
 70
     1
102
RTVSPropertyOp43
 70
     1
102
RTVSPropertyOp44
 70
     1
102
RTVSPropertyOp45
 70
     1
102
RTVSPropertyOp46
 70
     1
102
RTVSPropertyOp47
 70
     1
102
RTVSPropertyOp48
 70
     1
102
RTVSPropertyOp49
 70
     1
102
RTVSPropertyOp50
 70
     1
102
RTVSPropertyOp51
 70
     0
102
RTVSPropertyOp52
 70
     0
102
RTVSPropertyOp53
 70
     1
102
RTVSPropertyOp54
 70
     1
102
RTVSPropertyOp55
 70
     1
102
RTVSPropertyOp56
 70
     1
102
RTVSPropertyOp57
 70
     1
102
RTVSPost2010Prop28
280
     0
102
RTVSPost2010PropOp28
 70
     1
102
RTVSPost2010Prop29
280
     1
102
RTVSPost2010PropOp29
 70
     1
102
RTVSPost2010Prop30
280
     1
102
RTVSPost2010PropOp30
 70
     1
102
RTVSPost2010Prop31
280
     0
102
RTVSPost2010PropOp31
 70
     1
102
RTVSPost2010Prop32
280
     0
102
RTVSPost2010PropOp32
 70
     1
102
RTVSPost2010Prop33
280
     0
102
RTVSPost2010PropOp33
 70
     1
102
RTVSPost2010Prop34
280
     0
102
RTVSPost2010PropOp34
 70
     1
102
RTVSPost2010Prop35
280
     0
102
RTVSPost2010PropOp35
 70
     1
102
RTVSPost2010Prop36
280
     0
102
RTVSPost2010PropOp36
 70
     1
102
RTVSPost2010Prop37
 90
       50
102
RTVSPost2010PropOp37
 70
     1
102
RTVSPost2010Prop38
140
0.0
102
RTVSPost2010PropOp38
 70
     1
102
RTVSPost2010Prop39
140
1.0
102
RTVSPost2010PropOp39
 70
     1
102
RTVSPost2010Prop40
 90
        0
102
RTVSPost2010PropOp40
 70
     1
102
RTVSPost2010Prop41ColorIndex
 90
      178
102
RTVSPost2010Prop41ColorRGB
 90
        0
102
RTVSPost2010PropOp41
 70
     1
102
RTVSPost2010Prop42
 90
       50
102
RTVSPost2010PropOp42
 70
     1
102
RTVSPost2010Prop43
 90
        3
102
RTVSPost2010PropOp43
 70
     1
102
RTVSPost2010Prop44ColorIndex
 90
        5
102
RTVSPost2010Prop44ColorRGB
 90
      255
102
RTVSPost2010PropOp44
 70
     1
102
RTVSPost2010Prop45
280
     0
102
RTVSPost2010PropOp45
 70
     1
102
RTVSPost2010Prop46
 90
       50
102
RTVSPost2010PropOp46
 70
     1
102
RTVSPost2010Prop47
 90
       50
102
RTVSPost2010PropOp47
 70
     1
102
RTVSPost2010Prop48
 90
       50
102
RTVSPost2010PropOp48
 70
     1
102
RTVSPost2010Prop49
280
     0
102
RTVSPost2010PropOp49
 70
     1
102
RTVSPost2010Prop50
 90
       50
102
RTVSPost2010PropOp50
 70
     1
102
RTVSPost2010Prop51ColorIndex
 90
      256
102
RTVSPost2010Prop51ColorRGB
 90
-16777216
102
RTVSPost2010PropOp51
 70
     0
102
RTVSPost2010Prop52
140
1.0
102
RTVSPost2010PropOp52
 70
     0
102
RTVSPost2010Prop53
 90
        2
102
RTVSPost2010PropOp53
 70
     1
102
RTVSPost2010Prop54
  1
strokes_ogs.tif
102
RTVSPost2010PropOp54
 70
     1
102
RTVSPost2010Prop55
280
     0
102
RTVSPost2010PropOp55
 70
     1
102
RTVSPost2010Prop56
140
1.0
102
RTVSPost2010PropOp56
 70
     1
102
RTVSPost2010Prop57
140
1.0
102
RTVSPost2010PropOp57
 70
     1
  0
XRECORD
  5
2A1
102
{ACAD_REACTORS
330
2A0
102
}
330
2A0
100
AcDbXrecord
280
     1
102
RTVSPropertyOp0
 70
     1
102
RTVSPropertyOp1
 70
     1
102
RTVSPropertyOp2
 70
     1
102
RTVSPropertyOp3
 70
     1
102
RTVSPropertyOp4
 70
     1
102
RTVSPropertyOp5
 70
     1
102
RTVSPropertyOp6
 70
     1
102
RTVSPropertyOp7
 70
     1
102
RTVSPropertyOp8
 70
     1
102
RTVSPropertyOp9
 70
     1
102
RTVSPropertyOp10
 70
     1
102
RTVSPropertyOp11
 70
     1
102
RTVSPropertyOp12
 70
     1
102
RTVSPropertyOp13
 70
     1
102
RTVSPropertyOp14
 70
     1
102
RTVSPropertyOp15
 70
     1
102
RTVSPropertyOp16
 70
     1
102
RTVSPropertyOp17
 70
     1
102
RTVSPropertyOp18
 70
     1
102
RTVSPropertyOp19
 70
     1
102
RTVSPropertyOp20
 70
     1
102
RTVSPropertyOp21
 70
     1
102
RTVSPropertyOp22
 70
     1
102
RTVSPropertyOp23
 70
     1
102
RTVSPropertyOp24
 70
     1
102
RTVSPropertyOp25
 70
     1
102
RTVSPropertyOp26
 70
     1
102
RTVSPropertyOp27
 70
     1
102
RTVSPropertyOp28
 70
     1
102
RTVSPropertyOp29
 70
     1
102
RTVSPropertyOp30
 70
     1
102
RTVSPropertyOp31
 70
     1
102
RTVSPropertyOp32
 70
     1
102
RTVSPropertyOp33
 70
     1
102
RTVSPropertyOp34
 70
     1
102
RTVSPropertyOp35
 70
     1
102
RTVSPropertyOp36
 70
     1
102
RTVSPropertyOp37
 70
     1
102
RTVSPropertyOp38
 70
     1
102
RTVSPropertyOp39
 70
     1
102
RTVSPropertyOp40
 70
     1
102
RTVSPropertyOp41
 70
     1
102
RTVSPropertyOp42
 70
     1
102
RTVSPropertyOp43
 70
     1
102
RTVSPropertyOp44
 70
     1
102
RTVSPropertyOp45
 70
     1
102
RTVSPropertyOp46
 70
     1
102
RTVSPropertyOp47
 70
     1
102
RTVSPropertyOp48
 70
     1
102
RTVSPropertyOp49
 70
     1
102
RTVSPropertyOp50
 70
     1
102
RTVSPropertyOp51
 70
     0
102
RTVSPropertyOp52
 70
     0
102
RTVSPropertyOp53
 70
     1
102
RTVSPropertyOp54
 70
     1
102
RTVSPropertyOp55
 70
     1
102
RTVSPropertyOp56
 70
     1
102
RTVSPropertyOp57
 70
     1
102
RTVSPost2010Prop28
280
     0
102
RTVSPost2010PropOp28
 70
     1
102
RTVSPost2010Prop29
280
     1
102
RTVSPost2010PropOp29
 70
     1
102
RTVSPost2010Prop30
280
     1
102
RTVSPost2010PropOp30
 70
     1
102
RTVSPost2010Prop31
280
     0
102
RTVSPost2010PropOp31
 70
     1
102
RTVSPost2010Prop32
280
     0
102
RTVSPost2010PropOp32
 70
     1
102
RTVSPost2010Prop33
280
     0
102
RTVSPost2010PropOp33
 70
     1
102
RTVSPost2010Prop34
280
     0
102
RTVSPost2010PropOp34
 70
     1
102
RTVSPost2010Prop35
280
     0
102
RTVSPost2010PropOp35
 70
     1
102
RTVSPost2010Prop36
280
     0
102
RTVSPost2010PropOp36
 70
     1
102
RTVSPost2010Prop37
 90
       50
102
RTVSPost2010PropOp37
 70
     1
102
RTVSPost2010Prop38
140
0.0
102
RTVSPost2010PropOp38
 70
     1
102
RTVSPost2010Prop39
140
1.0
102
RTVSPost2010PropOp39
 70
     1
102
RTVSPost2010Prop40
 90
        0
102
RTVSPost2010PropOp40
 70
     1
102
RTVSPost2010Prop41ColorIndex
 90
      178
102
RTVSPost2010Prop41ColorRGB
 90
        0
102
RTVSPost2010PropOp41
 70
     1
102
RTVSPost2010Prop42
 90
       50
102
RTVSPost2010PropOp42
 70
     1
102
RTVSPost2010Prop43
 90
        3
102
RTVSPost2010PropOp43
 70
     1
102
RTVSPost2010Prop44ColorIndex
 90
        5
102
RTVSPost2010Prop44ColorRGB
 90
      255
102
RTVSPost2010PropOp44
 70
     1
102
RTVSPost2010Prop45
280
     0
102
RTVSPost2010PropOp45
 70
     1
102
RTVSPost2010Prop46
 90
       50
102
RTVSPost2010PropOp46
 70
     1
102
RTVSPost2010Prop47
 90
       50
102
RTVSPost2010PropOp47
 70
     1
102
RTVSPost2010Prop48
 90
       50
102
RTVSPost2010PropOp48
 70
     1
102
RTVSPost2010Prop49
280
     0
102
RTVSPost2010PropOp49
 70
     1
102
RTVSPost2010Prop50
 90
       50
102
RTVSPost2010PropOp50
 70
     1
102
RTVSPost2010Prop51ColorIndex
 90
      256
102
RTVSPost2010Prop51ColorRGB
 90
-16777216
102
RTVSPost2010PropOp51
 70
     0
102
RTVSPost2010Prop52
140
1.0
102
RTVSPost2010PropOp52
 70
     0
102
RTVSPost2010Prop53
 90
        2
102
RTVSPost2010PropOp53
 70
     1
102
RTVSPost2010Prop54
  1
strokes_ogs.tif
102
RTVSPost2010PropOp54
 70
     1
102
RTVSPost2010Prop55
280
     0
102
RTVSPost2010PropOp55
 70
     1
102
RTVSPost2010Prop56
140
1.0
102
RTVSPost2010PropOp56
 70
     1
102
RTVSPost2010Prop57
140
1.0
102
RTVSPost2010PropOp57
 70
     1
  0
XRECORD
  5
2A3
102
{ACAD_REACTORS
330
2A2
102
}
330
2A2
100
AcDbXrecord
280
     1
102
RTVSPropertyOp0
 70
     1
102
RTVSPropertyOp1
 70
     1
102
RTVSPropertyOp2
 70
     1
102
RTVSPropertyOp3
 70
     1
102
RTVSPropertyOp4
 70
     1
102
RTVSPropertyOp5
 70
     1
102
RTVSPropertyOp6
 70
     1
102
RTVSPropertyOp7
 70
     1
102
RTVSPropertyOp8
 70
     1
102
RTVSPropertyOp9
 70
     1
102
RTVSPropertyOp10
 70
     1
102
RTVSPropertyOp11
 70
     1
102
RTVSPropertyOp12
 70
     1
102
RTVSPropertyOp13
 70
     1
102
RTVSPropertyOp14
 70
     1
102
RTVSPropertyOp15
 70
     1
102
RTVSPropertyOp16
 70
     1
102
RTVSPropertyOp17
 70
     1
102
RTVSPropertyOp18
 70
     1
102
RTVSPropertyOp19
 70
     1
102
RTVSPropertyOp20
 70
     1
102
RTVSPropertyOp21
 70
     1
102
RTVSPropertyOp22
 70
     1
102
RTVSPropertyOp23
 70
     1
102
RTVSPropertyOp24
 70
     1
102
RTVSPropertyOp25
 70
     1
102
RTVSPropertyOp26
 70
     1
102
RTVSPropertyOp27
 70
     1
102
RTVSPropertyOp28
 70
     1
102
RTVSPropertyOp29
 70
     1
102
RTVSPropertyOp30
 70
     1
102
RTVSPropertyOp31
 70
     1
102
RTVSPropertyOp32
 70
     1
102
RTVSPropertyOp33
 70
     1
102
RTVSPropertyOp34
 70
     1
102
RTVSPropertyOp35
 70
     1
102
RTVSPropertyOp36
 70
     1
102
RTVSPropertyOp37
 70
     1
102
RTVSPropertyOp38
 70
     1
102
RTVSPropertyOp39
 70
     1
102
RTVSPropertyOp40
 70
     1
102
RTVSPropertyOp41
 70
     1
102
RTVSPropertyOp42
 70
     1
102
RTVSPropertyOp43
 70
     1
102
RTVSPropertyOp44
 70
     1
102
RTVSPropertyOp45
 70
     1
102
RTVSPropertyOp46
 70
     1
102
RTVSPropertyOp47
 70
     1
102
RTVSPropertyOp48
 70
     1
102
RTVSPropertyOp49
 70
     1
102
RTVSPropertyOp50
 70
     1
102
RTVSPropertyOp51
 70
     0
102
RTVSPropertyOp52
 70
     0
102
RTVSPropertyOp53
 70
     1
102
RTVSPropertyOp54
 70
     1
102
RTVSPropertyOp55
 70
     1
102
RTVSPropertyOp56
 70
     1
102
RTVSPropertyOp57
 70
     1
102
RTVSPost2010Prop28
280
     0
102
RTVSPost2010PropOp28
 70
     1
102
RTVSPost2010Prop29
280
     1
102
RTVSPost2010PropOp29
 70
     1
102
RTVSPost2010Prop30
280
     1
102
RTVSPost2010PropOp30
 70
     1
102
RTVSPost2010Prop31
280
     0
102
RTVSPost2010PropOp31
 70
     1
102
RTVSPost2010Prop32
280
     0
102
RTVSPost2010PropOp32
 70
     1
102
RTVSPost2010Prop33
280
     0
102
RTVSPost2010PropOp33
 70
     1
102
RTVSPost2010Prop34
280
     0
102
RTVSPost2010PropOp34
 70
     1
102
RTVSPost2010Prop35
280
     0
102
RTVSPost2010PropOp35
 70
     1
102
RTVSPost2010Prop36
280
     0
102
RTVSPost2010PropOp36
 70
     1
102
RTVSPost2010Prop37
 90
       50
102
RTVSPost2010PropOp37
 70
     1
102
RTVSPost2010Prop38
140
0.0
102
RTVSPost2010PropOp38
 70
     1
102
RTVSPost2010Prop39
140
1.0
102
RTVSPost2010PropOp39
 70
     1
102
RTVSPost2010Prop40
 90
        0
102
RTVSPost2010PropOp40
 70
     1
102
RTVSPost2010Prop41ColorIndex
 90
      178
102
RTVSPost2010Prop41ColorRGB
 90
        0
102
RTVSPost2010PropOp41
 70
     1
102
RTVSPost2010Prop42
 90
       50
102
RTVSPost2010PropOp42
 70
     1
102
RTVSPost2010Prop43
 90
        3
102
RTVSPost2010PropOp43
 70
     1
102
RTVSPost2010Prop44ColorIndex
 90
        5
102
RTVSPost2010Prop44ColorRGB
 90
      255
102
RTVSPost2010PropOp44
 70
     1
102
RTVSPost2010Prop45
280
     0
102
RTVSPost2010PropOp45
 70
     1
102
RTVSPost2010Prop46
 90
       50
102
RTVSPost2010PropOp46
 70
     1
102
RTVSPost2010Prop47
 90
       50
102
RTVSPost2010PropOp47
 70
     1
102
RTVSPost2010Prop48
 90
       50
102
RTVSPost2010PropOp48
 70
     1
102
RTVSPost2010Prop49
280
     0
102
RTVSPost2010PropOp49
 70
     1
102
RTVSPost2010Prop50
 90
       50
102
RTVSPost2010PropOp50
 70
     1
102
RTVSPost2010Prop51ColorIndex
 90
      256
102
RTVSPost2010Prop51ColorRGB
 90
-16777216
102
RTVSPost2010PropOp51
 70
     0
102
RTVSPost2010Prop52
140
1.0
102
RTVSPost2010PropOp52
 70
     0
102
RTVSPost2010Prop53
 90
        2
102
RTVSPost2010PropOp53
 70
     1
102
RTVSPost2010Prop54
  1
strokes_ogs.tif
102
RTVSPost2010PropOp54
 70
     1
102
RTVSPost2010Prop55
280
     0
102
RTVSPost2010PropOp55
 70
     1
102
RTVSPost2010Prop56
140
1.0
102
RTVSPost2010PropOp56
 70
     1
102
RTVSPost2010Prop57
140
1.0
102
RTVSPost2010PropOp57
 70
     1
  0
XRECORD
  5
2A5
102
{ACAD_REACTORS
330
2A4
102
}
330
2A4
100
AcDbXrecord
280
     1
102
RTVSPropertyOp0
 70
     1
102
RTVSPropertyOp1
 70
     1
102
RTVSPropertyOp2
 70
     1
102
RTVSPropertyOp3
 70
     1
102
RTVSPropertyOp4
 70
     1
102
RTVSPropertyOp5
 70
     1
102
RTVSPropertyOp6
 70
     1
102
RTVSPropertyOp7
 70
     1
102
RTVSPropertyOp8
 70
     1
102
RTVSPropertyOp9
 70
     1
102
RTVSPropertyOp10
 70
     1
102
RTVSPropertyOp11
 70
     1
102
RTVSPropertyOp12
 70
     1
102
RTVSPropertyOp13
 70
     1
102
RTVSPropertyOp14
 70
     1
102
RTVSPropertyOp15
 70
     1
102
RTVSPropertyOp16
 70
     1
102
RTVSPropertyOp17
 70
     1
102
RTVSPropertyOp18
 70
     1
102
RTVSPropertyOp19
 70
     1
102
RTVSPropertyOp20
 70
     1
102
RTVSPropertyOp21
 70
     1
102
RTVSPropertyOp22
 70
     1
102
RTVSPropertyOp23
 70
     1
102
RTVSPropertyOp24
 70
     1
102
RTVSPropertyOp25
 70
     1
102
RTVSPropertyOp26
 70
     1
102
RTVSPropertyOp27
 70
     1
102
RTVSPropertyOp28
 70
     1
102
RTVSPropertyOp29
 70
     1
102
RTVSPropertyOp30
 70
     1
102
RTVSPropertyOp31
 70
     1
102
RTVSPropertyOp32
 70
     1
102
RTVSPropertyOp33
 70
     1
102
RTVSPropertyOp34
 70
     1
102
RTVSPropertyOp35
 70
     1
102
RTVSPropertyOp36
 70
     1
102
RTVSPropertyOp37
 70
     1
102
RTVSPropertyOp38
 70
     1
102
RTVSPropertyOp39
 70
     1
102
RTVSPropertyOp40
 70
     1
102
RTVSPropertyOp41
 70
     1
102
RTVSPropertyOp42
 70
     1
102
RTVSPropertyOp43
 70
     1
102
RTVSPropertyOp44
 70
     1
102
RTVSPropertyOp45
 70
     1
102
RTVSPropertyOp46
 70
     1
102
RTVSPropertyOp47
 70
     1
102
RTVSPropertyOp48
 70
     1
102
RTVSPropertyOp49
 70
     1
102
RTVSPropertyOp50
 70
     1
102
RTVSPropertyOp51
 70
     0
102
RTVSPropertyOp52
 70
     0
102
RTVSPropertyOp53
 70
     1
102
RTVSPropertyOp54
 70
     1
102
RTVSPropertyOp55
 70
     1
102
RTVSPropertyOp56
 70
     1
102
RTVSPropertyOp57
 70
     1
102
RTVSPost2010Prop28
280
     0
102
RTVSPost2010PropOp28
 70
     1
102
RTVSPost2010Prop29
280
     1
102
RTVSPost2010PropOp29
 70
     1
102
RTVSPost2010Prop30
280
     1
102
RTVSPost2010PropOp30
 70
     1
102
RTVSPost2010Prop31
280
     0
102
RTVSPost2010PropOp31
 70
     1
102
RTVSPost2010Prop32
280
     0
102
RTVSPost2010PropOp32
 70
     1
102
RTVSPost2010Prop33
280
     0
102
RTVSPost2010PropOp33
 70
     1
102
RTVSPost2010Prop34
280
     0
102
RTVSPost2010PropOp34
 70
     1
102
RTVSPost2010Prop35
280
     0
102
RTVSPost2010PropOp35
 70
     1
102
RTVSPost2010Prop36
280
     0
102
RTVSPost2010PropOp36
 70
     1
102
RTVSPost2010Prop37
 90
       50
102
RTVSPost2010PropOp37
 70
     1
102
RTVSPost2010Prop38
140
0.0
102
RTVSPost2010PropOp38
 70
     1
102
RTVSPost2010Prop39
140
1.0
102
RTVSPost2010PropOp39
 70
     1
102
RTVSPost2010Prop40
 90
        0
102
RTVSPost2010PropOp40
 70
     1
102
RTVSPost2010Prop41ColorIndex
 90
      178
102
RTVSPost2010Prop41ColorRGB
 90
        0
102
RTVSPost2010PropOp41
 70
     1
102
RTVSPost2010Prop42
 90
       50
102
RTVSPost2010PropOp42
 70
     1
102
RTVSPost2010Prop43
 90
        3
102
RTVSPost2010PropOp43
 70
     1
102
RTVSPost2010Prop44ColorIndex
 90
        5
102
RTVSPost2010Prop44ColorRGB
 90
      255
102
RTVSPost2010PropOp44
 70
     1
102
RTVSPost2010Prop45
280
     0
102
RTVSPost2010PropOp45
 70
     1
102
RTVSPost2010Prop46
 90
       50
102
RTVSPost2010PropOp46
 70
     1
102
RTVSPost2010Prop47
 90
       50
102
RTVSPost2010PropOp47
 70
     1
102
RTVSPost2010Prop48
 90
       50
102
RTVSPost2010PropOp48
 70
     1
102
RTVSPost2010Prop49
280
     0
102
RTVSPost2010PropOp49
 70
     1
102
RTVSPost2010Prop50
 90
       50
102
RTVSPost2010PropOp50
 70
     1
102
RTVSPost2010Prop51ColorIndex
 90
      256
102
RTVSPost2010Prop51ColorRGB
 90
-16777216
102
RTVSPost2010PropOp51
 70
     0
102
RTVSPost2010Prop52
140
1.0
102
RTVSPost2010PropOp52
 70
     0
102
RTVSPost2010Prop53
 90
        2
102
RTVSPost2010PropOp53
 70
     1
102
RTVSPost2010Prop54
  1
strokes_ogs.tif
102
RTVSPost2010PropOp54
 70
     1
102
RTVSPost2010Prop55
280
     0
102
RTVSPost2010PropOp55
 70
     1
102
RTVSPost2010Prop56
140
1.0
102
RTVSPost2010PropOp56
 70
     1
102
RTVSPost2010Prop57
140
1.0
102
RTVSPost2010PropOp57
 70
     1
  0
XRECORD
  5
2AB
102
{ACAD_REACTORS
330
2AA
102
}
330
2AA
100
AcDbXrecord
280
     1
102
RTVSPropertyOp0
 70
     1
102
RTVSPropertyOp1
 70
     1
102
RTVSPropertyOp2
 70
     1
102
RTVSPropertyOp3
 70
     1
102
RTVSPropertyOp4
 70
     1
102
RTVSPropertyOp5
 70
     1
102
RTVSPropertyOp6
 70
     1
102
RTVSPropertyOp7
 70
     1
102
RTVSPropertyOp8
 70
     1
102
RTVSPropertyOp9
 70
     1
102
RTVSPropertyOp10
 70
     1
102
RTVSPropertyOp11
 70
     1
102
RTVSPropertyOp12
 70
     1
102
RTVSPropertyOp13
 70
     1
102
RTVSPropertyOp14
 70
     1
102
RTVSPropertyOp15
 70
     1
102
RTVSPropertyOp16
 70
     1
102
RTVSPropertyOp17
 70
     1
102
RTVSPropertyOp18
 70
     1
102
RTVSPropertyOp19
 70
     1
102
RTVSPropertyOp20
 70
     1
102
RTVSPropertyOp21
 70
     1
102
RTVSPropertyOp22
 70
     1
102
RTVSPropertyOp23
 70
     1
102
RTVSPropertyOp24
 70
     1
102
RTVSPropertyOp25
 70
     1
102
RTVSPropertyOp26
 70
     1
102
RTVSPropertyOp27
 70
     1
102
RTVSPropertyOp28
 70
     1
102
RTVSPropertyOp29
 70
     1
102
RTVSPropertyOp30
 70
     1
102
RTVSPropertyOp31
 70
     1
102
RTVSPropertyOp32
 70
     1
102
RTVSPropertyOp33
 70
     1
102
RTVSPropertyOp34
 70
     1
102
RTVSPropertyOp35
 70
     1
102
RTVSPropertyOp36
 70
     1
102
RTVSPropertyOp37
 70
     1
102
RTVSPropertyOp38
 70
     1
102
RTVSPropertyOp39
 70
     1
102
RTVSPropertyOp40
 70
     1
102
RTVSPropertyOp41
 70
     1
102
RTVSPropertyOp42
 70
     1
102
RTVSPropertyOp43
 70
     1
102
RTVSPropertyOp44
 70
     1
102
RTVSPropertyOp45
 70
     1
102
RTVSPropertyOp46
 70
     1
102
RTVSPropertyOp47
 70
     1
102
RTVSPropertyOp48
 70
     1
102
RTVSPropertyOp49
 70
     1
102
RTVSPropertyOp50
 70
     1
102
RTVSPropertyOp51
 70
     0
102
RTVSPropertyOp52
 70
     0
102
RTVSPropertyOp53
 70
     1
102
RTVSPropertyOp54
 70
     1
102
RTVSPropertyOp55
 70
     1
102
RTVSPropertyOp56
 70
     1
102
RTVSPropertyOp57
 70
     1
102
RTVSPost2010Prop28
280
     0
102
RTVSPost2010PropOp28
 70
     1
102
RTVSPost2010Prop29
280
     1
102
RTVSPost2010PropOp29
 70
     1
102
RTVSPost2010Prop30
280
     1
102
RTVSPost2010PropOp30
 70
     1
102
RTVSPost2010Prop31
280
     0
102
RTVSPost2010PropOp31
 70
     1
102
RTVSPost2010Prop32
280
     0
102
RTVSPost2010PropOp32
 70
     1
102
RTVSPost2010Prop33
280
     0
102
RTVSPost2010PropOp33
 70
     1
102
RTVSPost2010Prop34
280
     0
102
RTVSPost2010PropOp34
 70
     1
102
RTVSPost2010Prop35
280
     0
102
RTVSPost2010PropOp35
 70
     1
102
RTVSPost2010Prop36
280
     0
102
RTVSPost2010PropOp36
 70
     1
102
RTVSPost2010Prop37
 90
       50
102
RTVSPost2010PropOp37
 70
     1
102
RTVSPost2010Prop38
140
0.0
102
RTVSPost2010PropOp38
 70
     1
102
RTVSPost2010Prop39
140
1.0
102
RTVSPost2010PropOp39
 70
     1
102
RTVSPost2010Prop40
 90
        0
102
RTVSPost2010PropOp40
 70
     1
102
RTVSPost2010Prop41ColorIndex
 90
      178
102
RTVSPost2010Prop41ColorRGB
 90
        0
102
RTVSPost2010PropOp41
 70
     1
102
RTVSPost2010Prop42
 90
       50
102
RTVSPost2010PropOp42
 70
     1
102
RTVSPost2010Prop43
 90
        3
102
RTVSPost2010PropOp43
 70
     1
102
RTVSPost2010Prop44ColorIndex
 90
        5
102
RTVSPost2010Prop44ColorRGB
 90
      255
102
RTVSPost2010PropOp44
 70
     1
102
RTVSPost2010Prop45
280
     0
102
RTVSPost2010PropOp45
 70
     1
102
RTVSPost2010Prop46
 90
       50
102
RTVSPost2010PropOp46
 70
     1
102
RTVSPost2010Prop47
 90
       50
102
RTVSPost2010PropOp47
 70
     1
102
RTVSPost2010Prop48
 90
       50
102
RTVSPost2010PropOp48
 70
     1
102
RTVSPost2010Prop49
280
     0
102
RTVSPost2010PropOp49
 70
     1
102
RTVSPost2010Prop50
 90
       50
102
RTVSPost2010PropOp50
 70
     1
102
RTVSPost2010Prop51ColorIndex
 90
      256
102
RTVSPost2010Prop51ColorRGB
 90
-16777216
102
RTVSPost2010PropOp51
 70
     0
102
RTVSPost2010Prop52
140
1.0
102
RTVSPost2010PropOp52
 70
     0
102
RTVSPost2010Prop53
 90
        2
102
RTVSPost2010PropOp53
 70
     1
102
RTVSPost2010Prop54
  1
strokes_ogs.tif
102
RTVSPost2010PropOp54
 70
     1
102
RTVSPost2010Prop55
280
     0
102
RTVSPost2010PropOp55
 70
     1
102
RTVSPost2010Prop56
140
1.0
102
RTVSPost2010PropOp56
 70
     1
102
RTVSPost2010Prop57
140
1.0
102
RTVSPost2010PropOp57
 70
     1
  0
XRECORD
  5
2BF
102
{ACAD_REACTORS
330
2BE
102
}
330
2BE
100
AcDbXrecord
280
     1
102
RTVSPropertyOp0
 70
     0
102
RTVSPropertyOp1
 70
     0
102
RTVSPropertyOp2
 70
     0
102
RTVSPropertyOp3
 70
     0
102
RTVSPropertyOp4
 70
     0
102
RTVSPropertyOp5
 70
     0
102
RTVSPropertyOp6
 70
     0
102
RTVSPropertyOp7
 70
     0
102
RTVSPropertyOp8
 70
     0
102
RTVSPropertyOp9
 70
     0
102
RTVSPropertyOp10
 70
     0
102
RTVSPropertyOp11
 70
     0
102
RTVSPropertyOp12
 70
     0
102
RTVSPropertyOp13
 70
     0
102
RTVSPropertyOp14
 70
     2
102
RTVSPropertyOp15
 70
     0
102
RTVSPropertyOp16
 70
     0
102
RTVSPropertyOp17
 70
     0
102
RTVSPropertyOp18
 70
     0
102
RTVSPropertyOp19
 70
     0
102
RTVSPropertyOp20
 70
     0
102
RTVSPropertyOp21
 70
     0
102
RTVSPropertyOp22
 70
     0
102
RTVSPropertyOp23
 70
     0
102
RTVSPropertyOp24
 70
     0
102
RTVSPropertyOp25
 70
     0
102
RTVSPropertyOp26
 70
     0
102
RTVSPropertyOp27
 70
     0
102
RTVSPropertyOp28
 70
     0
102
RTVSPropertyOp29
 70
     0
102
RTVSPropertyOp30
 70
     0
102
RTVSPropertyOp31
 70
     0
102
RTVSPropertyOp32
 70
     0
102
RTVSPropertyOp33
 70
     0
102
RTVSPropertyOp34
 70
     0
102
RTVSPropertyOp35
 70
     0
102
RTVSPropertyOp36
 70
     0
102
RTVSPropertyOp37
 70
     0
102
RTVSPropertyOp38
 70
     0
102
RTVSPropertyOp39
 70
     0
102
RTVSPropertyOp40
 70
     0
102
RTVSPropertyOp41
 70
     0
102
RTVSPropertyOp42
 70
     0
102
RTVSPropertyOp43
 70
     0
102
RTVSPropertyOp44
 70
     0
102
RTVSPropertyOp45
 70
     0
102
RTVSPropertyOp46
 70
     0
102
RTVSPropertyOp47
 70
     0
102
RTVSPropertyOp48
 70
     0
102
RTVSPropertyOp49
 70
     0
102
RTVSPropertyOp50
 70
     0
102
RTVSPropertyOp51
 70
     0
102
RTVSPropertyOp52
 70
     0
102
RTVSPropertyOp53
 70
     0
102
RTVSPropertyOp54
 70
     0
102
RTVSPropertyOp55
 70
     0
102
RTVSPropertyOp56
 70
     0
102
RTVSPropertyOp57
 70
     0
102
RTVSPost2010Prop28
280
     0
102
RTVSPost2010PropOp28
 70
     0
102
RTVSPost2010Prop29
280
     1
102
RTVSPost2010PropOp29
 70
     0
102
RTVSPost2010Prop30
280
     1
102
RTVSPost2010PropOp30
 70
     0
102
RTVSPost2010Prop31
280
     0
102
RTVSPost2010PropOp31
 70
     0
102
RTVSPost2010Prop32
280
     0
102
RTVSPost2010PropOp32
 70
     0
102
RTVSPost2010Prop33
280
     0
102
RTVSPost2010PropOp33
 70
     0
102
RTVSPost2010Prop34
280
     0
102
RTVSPost2010PropOp34
 70
     0
102
RTVSPost2010Prop35
280
     0
102
RTVSPost2010PropOp35
 70
     0
102
RTVSPost2010Prop36
280
     0
102
RTVSPost2010PropOp36
 70
     0
102
RTVSPost2010Prop37
 90
       50
102
RTVSPost2010PropOp37
 70
     0
102
RTVSPost2010Prop38
140
0.0
102
RTVSPost2010PropOp38
 70
     0
102
RTVSPost2010Prop39
140
1.0
102
RTVSPost2010PropOp39
 70
     0
102
RTVSPost2010Prop40
 90
        0
102
RTVSPost2010PropOp40
 70
     0
102
RTVSPost2010Prop41ColorIndex
 90
      178
102
RTVSPost2010Prop41ColorRGB
 90
        0
102
RTVSPost2010PropOp41
 70
     0
102
RTVSPost2010Prop42
 90
       50
102
RTVSPost2010PropOp42
 70
     0
102
RTVSPost2010Prop43
 90
        3
102
RTVSPost2010PropOp43
 70
     0
102
RTVSPost2010Prop44ColorIndex
 90
        5
102
RTVSPost2010Prop44ColorRGB
 90
      255
102
RTVSPost2010PropOp44
 70
     0
102
RTVSPost2010Prop45
280
     0
102
RTVSPost2010PropOp45
 70
     0
102
RTVSPost2010Prop46
 90
       50
102
RTVSPost2010PropOp46
 70
     0
102
RTVSPost2010Prop47
 90
       50
102
RTVSPost2010PropOp47
 70
     0
102
RTVSPost2010Prop48
 90
       50
102
RTVSPost2010PropOp48
 70
     0
102
RTVSPost2010Prop49
280
     0
102
RTVSPost2010PropOp49
 70
     0
102
RTVSPost2010Prop50
 90
       50
102
RTVSPost2010PropOp50
 70
     0
102
RTVSPost2010Prop51ColorIndex
 90
      256
102
RTVSPost2010Prop51ColorRGB
 90
-16777216
102
RTVSPost2010PropOp51
 70
     0
102
RTVSPost2010Prop52
140
1.0
102
RTVSPost2010PropOp52
 70
     0
102
RTVSPost2010Prop53
 90
        2
102
RTVSPost2010PropOp53
 70
     0
102
RTVSPost2010Prop54
  1
strokes_ogs.tif
102
RTVSPost2010PropOp54
 70
     0
102
RTVSPost2010Prop55
280
     0
102
RTVSPost2010PropOp55
 70
     0
102
RTVSPost2010Prop56
140
1.0
102
RTVSPost2010PropOp56
 70
     0
102
RTVSPost2010Prop57
140
1.0
102
RTVSPost2010PropOp57
 70
     0
  0
XRECORD
  5
2B9
102
{ACAD_REACTORS
330
2B8
102
}
330
2B8
100
AcDbXrecord
280
     1
102
RTVSPropertyOp0
 70
     1
102
RTVSPropertyOp1
 70
     1
102
RTVSPropertyOp2
 70
     1
102
RTVSPropertyOp3
 70
     1
102
RTVSPropertyOp4
 70
     1
102
RTVSPropertyOp5
 70
     1
102
RTVSPropertyOp6
 70
     1
102
RTVSPropertyOp7
 70
     1
102
RTVSPropertyOp8
 70
     1
102
RTVSPropertyOp9
 70
     1
102
RTVSPropertyOp10
 70
     1
102
RTVSPropertyOp11
 70
     1
102
RTVSPropertyOp12
 70
     1
102
RTVSPropertyOp13
 70
     1
102
RTVSPropertyOp14
 70
     1
102
RTVSPropertyOp15
 70
     1
102
RTVSPropertyOp16
 70
     1
102
RTVSPropertyOp17
 70
     1
102
RTVSPropertyOp18
 70
     1
102
RTVSPropertyOp19
 70
     1
102
RTVSPropertyOp20
 70
     1
102
RTVSPropertyOp21
 70
     1
102
RTVSPropertyOp22
 70
     1
102
RTVSPropertyOp23
 70
     1
102
RTVSPropertyOp24
 70
     1
102
RTVSPropertyOp25
 70
     1
102
RTVSPropertyOp26
 70
     1
102
RTVSPropertyOp27
 70
     1
102
RTVSPropertyOp28
 70
     1
102
RTVSPropertyOp29
 70
     1
102
RTVSPropertyOp30
 70
     1
102
RTVSPropertyOp31
 70
     1
102
RTVSPropertyOp32
 70
     1
102
RTVSPropertyOp33
 70
     1
102
RTVSPropertyOp34
 70
     1
102
RTVSPropertyOp35
 70
     1
102
RTVSPropertyOp36
 70
     1
102
RTVSPropertyOp37
 70
     1
102
RTVSPropertyOp38
 70
     1
102
RTVSPropertyOp39
 70
     1
102
RTVSPropertyOp40
 70
     1
102
RTVSPropertyOp41
 70
     1
102
RTVSPropertyOp42
 70
     1
102
RTVSPropertyOp43
 70
     1
102
RTVSPropertyOp44
 70
     1
102
RTVSPropertyOp45
 70
     1
102
RTVSPropertyOp46
 70
     1
102
RTVSPropertyOp47
 70
     1
102
RTVSPropertyOp48
 70
     1
102
RTVSPropertyOp49
 70
     1
102
RTVSPropertyOp50
 70
     1
102
RTVSPropertyOp51
 70
     0
102
RTVSPropertyOp52
 70
     0
102
RTVSPropertyOp53
 70
     1
102
RTVSPropertyOp54
 70
     1
102
RTVSPropertyOp55
 70
     1
102
RTVSPropertyOp56
 70
     1
102
RTVSPropertyOp57
 70
     1
102
RTVSPost2010Prop28
280
     0
102
RTVSPost2010PropOp28
 70
     1
102
RTVSPost2010Prop29
280
     1
102
RTVSPost2010PropOp29
 70
     1
102
RTVSPost2010Prop30
280
     1
102
RTVSPost2010PropOp30
 70
     1
102
RTVSPost2010Prop31
280
     0
102
RTVSPost2010PropOp31
 70
     1
102
RTVSPost2010Prop32
280
     0
102
RTVSPost2010PropOp32
 70
     1
102
RTVSPost2010Prop33
280
     0
102
RTVSPost2010PropOp33
 70
     1
102
RTVSPost2010Prop34
280
     0
102
RTVSPost2010PropOp34
 70
     1
102
RTVSPost2010Prop35
280
     0
102
RTVSPost2010PropOp35
 70
     1
102
RTVSPost2010Prop36
280
     0
102
RTVSPost2010PropOp36
 70
     1
102
RTVSPost2010Prop37
 90
       50
102
RTVSPost2010PropOp37
 70
     1
102
RTVSPost2010Prop38
140
0.0
102
RTVSPost2010PropOp38
 70
     1
102
RTVSPost2010Prop39
140
1.0
102
RTVSPost2010PropOp39
 70
     1
102
RTVSPost2010Prop40
 90
        0
102
RTVSPost2010PropOp40
 70
     1
102
RTVSPost2010Prop41ColorIndex
 90
      178
102
RTVSPost2010Prop41ColorRGB
 90
        0
102
RTVSPost2010PropOp41
 70
     1
102
RTVSPost2010Prop42
 90
       50
102
RTVSPost2010PropOp42
 70
     1
102
RTVSPost2010Prop43
 90
        3
102
RTVSPost2010PropOp43
 70
     1
102
RTVSPost2010Prop44ColorIndex
 90
        5
102
RTVSPost2010Prop44ColorRGB
 90
      255
102
RTVSPost2010PropOp44
 70
     1
102
RTVSPost2010Prop45
280
     0
102
RTVSPost2010PropOp45
 70
     1
102
RTVSPost2010Prop46
 90
       50
102
RTVSPost2010PropOp46
 70
     1
102
RTVSPost2010Prop47
 90
       50
102
RTVSPost2010PropOp47
 70
     1
102
RTVSPost2010Prop48
 90
       50
102
RTVSPost2010PropOp48
 70
     1
102
RTVSPost2010Prop49
280
     0
102
RTVSPost2010PropOp49
 70
     1
102
RTVSPost2010Prop50
 90
       50
102
RTVSPost2010PropOp50
 70
     1
102
RTVSPost2010Prop51ColorIndex
 90
      256
102
RTVSPost2010Prop51ColorRGB
 90
-16777216
102
RTVSPost2010PropOp51
 70
     0
102
RTVSPost2010Prop52
140
1.0
102
RTVSPost2010PropOp52
 70
     0
102
RTVSPost2010Prop53
 90
        2
102
RTVSPost2010PropOp53
 70
     1
102
RTVSPost2010Prop54
  1
strokes_ogs.tif
102
RTVSPost2010PropOp54
 70
     1
102
RTVSPost2010Prop55
280
     0
102
RTVSPost2010PropOp55
 70
     1
102
RTVSPost2010Prop56
140
1.0
102
RTVSPost2010PropOp56
 70
     1
102
RTVSPost2010Prop57
140
1.0
102
RTVSPost2010PropOp57
 70
     1
  0
XRECORD
  5
2C1
102
{ACAD_REACTORS
330
2C0
102
}
330
2C0
100
AcDbXrecord
280
     1
102
RTVSPropertyOp0
 70
     0
102
RTVSPropertyOp1
 70
     0
102
RTVSPropertyOp2
 70
     0
102
RTVSPropertyOp3
 70
     0
102
RTVSPropertyOp4
 70
     0
102
RTVSPropertyOp5
 70
     0
102
RTVSPropertyOp6
 70
     0
102
RTVSPropertyOp7
 70
     0
102
RTVSPropertyOp8
 70
     0
102
RTVSPropertyOp9
 70
     0
102
RTVSPropertyOp10
 70
     0
102
RTVSPropertyOp11
 70
     0
102
RTVSPropertyOp12
 70
     0
102
RTVSPropertyOp13
 70
     0
102
RTVSPropertyOp14
 70
     2
102
RTVSPropertyOp15
 70
     0
102
RTVSPropertyOp16
 70
     0
102
RTVSPropertyOp17
 70
     0
102
RTVSPropertyOp18
 70
     0
102
RTVSPropertyOp19
 70
     0
102
RTVSPropertyOp20
 70
     0
102
RTVSPropertyOp21
 70
     0
102
RTVSPropertyOp22
 70
     0
102
RTVSPropertyOp23
 70
     0
102
RTVSPropertyOp24
 70
     0
102
RTVSPropertyOp25
 70
     0
102
RTVSPropertyOp26
 70
     0
102
RTVSPropertyOp27
 70
     0
102
RTVSPropertyOp28
 70
     0
102
RTVSPropertyOp29
 70
     0
102
RTVSPropertyOp30
 70
     0
102
RTVSPropertyOp31
 70
     0
102
RTVSPropertyOp32
 70
     0
102
RTVSPropertyOp33
 70
     0
102
RTVSPropertyOp34
 70
     0
102
RTVSPropertyOp35
 70
     0
102
RTVSPropertyOp36
 70
     0
102
RTVSPropertyOp37
 70
     0
102
RTVSPropertyOp38
 70
     0
102
RTVSPropertyOp39
 70
     0
102
RTVSPropertyOp40
 70
     0
102
RTVSPropertyOp41
 70
     0
102
RTVSPropertyOp42
 70
     0
102
RTVSPropertyOp43
 70
     0
102
RTVSPropertyOp44
 70
     0
102
RTVSPropertyOp45
 70
     0
102
RTVSPropertyOp46
 70
     0
102
RTVSPropertyOp47
 70
     0
102
RTVSPropertyOp48
 70
     0
102
RTVSPropertyOp49
 70
     0
102
RTVSPropertyOp50
 70
     0
102
RTVSPropertyOp51
 70
     0
102
RTVSPropertyOp52
 70
     0
102
RTVSPropertyOp53
 70
     0
102
RTVSPropertyOp54
 70
     0
102
RTVSPropertyOp55
 70
     0
102
RTVSPropertyOp56
 70
     0
102
RTVSPropertyOp57
 70
     0
102
RTVSPost2010Prop28
280
     0
102
RTVSPost2010PropOp28
 70
     0
102
RTVSPost2010Prop29
280
     1
102
RTVSPost2010PropOp29
 70
     0
102
RTVSPost2010Prop30
280
     1
102
RTVSPost2010PropOp30
 70
     0
102
RTVSPost2010Prop31
280
     0
102
RTVSPost2010PropOp31
 70
     0
102
RTVSPost2010Prop32
280
     0
102
RTVSPost2010PropOp32
 70
     0
102
RTVSPost2010Prop33
280
     0
102
RTVSPost2010PropOp33
 70
     0
102
RTVSPost2010Prop34
280
     0
102
RTVSPost2010PropOp34
 70
     0
102
RTVSPost2010Prop35
280
     0
102
RTVSPost2010PropOp35
 70
     0
102
RTVSPost2010Prop36
280
     0
102
RTVSPost2010PropOp36
 70
     0
102
RTVSPost2010Prop37
 90
       50
102
RTVSPost2010PropOp37
 70
     0
102
RTVSPost2010Prop38
140
0.0
102
RTVSPost2010PropOp38
 70
     0
102
RTVSPost2010Prop39
140
1.0
102
RTVSPost2010PropOp39
 70
     0
102
RTVSPost2010Prop40
 90
        0
102
RTVSPost2010PropOp40
 70
     0
102
RTVSPost2010Prop41ColorIndex
 90
      178
102
RTVSPost2010Prop41ColorRGB
 90
        0
102
RTVSPost2010PropOp41
 70
     0
102
RTVSPost2010Prop42
 90
       50
102
RTVSPost2010PropOp42
 70
     0
102
RTVSPost2010Prop43
 90
        3
102
RTVSPost2010PropOp43
 70
     0
102
RTVSPost2010Prop44ColorIndex
 90
        5
102
RTVSPost2010Prop44ColorRGB
 90
      255
102
RTVSPost2010PropOp44
 70
     0
102
RTVSPost2010Prop45
280
     0
102
RTVSPost2010PropOp45
 70
     0
102
RTVSPost2010Prop46
 90
       50
102
RTVSPost2010PropOp46
 70
     0
102
RTVSPost2010Prop47
 90
       50
102
RTVSPost2010PropOp47
 70
     0
102
RTVSPost2010Prop48
 90
       50
102
RTVSPost2010PropOp48
 70
     0
102
RTVSPost2010Prop49
280
     0
102
RTVSPost2010PropOp49
 70
     0
102
RTVSPost2010Prop50
 90
       50
102
RTVSPost2010PropOp50
 70
     0
102
RTVSPost2010Prop51ColorIndex
 90
      256
102
RTVSPost2010Prop51ColorRGB
 90
-16777216
102
RTVSPost2010PropOp51
 70
     0
102
RTVSPost2010Prop52
140
1.0
102
RTVSPost2010PropOp52
 70
     0
102
RTVSPost2010Prop53
 90
        2
102
RTVSPost2010PropOp53
 70
     0
102
RTVSPost2010Prop54
  1
strokes_ogs.tif
102
RTVSPost2010PropOp54
 70
     0
102
RTVSPost2010Prop55
280
     0
102
RTVSPost2010PropOp55
 70
     0
102
RTVSPost2010Prop56
140
1.0
102
RTVSPost2010PropOp56
 70
     0
102
RTVSPost2010Prop57
140
1.0
102
RTVSPost2010PropOp57
 70
     0
  0
XRECORD
  5
2AF
102
{ACAD_REACTORS
330
2AE
102
}
330
2AE
100
AcDbXrecord
280
     1
102
RTVSPropertyOp0
 70
     1
102
RTVSPropertyOp1
 70
     1
102
RTVSPropertyOp2
 70
     1
102
RTVSPropertyOp3
 70
     1
102
RTVSPropertyOp4
 70
     1
102
RTVSPropertyOp5
 70
     1
102
RTVSPropertyOp6
 70
     1
102
RTVSPropertyOp7
 70
     1
102
RTVSPropertyOp8
 70
     1
102
RTVSPropertyOp9
 70
     1
102
RTVSPropertyOp10
 70
     1
102
RTVSPropertyOp11
 70
     1
102
RTVSPropertyOp12
 70
     1
102
RTVSPropertyOp13
 70
     1
102
RTVSPropertyOp14
 70
     1
102
RTVSPropertyOp15
 70
     1
102
RTVSPropertyOp16
 70
     1
102
RTVSPropertyOp17
 70
     1
102
RTVSPropertyOp18
 70
     1
102
RTVSPropertyOp19
 70
     1
102
RTVSPropertyOp20
 70
     1
102
RTVSPropertyOp21
 70
     1
102
RTVSPropertyOp22
 70
     1
102
RTVSPropertyOp23
 70
     1
102
RTVSPropertyOp24
 70
     1
102
RTVSPropertyOp25
 70
     1
102
RTVSPropertyOp26
 70
     1
102
RTVSPropertyOp27
 70
     1
102
RTVSPropertyOp28
 70
     1
102
RTVSPropertyOp29
 70
     1
102
RTVSPropertyOp30
 70
     1
102
RTVSPropertyOp31
 70
     1
102
RTVSPropertyOp32
 70
     1
102
RTVSPropertyOp33
 70
     1
102
RTVSPropertyOp34
 70
     1
102
RTVSPropertyOp35
 70
     1
102
RTVSPropertyOp36
 70
     1
102
RTVSPropertyOp37
 70
     1
102
RTVSPropertyOp38
 70
     1
102
RTVSPropertyOp39
 70
     1
102
RTVSPropertyOp40
 70
     1
102
RTVSPropertyOp41
 70
     1
102
RTVSPropertyOp42
 70
     1
102
RTVSPropertyOp43
 70
     1
102
RTVSPropertyOp44
 70
     1
102
RTVSPropertyOp45
 70
     1
102
RTVSPropertyOp46
 70
     1
102
RTVSPropertyOp47
 70
     1
102
RTVSPropertyOp48
 70
     1
102
RTVSPropertyOp49
 70
     1
102
RTVSPropertyOp50
 70
     1
102
RTVSPropertyOp51
 70
     0
102
RTVSPropertyOp52
 70
     0
102
RTVSPropertyOp53
 70
     1
102
RTVSPropertyOp54
 70
     1
102
RTVSPropertyOp55
 70
     1
102
RTVSPropertyOp56
 70
     1
102
RTVSPropertyOp57
 70
     1
102
RTVSPost2010Prop28
280
     0
102
RTVSPost2010PropOp28
 70
     1
102
RTVSPost2010Prop29
280
     1
102
RTVSPost2010PropOp29
 70
     1
102
RTVSPost2010Prop30
280
     1
102
RTVSPost2010PropOp30
 70
     1
102
RTVSPost2010Prop31
280
     0
102
RTVSPost2010PropOp31
 70
     1
102
RTVSPost2010Prop32
280
     0
102
RTVSPost2010PropOp32
 70
     1
102
RTVSPost2010Prop33
280
     0
102
RTVSPost2010PropOp33
 70
     1
102
RTVSPost2010Prop34
280
     0
102
RTVSPost2010PropOp34
 70
     1
102
RTVSPost2010Prop35
280
     0
102
RTVSPost2010PropOp35
 70
     1
102
RTVSPost2010Prop36
280
     0
102
RTVSPost2010PropOp36
 70
     1
102
RTVSPost2010Prop37
 90
       50
102
RTVSPost2010PropOp37
 70
     1
102
RTVSPost2010Prop38
140
0.0
102
RTVSPost2010PropOp38
 70
     1
102
RTVSPost2010Prop39
140
1.0
102
RTVSPost2010PropOp39
 70
     1
102
RTVSPost2010Prop40
 90
        0
102
RTVSPost2010PropOp40
 70
     1
102
RTVSPost2010Prop41ColorIndex
 90
      178
102
RTVSPost2010Prop41ColorRGB
 90
        0
102
RTVSPost2010PropOp41
 70
     1
102
RTVSPost2010Prop42
 90
       50
102
RTVSPost2010PropOp42
 70
     1
102
RTVSPost2010Prop43
 90
        3
102
RTVSPost2010PropOp43
 70
     1
102
RTVSPost2010Prop44ColorIndex
 90
        5
102
RTVSPost2010Prop44ColorRGB
 90
      255
102
RTVSPost2010PropOp44
 70
     1
102
RTVSPost2010Prop45
280
     0
102
RTVSPost2010PropOp45
 70
     1
102
RTVSPost2010Prop46
 90
       50
102
RTVSPost2010PropOp46
 70
     1
102
RTVSPost2010Prop47
 90
       50
102
RTVSPost2010PropOp47
 70
     1
102
RTVSPost2010Prop48
 90
       50
102
RTVSPost2010PropOp48
 70
     1
102
RTVSPost2010Prop49
280
     0
102
RTVSPost2010PropOp49
 70
     1
102
RTVSPost2010Prop50
 90
       50
102
RTVSPost2010PropOp50
 70
     1
102
RTVSPost2010Prop51ColorIndex
 90
      256
102
RTVSPost2010Prop51ColorRGB
 90
-16777216
102
RTVSPost2010PropOp51
 70
     0
102
RTVSPost2010Prop52
140
1.0
102
RTVSPost2010PropOp52
 70
     0
102
RTVSPost2010Prop53
 90
        2
102
RTVSPost2010PropOp53
 70
     1
102
RTVSPost2010Prop54
  1
strokes_ogs.tif
102
RTVSPost2010PropOp54
 70
     1
102
RTVSPost2010Prop55
280
     0
102
RTVSPost2010PropOp55
 70
     1
102
RTVSPost2010Prop56
140
1.0
102
RTVSPost2010PropOp56
 70
     1
102
RTVSPost2010Prop57
140
1.0
102
RTVSPost2010PropOp57
 70
     1
  0
XRECORD
  5
2CD
102
{ACAD_REACTORS
330
2CC
102
}
330
2CC
100
AcDbXrecord
280
     1
102
RTVSPropertyOp0
 70
     1
102
RTVSPropertyOp1
 70
     1
102
RTVSPropertyOp2
 70
     1
102
RTVSPropertyOp3
 70
     1
102
RTVSPropertyOp4
 70
     1
102
RTVSPropertyOp5
 70
     1
102
RTVSPropertyOp6
 70
     1
102
RTVSPropertyOp7
 70
     1
102
RTVSPropertyOp8
 70
     1
102
RTVSPropertyOp9
 70
     1
102
RTVSPropertyOp10
 70
     1
102
RTVSPropertyOp11
 70
     1
102
RTVSPropertyOp12
 70
     1
102
RTVSPropertyOp13
 70
     1
102
RTVSPropertyOp14
 70
     1
102
RTVSPropertyOp15
 70
     1
102
RTVSPropertyOp16
 70
     1
102
RTVSPropertyOp17
 70
     1
102
RTVSPropertyOp18
 70
     1
102
RTVSPropertyOp19
 70
     1
102
RTVSPropertyOp20
 70
     1
102
RTVSPropertyOp21
 70
     1
102
RTVSPropertyOp22
 70
     1
102
RTVSPropertyOp23
 70
     1
102
RTVSPropertyOp24
 70
     1
102
RTVSPropertyOp25
 70
     1
102
RTVSPropertyOp26
 70
     1
102
RTVSPropertyOp27
 70
     1
102
RTVSPropertyOp28
 70
     1
102
RTVSPropertyOp29
 70
     1
102
RTVSPropertyOp30
 70
     1
102
RTVSPropertyOp31
 70
     1
102
RTVSPropertyOp32
 70
     1
102
RTVSPropertyOp33
 70
     1
102
RTVSPropertyOp34
 70
     1
102
RTVSPropertyOp35
 70
     1
102
RTVSPropertyOp36
 70
     1
102
RTVSPropertyOp37
 70
     1
102
RTVSPropertyOp38
 70
     1
102
RTVSPropertyOp39
 70
     1
102
RTVSPropertyOp40
 70
     1
102
RTVSPropertyOp41
 70
     1
102
RTVSPropertyOp42
 70
     1
102
RTVSPropertyOp43
 70
     1
102
RTVSPropertyOp44
 70
     1
102
RTVSPropertyOp45
 70
     1
102
RTVSPropertyOp46
 70
     1
102
RTVSPropertyOp47
 70
     1
102
RTVSPropertyOp48
 70
     1
102
RTVSPropertyOp49
 70
     1
102
RTVSPropertyOp50
 70
     1
102
RTVSPropertyOp51
 70
     0
102
RTVSPropertyOp52
 70
     0
102
RTVSPropertyOp53
 70
     1
102
RTVSPropertyOp54
 70
     1
102
RTVSPropertyOp55
 70
     1
102
RTVSPropertyOp56
 70
     1
102
RTVSPropertyOp57
 70
     1
102
RTVSPost2010Prop28
280
     0
102
RTVSPost2010PropOp28
 70
     1
102
RTVSPost2010Prop29
280
     1
102
RTVSPost2010PropOp29
 70
     1
102
RTVSPost2010Prop30
280
     1
102
RTVSPost2010PropOp30
 70
     1
102
RTVSPost2010Prop31
280
     0
102
RTVSPost2010PropOp31
 70
     1
102
RTVSPost2010Prop32
280
     0
102
RTVSPost2010PropOp32
 70
     1
102
RTVSPost2010Prop33
280
     0
102
RTVSPost2010PropOp33
 70
     1
102
RTVSPost2010Prop34
280
     0
102
RTVSPost2010PropOp34
 70
     1
102
RTVSPost2010Prop35
280
     0
102
RTVSPost2010PropOp35
 70
     1
102
RTVSPost2010Prop36
280
     0
102
RTVSPost2010PropOp36
 70
     1
102
RTVSPost2010Prop37
 90
       50
102
RTVSPost2010PropOp37
 70
     1
102
RTVSPost2010Prop38
140
0.0
102
RTVSPost2010PropOp38
 70
     1
102
RTVSPost2010Prop39
140
1.0
102
RTVSPost2010PropOp39
 70
     1
102
RTVSPost2010Prop40
 90
        0
102
RTVSPost2010PropOp40
 70
     1
102
RTVSPost2010Prop41ColorIndex
 90
      178
102
RTVSPost2010Prop41ColorRGB
 90
        0
102
RTVSPost2010PropOp41
 70
     1
102
RTVSPost2010Prop42
 90
       50
102
RTVSPost2010PropOp42
 70
     1
102
RTVSPost2010Prop43
 90
        3
102
RTVSPost2010PropOp43
 70
     1
102
RTVSPost2010Prop44ColorIndex
 90
        5
102
RTVSPost2010Prop44ColorRGB
 90
      255
102
RTVSPost2010PropOp44
 70
     1
102
RTVSPost2010Prop45
280
     0
102
RTVSPost2010PropOp45
 70
     1
102
RTVSPost2010Prop46
 90
       50
102
RTVSPost2010PropOp46
 70
     1
102
RTVSPost2010Prop47
 90
       50
102
RTVSPost2010PropOp47
 70
     1
102
RTVSPost2010Prop48
 90
       50
102
RTVSPost2010PropOp48
 70
     1
102
RTVSPost2010Prop49
280
     0
102
RTVSPost2010PropOp49
 70
     1
102
RTVSPost2010Prop50
 90
       50
102
RTVSPost2010PropOp50
 70
     1
102
RTVSPost2010Prop51ColorIndex
 90
      256
102
RTVSPost2010Prop51ColorRGB
 90
-16777216
102
RTVSPost2010PropOp51
 70
     0
102
RTVSPost2010Prop52
140
1.0
102
RTVSPost2010PropOp52
 70
     0
102
RTVSPost2010Prop53
 90
        2
102
RTVSPost2010PropOp53
 70
     1
102
RTVSPost2010Prop54
  1
strokes_ogs.tif
102
RTVSPost2010PropOp54
 70
     1
102
RTVSPost2010Prop55
280
     0
102
RTVSPost2010PropOp55
 70
     1
102
RTVSPost2010Prop56
140
1.0
102
RTVSPost2010PropOp56
 70
     1
102
RTVSPost2010Prop57
140
1.0
102
RTVSPost2010PropOp57
 70
     1
  0
XRECORD
  5
2CB
102
{ACAD_REACTORS
330
2CA
102
}
330
2CA
100
AcDbXrecord
280
     1
102
RTVSPropertyOp0
 70
     1
102
RTVSPropertyOp1
 70
     1
102
RTVSPropertyOp2
 70
     1
102
RTVSPropertyOp3
 70
     1
102
RTVSPropertyOp4
 70
     1
102
RTVSPropertyOp5
 70
     1
102
RTVSPropertyOp6
 70
     1
102
RTVSPropertyOp7
 70
     1
102
RTVSPropertyOp8
 70
     1
102
RTVSPropertyOp9
 70
     1
102
RTVSPropertyOp10
 70
     1
102
RTVSPropertyOp11
 70
     1
102
RTVSPropertyOp12
 70
     1
102
RTVSPropertyOp13
 70
     1
102
RTVSPropertyOp14
 70
     1
102
RTVSPropertyOp15
 70
     1
102
RTVSPropertyOp16
 70
     1
102
RTVSPropertyOp17
 70
     1
102
RTVSPropertyOp18
 70
     1
102
RTVSPropertyOp19
 70
     1
102
RTVSPropertyOp20
 70
     1
102
RTVSPropertyOp21
 70
     1
102
RTVSPropertyOp22
 70
     1
102
RTVSPropertyOp23
 70
     1
102
RTVSPropertyOp24
 70
     1
102
RTVSPropertyOp25
 70
     1
102
RTVSPropertyOp26
 70
     1
102
RTVSPropertyOp27
 70
     1
102
RTVSPropertyOp28
 70
     1
102
RTVSPropertyOp29
 70
     1
102
RTVSPropertyOp30
 70
     1
102
RTVSPropertyOp31
 70
     1
102
RTVSPropertyOp32
 70
     1
102
RTVSPropertyOp33
 70
     1
102
RTVSPropertyOp34
 70
     1
102
RTVSPropertyOp35
 70
     1
102
RTVSPropertyOp36
 70
     1
102
RTVSPropertyOp37
 70
     1
102
RTVSPropertyOp38
 70
     1
102
RTVSPropertyOp39
 70
     1
102
RTVSPropertyOp40
 70
     1
102
RTVSPropertyOp41
 70
     1
102
RTVSPropertyOp42
 70
     1
102
RTVSPropertyOp43
 70
     1
102
RTVSPropertyOp44
 70
     1
102
RTVSPropertyOp45
 70
     1
102
RTVSPropertyOp46
 70
     1
102
RTVSPropertyOp47
 70
     1
102
RTVSPropertyOp48
 70
     1
102
RTVSPropertyOp49
 70
     1
102
RTVSPropertyOp50
 70
     1
102
RTVSPropertyOp51
 70
     0
102
RTVSPropertyOp52
 70
     0
102
RTVSPropertyOp53
 70
     1
102
RTVSPropertyOp54
 70
     1
102
RTVSPropertyOp55
 70
     1
102
RTVSPropertyOp56
 70
     1
102
RTVSPropertyOp57
 70
     1
102
RTVSPost2010Prop28
280
     0
102
RTVSPost2010PropOp28
 70
     1
102
RTVSPost2010Prop29
280
     1
102
RTVSPost2010PropOp29
 70
     1
102
RTVSPost2010Prop30
280
     1
102
RTVSPost2010PropOp30
 70
     1
102
RTVSPost2010Prop31
280
     0
102
RTVSPost2010PropOp31
 70
     1
102
RTVSPost2010Prop32
280
     0
102
RTVSPost2010PropOp32
 70
     1
102
RTVSPost2010Prop33
280
     0
102
RTVSPost2010PropOp33
 70
     1
102
RTVSPost2010Prop34
280
     0
102
RTVSPost2010PropOp34
 70
     1
102
RTVSPost2010Prop35
280
     0
102
RTVSPost2010PropOp35
 70
     1
102
RTVSPost2010Prop36
280
     0
102
RTVSPost2010PropOp36
 70
     1
102
RTVSPost2010Prop37
 90
       50
102
RTVSPost2010PropOp37
 70
     1
102
RTVSPost2010Prop38
140
0.0
102
RTVSPost2010PropOp38
 70
     1
102
RTVSPost2010Prop39
140
1.0
102
RTVSPost2010PropOp39
 70
     1
102
RTVSPost2010Prop40
 90
        0
102
RTVSPost2010PropOp40
 70
     1
102
RTVSPost2010Prop41ColorIndex
 90
      178
102
RTVSPost2010Prop41ColorRGB
 90
        0
102
RTVSPost2010PropOp41
 70
     1
102
RTVSPost2010Prop42
 90
       50
102
RTVSPost2010PropOp42
 70
     1
102
RTVSPost2010Prop43
 90
        3
102
RTVSPost2010PropOp43
 70
     1
102
RTVSPost2010Prop44ColorIndex
 90
        5
102
RTVSPost2010Prop44ColorRGB
 90
      255
102
RTVSPost2010PropOp44
 70
     1
102
RTVSPost2010Prop45
280
     0
102
RTVSPost2010PropOp45
 70
     1
102
RTVSPost2010Prop46
 90
       50
102
RTVSPost2010PropOp46
 70
     1
102
RTVSPost2010Prop47
 90
       50
102
RTVSPost2010PropOp47
 70
     1
102
RTVSPost2010Prop48
 90
       50
102
RTVSPost2010PropOp48
 70
     1
102
RTVSPost2010Prop49
280
     0
102
RTVSPost2010PropOp49
 70
     1
102
RTVSPost2010Prop50
 90
       50
102
RTVSPost2010PropOp50
 70
     1
102
RTVSPost2010Prop51ColorIndex
 90
      256
102
RTVSPost2010Prop51ColorRGB
 90
-16777216
102
RTVSPost2010PropOp51
 70
     0
102
RTVSPost2010Prop52
140
1.0
102
RTVSPost2010PropOp52
 70
     0
102
RTVSPost2010Prop53
 90
        2
102
RTVSPost2010PropOp53
 70
     1
102
RTVSPost2010Prop54
  1
strokes_ogs.tif
102
RTVSPost2010PropOp54
 70
     1
102
RTVSPost2010Prop55
280
     0
102
RTVSPost2010PropOp55
 70
     1
102
RTVSPost2010Prop56
140
1.0
102
RTVSPost2010PropOp56
 70
     1
102
RTVSPost2010Prop57
140
1.0
102
RTVSPost2010PropOp57
 70
     1
  0
XRECORD
  5
2C5
102
{ACAD_REACTORS
330
2C4
102
}
330
2C4
100
AcDbXrecord
280
     1
102
RTVSPropertyOp0
 70
     1
102
RTVSPropertyOp1
 70
     1
102
RTVSPropertyOp2
 70
     1
102
RTVSPropertyOp3
 70
     1
102
RTVSPropertyOp4
 70
     1
102
RTVSPropertyOp5
 70
     1
102
RTVSPropertyOp6
 70
     1
102
RTVSPropertyOp7
 70
     1
102
RTVSPropertyOp8
 70
     1
102
RTVSPropertyOp9
 70
     1
102
RTVSPropertyOp10
 70
     1
102
RTVSPropertyOp11
 70
     1
102
RTVSPropertyOp12
 70
     1
102
RTVSPropertyOp13
 70
     1
102
RTVSPropertyOp14
 70
     1
102
RTVSPropertyOp15
 70
     1
102
RTVSPropertyOp16
 70
     1
102
RTVSPropertyOp17
 70
     1
102
RTVSPropertyOp18
 70
     1
102
RTVSPropertyOp19
 70
     1
102
RTVSPropertyOp20
 70
     1
102
RTVSPropertyOp21
 70
     1
102
RTVSPropertyOp22
 70
     1
102
RTVSPropertyOp23
 70
     1
102
RTVSPropertyOp24
 70
     1
102
RTVSPropertyOp25
 70
     1
102
RTVSPropertyOp26
 70
     1
102
RTVSPropertyOp27
 70
     1
102
RTVSPropertyOp28
 70
     1
102
RTVSPropertyOp29
 70
     1
102
RTVSPropertyOp30
 70
     1
102
RTVSPropertyOp31
 70
     1
102
RTVSPropertyOp32
 70
     1
102
RTVSPropertyOp33
 70
     1
102
RTVSPropertyOp34
 70
     1
102
RTVSPropertyOp35
 70
     1
102
RTVSPropertyOp36
 70
     1
102
RTVSPropertyOp37
 70
     1
102
RTVSPropertyOp38
 70
     1
102
RTVSPropertyOp39
 70
     1
102
RTVSPropertyOp40
 70
     1
102
RTVSPropertyOp41
 70
     1
102
RTVSPropertyOp42
 70
     1
102
RTVSPropertyOp43
 70
     1
102
RTVSPropertyOp44
 70
     1
102
RTVSPropertyOp45
 70
     1
102
RTVSPropertyOp46
 70
     1
102
RTVSPropertyOp47
 70
     1
102
RTVSPropertyOp48
 70
     1
102
RTVSPropertyOp49
 70
     1
102
RTVSPropertyOp50
 70
     1
102
RTVSPropertyOp51
 70
     0
102
RTVSPropertyOp52
 70
     0
102
RTVSPropertyOp53
 70
     1
102
RTVSPropertyOp54
 70
     1
102
RTVSPropertyOp55
 70
     1
102
RTVSPropertyOp56
 70
     1
102
RTVSPropertyOp57
 70
     1
102
RTVSPost2010Prop28
280
     0
102
RTVSPost2010PropOp28
 70
     1
102
RTVSPost2010Prop29
280
     1
102
RTVSPost2010PropOp29
 70
     1
102
RTVSPost2010Prop30
280
     1
102
RTVSPost2010PropOp30
 70
     1
102
RTVSPost2010Prop31
280
     0
102
RTVSPost2010PropOp31
 70
     1
102
RTVSPost2010Prop32
280
     0
102
RTVSPost2010PropOp32
 70
     1
102
RTVSPost2010Prop33
280
     0
102
RTVSPost2010PropOp33
 70
     1
102
RTVSPost2010Prop34
280
     0
102
RTVSPost2010PropOp34
 70
     1
102
RTVSPost2010Prop35
280
     0
102
RTVSPost2010PropOp35
 70
     1
102
RTVSPost2010Prop36
280
     0
102
RTVSPost2010PropOp36
 70
     1
102
RTVSPost2010Prop37
 90
       50
102
RTVSPost2010PropOp37
 70
     1
102
RTVSPost2010Prop38
140
0.0
102
RTVSPost2010PropOp38
 70
     1
102
RTVSPost2010Prop39
140
1.0
102
RTVSPost2010PropOp39
 70
     1
102
RTVSPost2010Prop40
 90
        0
102
RTVSPost2010PropOp40
 70
     1
102
RTVSPost2010Prop41ColorIndex
 90
      178
102
RTVSPost2010Prop41ColorRGB
 90
        0
102
RTVSPost2010PropOp41
 70
     1
102
RTVSPost2010Prop42
 90
       50
102
RTVSPost2010PropOp42
 70
     1
102
RTVSPost2010Prop43
 90
        3
102
RTVSPost2010PropOp43
 70
     1
102
RTVSPost2010Prop44ColorIndex
 90
        5
102
RTVSPost2010Prop44ColorRGB
 90
      255
102
RTVSPost2010PropOp44
 70
     1
102
RTVSPost2010Prop45
280
     0
102
RTVSPost2010PropOp45
 70
     1
102
RTVSPost2010Prop46
 90
       50
102
RTVSPost2010PropOp46
 70
     1
102
RTVSPost2010Prop47
 90
       50
102
RTVSPost2010PropOp47
 70
     1
102
RTVSPost2010Prop48
 90
       50
102
RTVSPost2010PropOp48
 70
     1
102
RTVSPost2010Prop49
280
     0
102
RTVSPost2010PropOp49
 70
     1
102
RTVSPost2010Prop50
 90
       50
102
RTVSPost2010PropOp50
 70
     1
102
RTVSPost2010Prop51ColorIndex
 90
      256
102
RTVSPost2010Prop51ColorRGB
 90
-16777216
102
RTVSPost2010PropOp51
 70
     0
102
RTVSPost2010Prop52
140
1.0
102
RTVSPost2010PropOp52
 70
     0
102
RTVSPost2010Prop53
 90
        2
102
RTVSPost2010PropOp53
 70
     1
102
RTVSPost2010Prop54
  1
strokes_ogs.tif
102
RTVSPost2010PropOp54
 70
     1
102
RTVSPost2010Prop55
280
     0
102
RTVSPost2010PropOp55
 70
     1
102
RTVSPost2010Prop56
140
1.0
102
RTVSPost2010PropOp56
 70
     1
102
RTVSPost2010Prop57
140
1.0
102
RTVSPost2010PropOp57
 70
     1
  0
XRECORD
  5
2C7
102
{ACAD_REACTORS
330
2C6
102
}
330
2C6
100
AcDbXrecord
280
     1
102
RTVSPropertyOp0
 70
     1
102
RTVSPropertyOp1
 70
     1
102
RTVSPropertyOp2
 70
     1
102
RTVSPropertyOp3
 70
     1
102
RTVSPropertyOp4
 70
     1
102
RTVSPropertyOp5
 70
     1
102
RTVSPropertyOp6
 70
     1
102
RTVSPropertyOp7
 70
     1
102
RTVSPropertyOp8
 70
     1
102
RTVSPropertyOp9
 70
     1
102
RTVSPropertyOp10
 70
     1
102
RTVSPropertyOp11
 70
     1
102
RTVSPropertyOp12
 70
     1
102
RTVSPropertyOp13
 70
     1
102
RTVSPropertyOp14
 70
     1
102
RTVSPropertyOp15
 70
     1
102
RTVSPropertyOp16
 70
     1
102
RTVSPropertyOp17
 70
     1
102
RTVSPropertyOp18
 70
     1
102
RTVSPropertyOp19
 70
     1
102
RTVSPropertyOp20
 70
     1
102
RTVSPropertyOp21
 70
     1
102
RTVSPropertyOp22
 70
     1
102
RTVSPropertyOp23
 70
     1
102
RTVSPropertyOp24
 70
     1
102
RTVSPropertyOp25
 70
     1
102
RTVSPropertyOp26
 70
     1
102
RTVSPropertyOp27
 70
     1
102
RTVSPropertyOp28
 70
     1
102
RTVSPropertyOp29
 70
     1
102
RTVSPropertyOp30
 70
     1
102
RTVSPropertyOp31
 70
     1
102
RTVSPropertyOp32
 70
     1
102
RTVSPropertyOp33
 70
     1
102
RTVSPropertyOp34
 70
     1
102
RTVSPropertyOp35
 70
     1
102
RTVSPropertyOp36
 70
     1
102
RTVSPropertyOp37
 70
     1
102
RTVSPropertyOp38
 70
     1
102
RTVSPropertyOp39
 70
     1
102
RTVSPropertyOp40
 70
     1
102
RTVSPropertyOp41
 70
     1
102
RTVSPropertyOp42
 70
     1
102
RTVSPropertyOp43
 70
     1
102
RTVSPropertyOp44
 70
     1
102
RTVSPropertyOp45
 70
     1
102
RTVSPropertyOp46
 70
     1
102
RTVSPropertyOp47
 70
     1
102
RTVSPropertyOp48
 70
     1
102
RTVSPropertyOp49
 70
     1
102
RTVSPropertyOp50
 70
     1
102
RTVSPropertyOp51
 70
     0
102
RTVSPropertyOp52
 70
     0
102
RTVSPropertyOp53
 70
     1
102
RTVSPropertyOp54
 70
     1
102
RTVSPropertyOp55
 70
     1
102
RTVSPropertyOp56
 70
     1
102
RTVSPropertyOp57
 70
     1
102
RTVSPost2010Prop28
280
     0
102
RTVSPost2010PropOp28
 70
     1
102
RTVSPost2010Prop29
280
     1
102
RTVSPost2010PropOp29
 70
     1
102
RTVSPost2010Prop30
280
     1
102
RTVSPost2010PropOp30
 70
     1
102
RTVSPost2010Prop31
280
     0
102
RTVSPost2010PropOp31
 70
     1
102
RTVSPost2010Prop32
280
     0
102
RTVSPost2010PropOp32
 70
     1
102
RTVSPost2010Prop33
280
     0
102
RTVSPost2010PropOp33
 70
     1
102
RTVSPost2010Prop34
280
     0
102
RTVSPost2010PropOp34
 70
     1
102
RTVSPost2010Prop35
280
     0
102
RTVSPost2010PropOp35
 70
     1
102
RTVSPost2010Prop36
280
     0
102
RTVSPost2010PropOp36
 70
     1
102
RTVSPost2010Prop37
 90
       50
102
RTVSPost2010PropOp37
 70
     1
102
RTVSPost2010Prop38
140
0.0
102
RTVSPost2010PropOp38
 70
     1
102
RTVSPost2010Prop39
140
1.0
102
RTVSPost2010PropOp39
 70
     1
102
RTVSPost2010Prop40
 90
        0
102
RTVSPost2010PropOp40
 70
     1
102
RTVSPost2010Prop41ColorIndex
 90
      178
102
RTVSPost2010Prop41ColorRGB
 90
        0
102
RTVSPost2010PropOp41
 70
     1
102
RTVSPost2010Prop42
 90
       50
102
RTVSPost2010PropOp42
 70
     1
102
RTVSPost2010Prop43
 90
        3
102
RTVSPost2010PropOp43
 70
     1
102
RTVSPost2010Prop44ColorIndex
 90
        5
102
RTVSPost2010Prop44ColorRGB
 90
      255
102
RTVSPost2010PropOp44
 70
     1
102
RTVSPost2010Prop45
280
     0
102
RTVSPost2010PropOp45
 70
     1
102
RTVSPost2010Prop46
 90
       50
102
RTVSPost2010PropOp46
 70
     1
102
RTVSPost2010Prop47
 90
       50
102
RTVSPost2010PropOp47
 70
     1
102
RTVSPost2010Prop48
 90
       50
102
RTVSPost2010PropOp48
 70
     1
102
RTVSPost2010Prop49
280
     0
102
RTVSPost2010PropOp49
 70
     1
102
RTVSPost2010Prop50
 90
       50
102
RTVSPost2010PropOp50
 70
     1
102
RTVSPost2010Prop51ColorIndex
 90
      256
102
RTVSPost2010Prop51ColorRGB
 90
-16777216
102
RTVSPost2010PropOp51
 70
     0
102
RTVSPost2010Prop52
140
1.0
102
RTVSPost2010PropOp52
 70
     0
102
RTVSPost2010Prop53
 90
        2
102
RTVSPost2010PropOp53
 70
     1
102
RTVSPost2010Prop54
  1
strokes_ogs.tif
102
RTVSPost2010PropOp54
 70
     1
102
RTVSPost2010Prop55
280
     0
102
RTVSPost2010PropOp55
 70
     1
102
RTVSPost2010Prop56
140
1.0
102
RTVSPost2010PropOp56
 70
     1
102
RTVSPost2010Prop57
140
1.0
102
RTVSPost2010PropOp57
 70
     1
  0
XRECORD
  5
2B7
102
{ACAD_REACTORS
330
2B6
102
}
330
2B6
100
AcDbXrecord
280
     1
102
RTVSPropertyOp0
 70
     1
102
RTVSPropertyOp1
 70
     1
102
RTVSPropertyOp2
 70
     1
102
RTVSPropertyOp3
 70
     1
102
RTVSPropertyOp4
 70
     1
102
RTVSPropertyOp5
 70
     1
102
RTVSPropertyOp6
 70
     1
102
RTVSPropertyOp7
 70
     1
102
RTVSPropertyOp8
 70
     1
102
RTVSPropertyOp9
 70
     1
102
RTVSPropertyOp10
 70
     1
102
RTVSPropertyOp11
 70
     1
102
RTVSPropertyOp12
 70
     1
102
RTVSPropertyOp13
 70
     1
102
RTVSPropertyOp14
 70
     1
102
RTVSPropertyOp15
 70
     1
102
RTVSPropertyOp16
 70
     1
102
RTVSPropertyOp17
 70
     1
102
RTVSPropertyOp18
 70
     1
102
RTVSPropertyOp19
 70
     1
102
RTVSPropertyOp20
 70
     1
102
RTVSPropertyOp21
 70
     1
102
RTVSPropertyOp22
 70
     1
102
RTVSPropertyOp23
 70
     1
102
RTVSPropertyOp24
 70
     1
102
RTVSPropertyOp25
 70
     1
102
RTVSPropertyOp26
 70
     1
102
RTVSPropertyOp27
 70
     1
102
RTVSPropertyOp28
 70
     1
102
RTVSPropertyOp29
 70
     1
102
RTVSPropertyOp30
 70
     1
102
RTVSPropertyOp31
 70
     1
102
RTVSPropertyOp32
 70
     1
102
RTVSPropertyOp33
 70
     1
102
RTVSPropertyOp34
 70
     1
102
RTVSPropertyOp35
 70
     1
102
RTVSPropertyOp36
 70
     1
102
RTVSPropertyOp37
 70
     1
102
RTVSPropertyOp38
 70
     1
102
RTVSPropertyOp39
 70
     1
102
RTVSPropertyOp40
 70
     1
102
RTVSPropertyOp41
 70
     1
102
RTVSPropertyOp42
 70
     1
102
RTVSPropertyOp43
 70
     1
102
RTVSPropertyOp44
 70
     1
102
RTVSPropertyOp45
 70
     1
102
RTVSPropertyOp46
 70
     1
102
RTVSPropertyOp47
 70
     1
102
RTVSPropertyOp48
 70
     1
102
RTVSPropertyOp49
 70
     1
102
RTVSPropertyOp50
 70
     1
102
RTVSPropertyOp51
 70
     0
102
RTVSPropertyOp52
 70
     0
102
RTVSPropertyOp53
 70
     1
102
RTVSPropertyOp54
 70
     1
102
RTVSPropertyOp55
 70
     1
102
RTVSPropertyOp56
 70
     1
102
RTVSPropertyOp57
 70
     1
102
RTVSPost2010Prop28
280
     0
102
RTVSPost2010PropOp28
 70
     1
102
RTVSPost2010Prop29
280
     1
102
RTVSPost2010PropOp29
 70
     1
102
RTVSPost2010Prop30
280
     1
102
RTVSPost2010PropOp30
 70
     1
102
RTVSPost2010Prop31
280
     0
102
RTVSPost2010PropOp31
 70
     1
102
RTVSPost2010Prop32
280
     0
102
RTVSPost2010PropOp32
 70
     1
102
RTVSPost2010Prop33
280
     0
102
RTVSPost2010PropOp33
 70
     1
102
RTVSPost2010Prop34
280
     0
102
RTVSPost2010PropOp34
 70
     1
102
RTVSPost2010Prop35
280
     0
102
RTVSPost2010PropOp35
 70
     1
102
RTVSPost2010Prop36
280
     0
102
RTVSPost2010PropOp36
 70
     1
102
RTVSPost2010Prop37
 90
       50
102
RTVSPost2010PropOp37
 70
     1
102
RTVSPost2010Prop38
140
0.0
102
RTVSPost2010PropOp38
 70
     1
102
RTVSPost2010Prop39
140
1.0
102
RTVSPost2010PropOp39
 70
     1
102
RTVSPost2010Prop40
 90
        0
102
RTVSPost2010PropOp40
 70
     1
102
RTVSPost2010Prop41ColorIndex
 90
      178
102
RTVSPost2010Prop41ColorRGB
 90
        0
102
RTVSPost2010PropOp41
 70
     1
102
RTVSPost2010Prop42
 90
       50
102
RTVSPost2010PropOp42
 70
     1
102
RTVSPost2010Prop43
 90
        3
102
RTVSPost2010PropOp43
 70
     1
102
RTVSPost2010Prop44ColorIndex
 90
        5
102
RTVSPost2010Prop44ColorRGB
 90
      255
102
RTVSPost2010PropOp44
 70
     1
102
RTVSPost2010Prop45
280
     0
102
RTVSPost2010PropOp45
 70
     1
102
RTVSPost2010Prop46
 90
       50
102
RTVSPost2010PropOp46
 70
     1
102
RTVSPost2010Prop47
 90
       50
102
RTVSPost2010PropOp47
 70
     1
102
RTVSPost2010Prop48
 90
       50
102
RTVSPost2010PropOp48
 70
     1
102
RTVSPost2010Prop49
280
     0
102
RTVSPost2010PropOp49
 70
     1
102
RTVSPost2010Prop50
 90
       50
102
RTVSPost2010PropOp50
 70
     1
102
RTVSPost2010Prop51ColorIndex
 90
      256
102
RTVSPost2010Prop51ColorRGB
 90
-16777216
102
RTVSPost2010PropOp51
 70
     0
102
RTVSPost2010Prop52
140
1.0
102
RTVSPost2010PropOp52
 70
     0
102
RTVSPost2010Prop53
 90
        2
102
RTVSPost2010PropOp53
 70
     1
102
RTVSPost2010Prop54
  1
strokes_ogs.tif
102
RTVSPost2010PropOp54
 70
     1
102
RTVSPost2010Prop55
280
     0
102
RTVSPost2010PropOp55
 70
     1
102
RTVSPost2010Prop56
140
1.0
102
RTVSPost2010PropOp56
 70
     1
102
RTVSPost2010Prop57
140
1.0
102
RTVSPost2010PropOp57
 70
     1
  0
XRECORD
  5
2A9
102
{ACAD_REACTORS
330
2A8
102
}
330
2A8
100
AcDbXrecord
280
     1
102
RTVSPropertyOp0
 70
     1
102
RTVSPropertyOp1
 70
     1
102
RTVSPropertyOp2
 70
     1
102
RTVSPropertyOp3
 70
     1
102
RTVSPropertyOp4
 70
     1
102
RTVSPropertyOp5
 70
     1
102
RTVSPropertyOp6
 70
     1
102
RTVSPropertyOp7
 70
     1
102
RTVSPropertyOp8
 70
     1
102
RTVSPropertyOp9
 70
     1
102
RTVSPropertyOp10
 70
     1
102
RTVSPropertyOp11
 70
     1
102
RTVSPropertyOp12
 70
     1
102
RTVSPropertyOp13
 70
     1
102
RTVSPropertyOp14
 70
     1
102
RTVSPropertyOp15
 70
     1
102
RTVSPropertyOp16
 70
     1
102
RTVSPropertyOp17
 70
     1
102
RTVSPropertyOp18
 70
     1
102
RTVSPropertyOp19
 70
     1
102
RTVSPropertyOp20
 70
     1
102
RTVSPropertyOp21
 70
     1
102
RTVSPropertyOp22
 70
     1
102
RTVSPropertyOp23
 70
     1
102
RTVSPropertyOp24
 70
     1
102
RTVSPropertyOp25
 70
     1
102
RTVSPropertyOp26
 70
     1
102
RTVSPropertyOp27
 70
     1
102
RTVSPropertyOp28
 70
     1
102
RTVSPropertyOp29
 70
     1
102
RTVSPropertyOp30
 70
     1
102
RTVSPropertyOp31
 70
     1
102
RTVSPropertyOp32
 70
     1
102
RTVSPropertyOp33
 70
     1
102
RTVSPropertyOp34
 70
     1
102
RTVSPropertyOp35
 70
     1
102
RTVSPropertyOp36
 70
     1
102
RTVSPropertyOp37
 70
     1
102
RTVSPropertyOp38
 70
     1
102
RTVSPropertyOp39
 70
     1
102
RTVSPropertyOp40
 70
     1
102
RTVSPropertyOp41
 70
     1
102
RTVSPropertyOp42
 70
     1
102
RTVSPropertyOp43
 70
     1
102
RTVSPropertyOp44
 70
     1
102
RTVSPropertyOp45
 70
     1
102
RTVSPropertyOp46
 70
     1
102
RTVSPropertyOp47
 70
     1
102
RTVSPropertyOp48
 70
     1
102
RTVSPropertyOp49
 70
     1
102
RTVSPropertyOp50
 70
     1
102
RTVSPropertyOp51
 70
     0
102
RTVSPropertyOp52
 70
     0
102
RTVSPropertyOp53
 70
     1
102
RTVSPropertyOp54
 70
     1
102
RTVSPropertyOp55
 70
     1
102
RTVSPropertyOp56
 70
     1
102
RTVSPropertyOp57
 70
     1
102
RTVSPost2010Prop28
280
     0
102
RTVSPost2010PropOp28
 70
     1
102
RTVSPost2010Prop29
280
     1
102
RTVSPost2010PropOp29
 70
     1
102
RTVSPost2010Prop30
280
     1
102
RTVSPost2010PropOp30
 70
     1
102
RTVSPost2010Prop31
280
     0
102
RTVSPost2010PropOp31
 70
     1
102
RTVSPost2010Prop32
280
     0
102
RTVSPost2010PropOp32
 70
     1
102
RTVSPost2010Prop33
280
     0
102
RTVSPost2010PropOp33
 70
     1
102
RTVSPost2010Prop34
280
     0
102
RTVSPost2010PropOp34
 70
     1
102
RTVSPost2010Prop35
280
     0
102
RTVSPost2010PropOp35
 70
     1
102
RTVSPost2010Prop36
280
     0
102
RTVSPost2010PropOp36
 70
     1
102
RTVSPost2010Prop37
 90
       50
102
RTVSPost2010PropOp37
 70
     1
102
RTVSPost2010Prop38
140
0.0
102
RTVSPost2010PropOp38
 70
     1
102
RTVSPost2010Prop39
140
1.0
102
RTVSPost2010PropOp39
 70
     1
102
RTVSPost2010Prop40
 90
        0
102
RTVSPost2010PropOp40
 70
     1
102
RTVSPost2010Prop41ColorIndex
 90
      178
102
RTVSPost2010Prop41ColorRGB
 90
        0
102
RTVSPost2010PropOp41
 70
     1
102
RTVSPost2010Prop42
 90
       50
102
RTVSPost2010PropOp42
 70
     1
102
RTVSPost2010Prop43
 90
        3
102
RTVSPost2010PropOp43
 70
     1
102
RTVSPost2010Prop44ColorIndex
 90
        5
102
RTVSPost2010Prop44ColorRGB
 90
      255
102
RTVSPost2010PropOp44
 70
     1
102
RTVSPost2010Prop45
280
     0
102
RTVSPost2010PropOp45
 70
     1
102
RTVSPost2010Prop46
 90
       50
102
RTVSPost2010PropOp46
 70
     1
102
RTVSPost2010Prop47
 90
       50
102
RTVSPost2010PropOp47
 70
     1
102
RTVSPost2010Prop48
 90
       50
102
RTVSPost2010PropOp48
 70
     1
102
RTVSPost2010Prop49
280
     0
102
RTVSPost2010PropOp49
 70
     1
102
RTVSPost2010Prop50
 90
       50
102
RTVSPost2010PropOp50
 70
     1
102
RTVSPost2010Prop51ColorIndex
 90
      256
102
RTVSPost2010Prop51ColorRGB
 90
-16777216
102
RTVSPost2010PropOp51
 70
     0
102
RTVSPost2010Prop52
140
1.0
102
RTVSPost2010PropOp52
 70
     0
102
RTVSPost2010Prop53
 90
        2
102
RTVSPost2010PropOp53
 70
     1
102
RTVSPost2010Prop54
  1
strokes_ogs.tif
102
RTVSPost2010PropOp54
 70
     1
102
RTVSPost2010Prop55
280
     0
102
RTVSPost2010PropOp55
 70
     1
102
RTVSPost2010Prop56
140
1.0
102
RTVSPost2010PropOp56
 70
     1
102
RTVSPost2010Prop57
140
1.0
102
RTVSPost2010PropOp57
 70
     1
  0
XRECORD
  5
2C9
102
{ACAD_REACTORS
330
2C8
102
}
330
2C8
100
AcDbXrecord
280
     1
102
RTVSPropertyOp0
 70
     1
102
RTVSPropertyOp1
 70
     1
102
RTVSPropertyOp2
 70
     1
102
RTVSPropertyOp3
 70
     1
102
RTVSPropertyOp4
 70
     1
102
RTVSPropertyOp5
 70
     1
102
RTVSPropertyOp6
 70
     1
102
RTVSPropertyOp7
 70
     1
102
RTVSPropertyOp8
 70
     1
102
RTVSPropertyOp9
 70
     1
102
RTVSPropertyOp10
 70
     1
102
RTVSPropertyOp11
 70
     1
102
RTVSPropertyOp12
 70
     1
102
RTVSPropertyOp13
 70
     1
102
RTVSPropertyOp14
 70
     1
102
RTVSPropertyOp15
 70
     1
102
RTVSPropertyOp16
 70
     1
102
RTVSPropertyOp17
 70
     1
102
RTVSPropertyOp18
 70
     1
102
RTVSPropertyOp19
 70
     1
102
RTVSPropertyOp20
 70
     1
102
RTVSPropertyOp21
 70
     1
102
RTVSPropertyOp22
 70
     1
102
RTVSPropertyOp23
 70
     1
102
RTVSPropertyOp24
 70
     1
102
RTVSPropertyOp25
 70
     1
102
RTVSPropertyOp26
 70
     1
102
RTVSPropertyOp27
 70
     1
102
RTVSPropertyOp28
 70
     1
102
RTVSPropertyOp29
 70
     1
102
RTVSPropertyOp30
 70
     1
102
RTVSPropertyOp31
 70
     1
102
RTVSPropertyOp32
 70
     1
102
RTVSPropertyOp33
 70
     1
102
RTVSPropertyOp34
 70
     1
102
RTVSPropertyOp35
 70
     1
102
RTVSPropertyOp36
 70
     1
102
RTVSPropertyOp37
 70
     1
102
RTVSPropertyOp38
 70
     1
102
RTVSPropertyOp39
 70
     1
102
RTVSPropertyOp40
 70
     1
102
RTVSPropertyOp41
 70
     1
102
RTVSPropertyOp42
 70
     1
102
RTVSPropertyOp43
 70
     1
102
RTVSPropertyOp44
 70
     1
102
RTVSPropertyOp45
 70
     1
102
RTVSPropertyOp46
 70
     1
102
RTVSPropertyOp47
 70
     1
102
RTVSPropertyOp48
 70
     1
102
RTVSPropertyOp49
 70
     1
102
RTVSPropertyOp50
 70
     1
102
RTVSPropertyOp51
 70
     0
102
RTVSPropertyOp52
 70
     0
102
RTVSPropertyOp53
 70
     1
102
RTVSPropertyOp54
 70
     1
102
RTVSPropertyOp55
 70
     1
102
RTVSPropertyOp56
 70
     1
102
RTVSPropertyOp57
 70
     1
102
RTVSPost2010Prop28
280
     0
102
RTVSPost2010PropOp28
 70
     1
102
RTVSPost2010Prop29
280
     1
102
RTVSPost2010PropOp29
 70
     1
102
RTVSPost2010Prop30
280
     1
102
RTVSPost2010PropOp30
 70
     1
102
RTVSPost2010Prop31
280
     0
102
RTVSPost2010PropOp31
 70
     1
102
RTVSPost2010Prop32
280
     0
102
RTVSPost2010PropOp32
 70
     1
102
RTVSPost2010Prop33
280
     0
102
RTVSPost2010PropOp33
 70
     1
102
RTVSPost2010Prop34
280
     0
102
RTVSPost2010PropOp34
 70
     1
102
RTVSPost2010Prop35
280
     0
102
RTVSPost2010PropOp35
 70
     1
102
RTVSPost2010Prop36
280
     0
102
RTVSPost2010PropOp36
 70
     1
102
RTVSPost2010Prop37
 90
       50
102
RTVSPost2010PropOp37
 70
     1
102
RTVSPost2010Prop38
140
0.0
102
RTVSPost2010PropOp38
 70
     1
102
RTVSPost2010Prop39
140
1.0
102
RTVSPost2010PropOp39
 70
     1
102
RTVSPost2010Prop40
 90
        0
102
RTVSPost2010PropOp40
 70
     1
102
RTVSPost2010Prop41ColorIndex
 90
      178
102
RTVSPost2010Prop41ColorRGB
 90
        0
102
RTVSPost2010PropOp41
 70
     1
102
RTVSPost2010Prop42
 90
       50
102
RTVSPost2010PropOp42
 70
     1
102
RTVSPost2010Prop43
 90
        3
102
RTVSPost2010PropOp43
 70
     1
102
RTVSPost2010Prop44ColorIndex
 90
        5
102
RTVSPost2010Prop44ColorRGB
 90
      255
102
RTVSPost2010PropOp44
 70
     1
102
RTVSPost2010Prop45
280
     0
102
RTVSPost2010PropOp45
 70
     1
102
RTVSPost2010Prop46
 90
       50
102
RTVSPost2010PropOp46
 70
     1
102
RTVSPost2010Prop47
 90
       50
102
RTVSPost2010PropOp47
 70
     1
102
RTVSPost2010Prop48
 90
       50
102
RTVSPost2010PropOp48
 70
     1
102
RTVSPost2010Prop49
280
     0
102
RTVSPost2010PropOp49
 70
     1
102
RTVSPost2010Prop50
 90
       50
102
RTVSPost2010PropOp50
 70
     1
102
RTVSPost2010Prop51ColorIndex
 90
      256
102
RTVSPost2010Prop51ColorRGB
 90
-16777216
102
RTVSPost2010PropOp51
 70
     0
102
RTVSPost2010Prop52
140
1.0
102
RTVSPost2010PropOp52
 70
     0
102
RTVSPost2010Prop53
 90
        2
102
RTVSPost2010PropOp53
 70
     1
102
RTVSPost2010Prop54
  1
strokes_ogs.tif
102
RTVSPost2010PropOp54
 70
     1
102
RTVSPost2010Prop55
280
     0
102
RTVSPost2010PropOp55
 70
     1
102
RTVSPost2010Prop56
140
1.0
102
RTVSPost2010PropOp56
 70
     1
102
RTVSPost2010Prop57
140
1.0
102
RTVSPost2010PropOp57
 70
     1
  0
ENDSEC
  0
EOF
