  0
SECTION
  2
HEADER
  9
$ACADVER
  1
AC1024
  9
$ACADMAINTVER
 70
     6
  9
$DWGCODEPAGE
  3
ANSI_1252
  9
$INSBASE
 10
0.0
 20
0.0
 30
0.0
  9
$EXTMIN
 10
1.000000000000000E+20
 20
1.000000000000000E+20
 30
1.000000000000000E+20
  9
$EXTMAX
 10
-1.000000000000000E+20
 20
-1.000000000000000E+20
 30
-1.000000000000000E+20
  9
$LIMMIN
 10
0.0
 20
0.0
  9
$LIMMAX
 10
12.0
 20
9.0
  9
$ORTHOMODE
 70
     0
  9
$REGENMODE
 70
     1
  9
$FILLMODE
 70
     1
  9
$QTEXTMODE
 70
     0
  9
$MIRRTEXT
 70
     1
  9
$LTSCALE
 40
1.0
  9
$ATTMODE
 70
     1
  9
$TEXTSIZE
 40
0.2
  9
$TRACEWID
 40
0.05
  9
$TEXTSTYLE
  7
Standard
  9
$CLAYER
  8
0
  9
$CELTYPE
  6
ByLayer
  9
$CECOLOR
 62
   256
  9
$CELTSCALE
 40
1.0
  9
$DISPSILH
 70
     0
  9
$DIMSCALE
 40
1.0
  9
$DIMASZ
 40
0.18
  9
$DIMEXO
 40
0.0625
  9
$DIMDLI
 40
0.38
  9
$DIMRND
 40
0.0
  9
$DIMDLE
 40
0.0
  9
$DIMEXE
 40
0.18
  9
$DIMTP
 40
0.0
  9
$DIMTM
 40
0.0
  9
$DIMTXT
 40
0.18
  9
$DIMCEN
 40
0.09
  9
$DIMTSZ
 40
0.0
  9
$DIMTOL
 70
     0
  9
$DIMLIM
 70
     0
  9
$DIMTIH
 70
     1
  9
$DIMTOH
 70
     1
  9
$DIMSE1
 70
     0
  9
$DIMSE2
 70
     0
  9
$DIMTAD
 70
     0
  9
$DIMZIN
 70
     0
  9
$DIMBLK
  1

  9
$DIMASO
 70
     1
  9
$DIMSHO
 70
     1
  9
$DIMPOST
  1

  9
$DIMAPOST
  1

  9
$DIMALT
 70
     0
  9
$DIMALTD
 70
     2
  9
$DIMALTF
 40
25.4
  9
$DIMLFAC
 40
1.0
  9
$DIMTOFL
 70
     0
  9
$DIMTVP
 40
0.0
  9
$DIMTIX
 70
     0
  9
$DIMSOXD
 70
     0
  9
$DIMSAH
 70
     0
  9
$DIMBLK1
  1

  9
$DIMBLK2
  1

  9
$DIMSTYLE
  2
Standard
  9
$DIMCLRD
 70
     0
  9
$DIMCLRE
 70
     0
  9
$DIMCLRT
 70
     0
  9
$DIMTFAC
 40
1.0
  9
$DIMGAP
 40
0.09
  9
$DIMJUST
 70
     0
  9
$DIMSD1
 70
     0
  9
$DIMSD2
 70
     0
  9
$DIMTOLJ
 70
     1
  9
$DIMTZIN
 70
     0
  9
$DIMALTZ
 70
     0
  9
$DIMALTTZ
 70
     0
  9
$DIMUPT
 70
     0
  9
$DIMDEC
 70
     4
  9
$DIMTDEC
 70
     4
  9
$DIMALTU
 70
     2
  9
$DIMALTTD
 70
     2
  9
$DIMTXSTY
  7
Standard
  9
$DIMAUNIT
 70
     0
  9
$DIMADEC
 70
     0
  9
$DIMALTRND
 40
0.0
  9
$DIMAZIN
 70
     0
  9
$DIMDSEP
 70
    46
  9
$DIMATFIT
 70
     3
  9
$DIMFRAC
 70
     0
  9
$DIMLDRBLK
  1

  9
$DIMLUNIT
 70
     2
  9
$DIMLWD
 70
    -2
  9
$DIMLWE
 70
    -2
  9
$DIMTMOVE
 70
     0
  9
$DIMFXL
 40
1.0
  9
$DIMFXLON
 70
     0
  9
$DIMJOGANG
 40
0.7853981633974483
  9
$DIMTFILL
 70
     0
  9
$DIMTFILLCLR
 70
     0
  9
$DIMARCSYM
 70
     0
  9
$DIMLTYPE
  6

  9
$DIMLTEX1
  6

  9
$DIMLTEX2
  6

  9
$DIMTXTDIRECTION
 70
     0
  9
$LUNITS
 70
     2
  9
$LUPREC
 70
     4
  9
$SKETCHINC
 40
0.1
  9
$FILLETRAD
 40
0.5
  9
$AUNITS
 70
     0
  9
$AUPREC
 70
     0
  9
$MENU
  1
.
  9
$ELEVATION
 40
0.0
  9
$PELEVATION
 40
0.0
  9
$THICKNESS
 40
0.0
  9
$LIMCHECK
 70
     0
  9
$CHAMFERA
 40
0.0
  9
$CHAMFERB
 40
0.0
  9
$CHAMFERC
 40
0.0
  9
$CHAMFERD
 40
0.0
  9
$SKPOLY
 70
     0
  9
$TDCREATE
 40
2459818.609907396
  9
$TDUCREATE
 40
2459818.568240741
  9
$TDUPDATE
 40
2459818.609930544
  9
$TDUUPDATE
 40
2459818.568263889
  9
$TDINDWG
 40
0.0000000116
  9
$TDUSRTIMER
 40
0.0000000116
  9
$USRTIMER
 70
     1
  9
$ANGBASE
 50
0.0
  9
$ANGDIR
 70
     0
  9
$PDMODE
 70
     0
  9
$PDSIZE
 40
0.0
  9
$PLINEWID
 40
0.0
  9
$SPLFRAME
 70
     0
  9
$SPLINETYPE
 70
     6
  9
$SPLINESEGS
 70
     8
  9
$HANDSEED
  5
1CA
  9
$SURFTAB1
 70
     6
  9
$SURFTAB2
 70
     6
  9
$SURFTYPE
 70
     6
  9
$SURFU
 70
     6
  9
$SURFV
 70
     6
  9
$UCSBASE
  2

  9
$UCSNAME
  2

  9
$UCSORG
 10
0.0
 20
0.0
 30
0.0
  9
$UCSXDIR
 10
1.0
 20
0.0
 30
0.0
  9
$UCSYDIR
 10
0.0
 20
1.0
 30
0.0
  9
$UCSORTHOREF
  2

  9
$UCSORTHOVIEW
 70
     0
  9
$UCSORGTOP
 10
0.0
 20
0.0
 30
0.0
  9
$UCSORGBOTTOM
 10
0.0
 20
0.0
 30
0.0
  9
$UCSORGLEFT
 10
0.0
 20
0.0
 30
0.0
  9
$UCSORGRIGHT
 10
0.0
 20
0.0
 30
0.0
  9
$UCSORGFRONT
 10
0.0
 20
0.0
 30
0.0
  9
$UCSORGBACK
 10
0.0
 20
0.0
 30
0.0
  9
$PUCSBASE
  2

  9
$PUCSNAME
  2

  9
$PUCSORG
 10
0.0
 20
0.0
 30
0.0
  9
$PUCSXDIR
 10
1.0
 20
0.0
 30
0.0
  9
$PUCSYDIR
 10
0.0
 20
1.0
 30
0.0
  9
$PUCSORTHOREF
  2

  9
$PUCSORTHOVIEW
 70
     0
  9
$PUCSORGTOP
 10
0.0
 20
0.0
 30
0.0
  9
$PUCSORGBOTTOM
 10
0.0
 20
0.0
 30
0.0
  9
$PUCSORGLEFT
 10
0.0
 20
0.0
 30
0.0
  9
$PUCSORGRIGHT
 10
0.0
 20
0.0
 30
0.0
  9
$PUCSORGFRONT
 10
0.0
 20
0.0
 30
0.0
  9
$PUCSORGBACK
 10
0.0
 20
0.0
 30
0.0
  9
$USERI1
 70
     0
  9
$USERI2
 70
     0
  9
$USERI3
 70
     0
  9
$USERI4
 70
     0
  9
$USERI5
 70
     0
  9
$USERR1
 40
0.0
  9
$USERR2
 40
0.0
  9
$USERR3
 40
0.0
  9
$USERR4
 40
0.0
  9
$USERR5
 40
0.0
  9
$WORLDVIEW
 70
     1
  9
$SHADEDGE
 70
     3
  9
$SHADEDIF
 70
    70
  9
$TILEMODE
 70
     0
  9
$MAXACTVP
 70
    64
  9
$PINSBASE
 10
0.0
 20
0.0
 30
0.0
  9
$PLIMCHECK
 70
     0
  9
$PEXTMIN
 10
1.000000000000000E+20
 20
1.000000000000000E+20
 30
1.000000000000000E+20
  9
$PEXTMAX
 10
-1.000000000000000E+20
 20
-1.000000000000000E+20
 30
-1.000000000000000E+20
  9
$PLIMMIN
 10
0.0
 20
0.0
  9
$PLIMMAX
 10
12.0
 20
9.0
  9
$UNITMODE
 70
     0
  9
$VISRETAIN
 70
     1
  9
$PLINEGEN
 70
     0
  9
$PSLTSCALE
 70
     0
  9
$TREEDEPTH
 70
  3020
  9
$CMLSTYLE
  2
Standard
  9
$CMLJUST
 70
     0
  9
$CMLSCALE
 40
1.0
  9
$PROXYGRAPHICS
 70
     1
  9
$MEASUREMENT
 70
     0
  9
$CELWEIGHT
370
    -1
  9
$ENDCAPS
280
     0
  9
$JOINSTYLE
280
     0
  9
$LWDISPLAY
290
     1
  9
$INSUNITS
 70
     6
  9
$HYPERLINKBASE
  1

  9
$STYLESHEET
  1

  9
$XEDIT
290
     1
  9
$CEPSNTYPE
380
     0
  9
$PSTYLEMODE
290
     1
  9
$FINGERPRINTGUID
  2
{8B383E8F-5CD3-683F-4445-4D1DFBA2BB15}
  9
$VERSIONGUID
  2
{FAEB1C32-E019-11D5-929B-00C0DF256EC4}
  9
$EXTNAMES
290
     1
  9
$PSVPSCALE
 40
0.0
  9
$OLESTARTUP
290
     0
  9
$SORTENTS
280
   127
  9
$INDEXCTL
280
     0
  9
$HIDETEXT
280
     1
  9
$XCLIPFRAME
280
     0
  9
$HALOGAP
280
     0
  9
$OBSCOLOR
 70
   257
  9
$OBSLTYPE
280
     0
  9
$INTERSECTIONDISPLAY
280
     0
  9
$INTERSECTIONCOLOR
 70
   257
  9
$DIMASSOC
280
     2
  9
$PROJECTNAME
  1

  9
$CAMERADISPLAY
290
     0
  9
$LENSLENGTH
 40
50.0
  9
$CAMERAHEIGHT
 40
0.0
  9
$STEPSPERSEC
 40
2.0
  9
$STEPSIZE
 40
6.0
  9
$3DDWFPREC
 40
2.0
  9
$PSOLWIDTH
 40
0.25
  9
$PSOLHEIGHT
 40
4.0
  9
$LOFTANG1
 40
1.570796326794897
  9
$LOFTANG2
 40
1.570796326794897
  9
$LOFTMAG1
 40
0.0
  9
$LOFTMAG2
 40
0.0
  9
$LOFTPARAM
 70
     7
  9
$LOFTNORMALS
280
     1
  9
$LATITUDE
 40
37.795
  9
$LONGITUDE
 40
-122.394
  9
$NORTHDIRECTION
 40
0.0
  9
$TIMEZONE
 70
 -8000
  9
$LIGHTGLYPHDISPLAY
280
     1
  9
$TILEMODELIGHTSYNCH
280
     1
  9
$CMATERIAL
347
44
  9
$SOLIDHIST
280
     1
  9
$SHOWHIST
280
     1
  9
$DWFFRAME
280
     2
  9
$DGNFRAME
280
     2
  9
$REALWORLDSCALE
290
     1
  9
$INTERFERECOLOR
 62
   256
  9
$CSHADOW
280
     0
  9
$SHADOWPLANELOCATION
 40
0.0
  0
ENDSEC
  0
SECTION
  2
CLASSES
  0
CLASS
  1
ACDBDICTIONARYWDFLT
  2
AcDbDictionaryWithDefault
  3
ObjectDBX Classes
 90
        0
 91
        4
280
     0
281
     0
  0
CLASS
  1
VISUALSTYLE
  2
AcDbVisualStyle
  3
ObjectDBX Classes
 90
     4095
 91
        4
280
     0
281
     0
  0
CLASS
  1
MATERIAL
  2
AcDbMaterial
  3
ObjectDBX Classes
 90
     1153
 91
        4
280
     0
281
     0
  0
CLASS
  1
SCALE
  2
AcDbScale
  3
ObjectDBX Classes
 90
     1153
 91
        4
280
     0
281
     0
  0
CLASS
  1
SUN
  2
AcDbSun
  3
SCENEOE
 90
     1153
 91
        4
280
     0
281
     0
  0
CLASS
  1
WIPEOUT
  2
AcDbWipeout
  3
WipeOut|AutoCAD Express Tool|expresstools@autodesk.com
 90
      127
 91
        4
280
     0
281
     1
  0
CLASS
  1
DICTIONARYVAR
  2
AcDbDictionaryVar
  3
ObjectDBX Classes
 90
        0
 91
        4
280
     0
281
     0
  0
ENDSEC
  0
SECTION
  2
TABLES
  0
TABLE
  2
VPORT
  5
8
330
0
100
AcDbSymbolTable
 70
     1
  0
VPORT
  5
29
330
8
100
AcDbSymbolTableRecord
100
AcDbViewportTableRecord
  2
*Active
 70
     0
 10
0.0
 20
0.0
 11
1.0
 21
1.0
 12
10.42990654205607
 22
4.5
 13
0.0
 23
0.0
 14
0.5
 24
0.5
 15
0.5
 25
0.5
 16
0.0
 26
0.0
 36
1.0
 17
0.0
 27
0.0
 37
0.0
 40
9.0
 41
1.972972972850329
 42
50.0
 43
0.0
 44
0.0
 50
0.0
 51
0.0
 71
     0
 72
   100
 73
     1
 74
     3
 75
     0
 76
     0
 77
     0
 78
     0
281
     0
 65
     1
110
0.0
120
0.0
130
0.0
111
1.0
121
0.0
131
0.0
112
0.0
122
1.0
132
0.0
 79
     0
146
0.0
 60
     3
 61
     5
292
     1
282
     1
141
0.0
142
0.0
 63
   250
361
69
  0
ENDTAB
  0
TABLE
  2
LTYPE
  5
5
330
0
100
AcDbSymbolTable
 70
     5
  0
LTYPE
  5
14
330
5
100
AcDbSymbolTableRecord
100
AcDbLinetypeTableRecord
  2
ByBlock
 70
     0
  3

 72
    65
 73
     0
 40
0.0
  0
LTYPE
  5
15
330
5
100
AcDbSymbolTableRecord
100
AcDbLinetypeTableRecord
  2
ByLayer
 70
     0
  3

 72
    65
 73
     0
 40
0.0
  0
LTYPE
  5
16
330
5
100
AcDbSymbolTableRecord
100
AcDbLinetypeTableRecord
  2
Continuous
 70
     0
  3
Solid line
 72
    65
 73
     0
 40
0.0
  0
LTYPE
  5
92
330
5
100
AcDbSymbolTableRecord
100
AcDbLinetypeTableRecord
  2
Strich 2_1mm
 70
     0
  3
- - - - - 
 72
    65
 73
     2
 40
0.006
 49
0.004
 74
     0
 49
-0.002
 74
     0
  0
LTYPE
  5
F1
330
5
100
AcDbSymbolTableRecord
100
AcDbLinetypeTableRecord
  2
PUNKT
 70
     0
  3
- - - - - 
 72
    65
 73
     2
 40
0.0635
 49
0.0
 74
     0
 49
-0.0635
 74
     0
  0
LTYPE
  5
148
330
5
100
AcDbSymbolTableRecord
100
AcDbLinetypeTableRecord
  2
STRICHLINIE__LANG
 70
     0
  3
- - - - - 
 72
    65
 73
     2
 40
0.021167
 49
0.0127
 74
     0
 49
-0.008467
 74
     0
  0
LTYPE
  5
15D
330
5
100
AcDbSymbolTableRecord
100
AcDbLinetypeTableRecord
  2
STRICHLINIE_S4
 70
     0
  3
- - - - - 
 72
    65
 73
     2
 40
0.01
 49
0.005
 74
     0
 49
-0.005
 74
     0
  0
ENDTAB
  0
TABLE
  2
LAYER
  5
2
330
0
100
AcDbSymbolTable
 70
     3
  0
LAYER
  5
10
330
2
100
AcDbSymbolTableRecord
100
AcDbLayerTableRecord
  2
0
 70
     0
 62
     7
  6
Continuous
370
    -3
390
F
347
46
  0
LAYER
  5
6C
330
2
100
AcDbSymbolTableRecord
100
AcDbLayerTableRecord
  2
000 Kataster
 70
     0
 62
     7
  6
Continuous
370
    -3
390
F
347
46
  0
LAYER
  5
161
330
2
100
AcDbSymbolTableRecord
100
AcDbLayerTableRecord
  2
NonPlottable_000 Kataster
 70
     0
 62
     7
  6
Continuous
290
     0
370
    -3
390
F
347
46
  0
ENDTAB
  0
TABLE
  2
STYLE
  5
3
330
0
100
AcDbSymbolTable
 70
     2
  0
STYLE
  5
11
330
3
100
AcDbSymbolTableRecord
100
AcDbTextStyleTableRecord
  2
Standard
 70
     0
 40
0.0
 41
1.0
 50
0.0
 71
     0
 42
0.2
  3
txt
  4

  0
STYLE
  5
182
330
3
100
AcDbSymbolTableRecord
100
AcDbTextStyleTableRecord
  2
ERSTELLTER_STIL_1
 70
     0
 40
0.0
 41
1.0
 50
0.0
 71
     0
 42
0.2
  3

  4

1001
ACAD
1000
Arial
1071
       34
  0
ENDTAB
  0
TABLE
  2
VIEW
  5
6
330
0
100
AcDbSymbolTable
 70
     0
  0
ENDTAB
  0
TABLE
  2
UCS
  5
7
330
0
100
AcDbSymbolTable
 70
     0
  0
ENDTAB
  0
TABLE
  2
APPID
  5
9
330
0
100
AcDbSymbolTable
 70
     1
  0
APPID
  5
12
330
9
100
AcDbSymbolTableRecord
100
AcDbRegAppTableRecord
  2
ACAD
 70
     0
  0
ENDTAB
  0
TABLE
  2
DIMSTYLE
  5
A
330
0
100
AcDbSymbolTable
 70
     1
100
AcDbDimStyleTable
  0
DIMSTYLE
105
27
330
A
100
AcDbSymbolTableRecord
100
AcDbDimStyleTableRecord
  2
Standard
 70
     0
178
     0
340
11
  0
ENDTAB
  0
TABLE
  2
BLOCK_RECORD
  5
1
330
0
100
AcDbSymbolTable
 70
     1
  0
BLOCK_RECORD
  5
1F
330
1
100
AcDbSymbolTableRecord
100
AcDbBlockTableRecord
  2
*Model_Space
340
22
 70
     0
280
     1
281
     0
  0
BLOCK_RECORD
  5
1B
330
1
100
AcDbSymbolTableRecord
100
AcDbBlockTableRecord
  2
*Paper_Space
340
1E
 70
     0
280
     1
281
     0
  0
ENDTAB
  0
ENDSEC
  0
SECTION
  2
BLOCKS
  0
BLOCK
  5
20
330
1F
100
AcDbEntity
  8
0
100
AcDbBlockBegin
  2
*Model_Space
 70
     0
 10
0.0
 20
0.0
 30
0.0
  3
*Model_Space
  1
*Model_Space
  0
ENDBLK
  5
21
330
1F
100
AcDbEntity
  8
0
100
AcDbBlockEnd
  0
BLOCK
  5
1C
330
1B
100
AcDbEntity
 67
     1
  8
0
100
AcDbBlockBegin
  2
*Paper_Space
 70
     0
 10
0.0
 20
0.0
 30
0.0
  3
*Paper_Space
  1
*Paper_Space
  0
ENDBLK
  5
1D
330
1B
100
AcDbEntity
 67
     1
  8
0
100
AcDbBlockEnd
  0
ENDSEC
  0
SECTION
  2
ENTITIES
  0
HATCH
  5
6B
330
1F
100
AcDbEntity
  8
000 Kataster
  6
Continuous
 62
   254
420
 14806250
370
    35
100
AcDbHatch
 10
0.0
 20
0.0
 30
0.0
210
0.0
220
0.0
230
1.0
  2
SOLID
 70
     1
 71
     1
 91
        1
 92
        3
 72
     0
 73
     1
 93
        6
 10
-6.084191061856288
 20
3.43417526857133
 10
-6.08216996728396
 20
3.43417526857133
 10
-6.082096456091468
 20
3.444028970633697
 10
-6.081096462192938
 20
3.444028970633697
 10
-6.081073260852184
 20
4.785750039731335
 10
-6.084170277321863
 20
4.785750039731335
 97
        1
330
6D
 75
     0
 76
     1
 98
        0
  0
LWPOLYLINE
  5
6D
102
{ACAD_REACTORS
330
6B
102
}
330
1F
100
AcDbEntity
  8
000 Kataster
  6
Continuous
 62
     7
370
    13
100
AcDbPolyline
 90
        6
 70
   129
 43
0.0
 10
-6.084191061856288
 20
3.43417526857133
 10
-6.08216996728396
 20
3.43417526857133
 10
-6.082096456091468
 20
3.444028970633697
 10
-6.081096462192938
 20
3.444028970633697
 10
-6.081073260852184
 20
4.785750039731335
 10
-6.084170277321863
 20
4.785750039731335
  0
HATCH
  5
6E
330
1F
100
AcDbEntity
  8
000 Kataster
  6
Continuous
 62
     7
370
    18
100
AcDbHatch
 10
0.0
 20
0.0
 30
0.0
210
0.0
220
0.0
230
1.0
  2
__Steinwolle_90__0002
 70
     0
 71
     1
 91
        1
 92
        3
 72
     0
 73
     1
 93
        6
 10
-6.081128295386169
 20
3.542899173298576
 10
-6.081176305548274
 20
3.433209854312247
 10
-6.067090107577109
 20
3.433203688892913
 10
-6.067090107577109
 20
3.643646562895674
 10
-6.067107763788925
 20
3.643646562895674
 10
-6.067107763788925
 20
3.542899173298576
 97
        1
330
6F
 75
     0
 76
     2
 52
0.0
 41
1.0
 77
     0
 78
     1
 53
360.0
 43
-6.08804403655456
 44
3.498030998251655
 45
0.0
 46
0.008
 79
     0
 98
        0
  0
LWPOLYLINE
  5
6F
102
{ACAD_REACTORS
330
6E
102
}
330
1F
100
AcDbEntity
  8
000 Kataster
  6
Continuous
 62
     7
370
    13
100
AcDbPolyline
 90
        6
 70
   129
 43
0.0
 10
-6.081128295386169
 20
3.542899173298576
 10
-6.081176305548274
 20
3.433209854312247
 10
-6.067090107577109
 20
3.433203688892913
 10
-6.067090107577109
 20
3.643646562895674
 10
-6.067107763788925
 20
3.643646562895674
 10
-6.067107763788925
 20
3.542899173298576
  0
HATCH
  5
70
330
1F
100
AcDbEntity
  8
000 Kataster
  6
Continuous
 62
     7
370
    18
100
AcDbHatch
 10
0.0
 20
0.0
 30
0.0
210
0.0
220
0.0
230
1.0
  2
5_Raster_punktiert_0002
 70
     0
 71
     0
 91
        1
 92
        3
 72
     0
 73
     1
 93
        4
 10
-6.063103939523719
 20
3.42821115686474
 10
-5.638103939523721
 20
3.42821115686474
 10
-5.638103939523745
 20
3.443202698370703
 10
-6.063103939523749
 20
3.443202698370703
 97
        0
 75
     0
 76
     2
 52
0.0
 41
1.0
 77
     0
 78
     2
 53
44.99999999999999
 43
0.0
 44
0.008
 45
-0.0025455844122716
 46
0.0025455844122716
 79
     4
 49
0.0
 49
-0.0024
 49
0.0
 49
-0.0036
 53
110.0
 43
0.008
 44
0.008
 45
0.0033828934348293
 46
0.0012312725159724
 79
     4
 49
0.0
 49
-0.00176
 49
0.0
 49
-0.00304
 98
        0
  0
HATCH
  5
71
330
1F
100
AcDbEntity
  8
000 Kataster
  6
Continuous
 62
   251
420
  6974058
370
     9
100
AcDbHatch
 10
0.0
 20
0.0
 30
0.0
210
0.0
220
0.0
230
1.0
  2
SOLID
 70
     1
 71
     1
 91
        1
 92
        3
 72
     0
 73
     1
 93
        4
 10
-5.638103939523809
 20
3.42321115686474
 10
-6.063103939523721
 20
3.42321115686474
 10
-6.063103939523721
 20
3.42821115686474
 10
-5.638103939523809
 20
3.42821115686474
 97
        1
330
72
 75
     0
 76
     1
 98
        0
  0
LWPOLYLINE
  5
72
102
{ACAD_REACTORS
330
71
102
}
330
1F
100
AcDbEntity
  8
000 Kataster
  6
Continuous
 62
     7
370
    20
100
AcDbPolyline
 90
        4
 70
   129
 43
0.0
 10
-5.638103939523809
 20
3.42321115686474
 10
-6.063103939523721
 20
3.42321115686474
 10
-6.063103939523721
 20
3.42821115686474
 10
-5.638103939523809
 20
3.42821115686474
  0
HATCH
  5
73
330
1F
100
AcDbEntity
  8
000 Kataster
  6
Continuous
 62
   251
420
  6250335
370
    18
100
AcDbHatch
 10
0.0
 20
0.0
 30
0.0
210
0.0
220
0.0
230
1.0
  2
__Steinwolle_90__0002
 70
     0
 71
     0
 91
        1
 92
        3
 72
     0
 73
     1
 93
        4
 10
-5.813103939523813
 20
3.423202698370703
 10
-5.813103939523813
 20
3.203851904046761
 10
-5.893103939523819
 20
3.203851904046761
 10
-5.893103939523819
 20
3.423202698370703
 97
        0
 75
     0
 76
     2
 52
0.0
 41
1.0
 77
     0
 78
     1
 53
360.0
 43
-5.854038329034552
 44
3.333631735969969
 45
0.0
 46
0.008
 79
     0
 98
        0
  0
HATCH
  5
74
330
1F
100
AcDbEntity
  8
000 Kataster
  6
Continuous
 62
    12
420
 13959168
370
    13
100
AcDbHatch
 10
0.0
 20
0.0
 30
0.0
210
0.0
220
0.0
230
1.0
  2
SOLID
 70
     1
 71
     1
 91
        1
 92
        3
 72
     0
 73
     1
 93
        5
 10
-6.079589905717142
 20
3.423344107279594
 10
-6.079589905717142
 20
3.427196043829497
 10
-6.067087790071399
 20
3.427196043829497
 10
-6.063103939535015
 20
3.427196043829497
 10
-6.063103939535015
 20
3.42335871698747
 97
        1
330
75
 75
     0
 76
     1
 98
        0
  0
LWPOLYLINE
  5
75
102
{ACAD_REACTORS
330
74
102
}
330
1F
100
AcDbEntity
  8
000 Kataster
  6
Continuous
 62
     7
370
    13
100
AcDbPolyline
 90
        5
 70
   129
 43
0.0
 10
-6.079589905717142
 20
3.423344107279594
 10
-6.079589905717142
 20
3.427196043829497
 10
-6.067087790071399
 20
3.427196043829497
 10
-6.063103939535015
 20
3.427196043829497
 10
-6.063103939535015
 20
3.42335871698747
  0
HATCH
  5
76
330
1F
100
AcDbEntity
  8
000 Kataster
  6
Continuous
 62
    12
420
 13959168
370
    13
100
AcDbHatch
 10
0.0
 20
0.0
 30
0.0
210
0.0
220
0.0
230
1.0
  2
SOLID
 70
     1
 71
     1
 91
        1
 92
        3
 72
     1
 73
     1
 93
        4
 10
-6.10786524272001
 20
3.427204502226961
 42
0.0
 10
-6.096075949922397
 20
3.427196043732922
 42
0.0
 10
-6.096075949922397
 20
3.423160535778555
 42
0.0
 10
-6.111884087487226
 20
3.423168388322542
 42
-0.1113172828073425
 97
        1
330
77
 75
     0
 76
     1
 98
        0
  0
LWPOLYLINE
  5
77
102
{ACAD_REACTORS
330
76
102
}
330
1F
100
AcDbEntity
  8
000 Kataster
  6
Continuous
 62
     7
370
    13
100
AcDbPolyline
 90
        4
 70
   129
 43
0.0
 10
-6.10786524272001
 20
3.427204502226961
 10
-6.096075949922397
 20
3.427196043732922
 10
-6.096075949922397
 20
3.423160535778555
 10
-6.111884087487226
 20
3.423168388322542
 42
-0.1113172828073425
  0
HATCH
  5
78
330
1F
100
AcDbEntity
  8
000 Kataster
  6
Continuous
 62
    12
420
 13959168
370
    13
100
AcDbHatch
 10
0.0
 20
0.0
 30
0.0
210
0.0
220
0.0
230
1.0
  2
SOLID
 70
     1
 71
     1
 91
        1
 92
        3
 72
     0
 73
     1
 93
        4
 10
-6.067103939523813
 20
3.523444692481291
 10
-6.063103939523813
 20
3.523444692481291
 10
-6.063103939523813
 20
3.54289917772311
 10
-6.067103939523813
 20
3.54289917772311
 97
        1
330
79
 75
     0
 76
     1
 98
        0
  0
LWPOLYLINE
  5
79
102
{ACAD_REACTORS
330
78
102
}
330
1F
100
AcDbEntity
  8
000 Kataster
  6
Continuous
 62
     7
370
    13
100
AcDbPolyline
 90
        4
 70
   129
 43
0.0
 10
-6.067103939523813
 20
3.523444692481291
 10
-6.063103939523813
 20
3.523444692481291
 10
-6.063103939523813
 20
3.54289917772311
 10
-6.067103939523813
 20
3.54289917772311
  0
HATCH
  5
7A
330
1F
100
AcDbEntity
  8
000 Kataster
  6
Continuous
 62
    12
420
 13959168
370
    13
100
AcDbHatch
 10
0.0
 20
0.0
 30
0.0
210
0.0
220
0.0
230
1.0
  2
SOLID
 70
     1
 71
     1
 91
        1
 92
        3
 72
     0
 73
     1
 93
        4
 10
-6.067103939523813
 20
3.484535721997652
 10
-6.063103939523813
 20
3.484535721997652
 10
-6.063103939523813
 20
3.503990207239472
 10
-6.067103939523813
 20
3.503990207239472
 97
        1
330
7B
 75
     0
 76
     1
 98
        0
  0
LWPOLYLINE
  5
7B
102
{ACAD_REACTORS
330
7A
102
}
330
1F
100
AcDbEntity
  8
000 Kataster
  6
Continuous
 62
     7
370
    13
100
AcDbPolyline
 90
        4
 70
   129
 43
0.0
 10
-6.067103939523813
 20
3.484535721997652
 10
-6.063103939523813
 20
3.484535721997652
 10
-6.063103939523813
 20
3.503990207239472
 10
-6.067103939523813
 20
3.503990207239472
  0
HATCH
  5
7C
330
1F
100
AcDbEntity
  8
000 Kataster
  6
Continuous
 62
    12
420
 13959168
370
    13
100
AcDbHatch
 10
0.0
 20
0.0
 30
0.0
210
0.0
220
0.0
230
1.0
  2
SOLID
 70
     1
 71
     1
 91
        1
 92
        3
 72
     0
 73
     1
 93
        4
 10
-6.067103939523813
 20
3.445626751514014
 10
-6.063103939523813
 20
3.445626751514014
 10
-6.063103939523813
 20
3.465081236755833
 10
-6.067103939523813
 20
3.465081236755833
 97
        1
330
7D
 75
     0
 76
     1
 98
        0
  0
LWPOLYLINE
  5
7D
102
{ACAD_REACTORS
330
7C
102
}
330
1F
100
AcDbEntity
  8
000 Kataster
  6
Continuous
 62
     7
370
    13
100
AcDbPolyline
 90
        4
 70
   129
 43
0.0
 10
-6.067103939523813
 20
3.445626751514014
 10
-6.063103939523813
 20
3.445626751514014
 10
-6.063103939523813
 20
3.465081236755833
 10
-6.067103939523813
 20
3.465081236755833
  0
HATCH
  5
7E
330
1F
100
AcDbEntity
  8
000 Kataster
  6
Continuous
 62
     7
370
    18
100
AcDbHatch
 10
0.0
 20
0.0
 30
0.0
210
0.0
220
0.0
230
1.0
  2
Dichtungsmasse_0002
 70
     0
 71
     1
 91
        1
 92
        3
 72
     0
 73
     1
 93
      156
 10
-6.086762722624269
 20
3.597553656762651
 10
-6.086961941295282
 20
3.59576314810042
 10
-6.086718645937859
 20
3.59380171888878
 10
-6.086656980329463
 20
3.58948512630102
 10
-6.086759058303996
 20
3.585064506496616
 10
-6.086699581444045
 20
3.582982816398352
 10
-6.08656351309592
 20
3.58090815510159
 10
-6.086364285282241
 20
3.579316837682378
 10
-6.086262719416418
 20
3.578403906008427
 10
-6.086584491340965
 20
3.576270828961974
 10
-6.086246180335378
 20
3.573492713206018
 10
-6.08629787296346
 20
3.572950626311032
 10
-6.086364285282241
 20
3.571955511221121
 10
-6.086497091634474
 20
3.570430615263355
 10
-6.086497091634474
 20
3.568374457326
 10
-6.08656351309592
 20
3.566716745873336
 10
-6.08656351309592
 20
3.55895796033521
 10
-6.086627493465803
 20
3.557615725682088
 10
-6.086246939176576
 20
3.554565403491984
 10
-6.086368189200209
 20
3.553100638842124
 10
-6.086475606371653
 20
3.550421920272184
 10
-6.086475606371653
 20
3.544099657691639
 10
-6.086368189200209
 20
3.541313521950256
 10
-6.08615529310231
 20
3.538313036427234
 10
-6.086147183558428
 20
3.538118736510006
 10
-6.08613273814768
 20
3.512741185190332
 10
-6.086262719416418
 20
3.510666549926949
 10
-6.086352646523594
 20
3.506643722407329
 10
-6.086352646523594
 20
3.502825387935412
 10
-6.086387488965112
 20
3.502473645407077
 10
-6.08658303268576
 20
3.497593800621162
 10
-6.086475606371653
 20
3.494807664879779
 10
-6.086047885073532
 20
3.490306685171958
 10
-6.085940458759424
 20
3.486877984646904
 10
-6.085940458759424
 20
3.477662150868202
 10
-6.086047885073532
 20
3.475090867755035
 10
-6.086047885073532
 20
3.470697314361322
 10
-6.086262719416418
 20
3.468125043840331
 10
-6.086475606371653
 20
3.465446343555721
 10
-6.086377888312632
 20
3.461570421707518
 10
-6.086377888312632
 20
3.457716321182732
 10
-6.086496573899469
 20
3.453123566397657
 10
-6.086176260630126
 20
3.452152561256907
 10
-6.086176260630126
 20
3.449795143364132
 10
-6.08596142628724
 20
3.447008998480084
 10
-6.085854009115797
 20
3.444544163415867
 10
-6.085854009115797
 20
3.440793677652401
 10
-6.08596142628724
 20
3.437579317766321
 10
-6.086068852601349
 20
3.434685764853495
 10
-6.086088535158749
 20
3.434175271582149
 10
-6.084191061856288
 20
3.434175271582149
 10
-6.084170292526886
 20
3.514668751544034
 10
-6.084170292526886
 20
3.872596051084068
 10
-6.085725606131208
 20
3.872596051084068
 10
-6.085725606131208
 20
3.872583434206326
 10
-6.085940458759424
 20
3.871083452010768
 10
-6.085940458759424
 20
3.868833451289436
 10
-6.086047885073532
 20
3.866261189911111
 10
-6.086047885073532
 20
3.864547315067166
 10
-6.08615529310231
 20
3.863153762635227
 10
-6.086262719416418
 20
3.861332470619839
 10
-6.086368189200209
 20
3.859938918187901
 10
-6.086368189200209
 20
3.858117635315178
 10
-6.086475606371653
 20
3.856510199377517
 10
-6.08658303268576
 20
3.854474073019242
 10
-6.08658303268576
 20
3.851795363591968
 10
-6.086475606371653
 20
3.850616645502915
 10
-6.086368189200209
 20
3.848151810438698
 10
-6.086368189200209
 20
3.846116159499005
 10
-6.086262719416418
 20
3.844508732704009
 10
-6.086262719416418
 20
3.827577577616737
 10
-6.08615529310231
 20
3.82500629450357
 10
-6.08615529310231
 20
3.822327585076295
 10
-6.085940458759424
 20
3.817612255586833
 10
-6.085940458759424
 20
3.816112255105946
 10
-6.086047885073532
 20
3.813861769823367
 10
-6.08615529310231
 20
3.81139693475915
 10
-6.08615529310231
 20
3.809361274676792
 10
-6.086368189200209
 20
3.806789516145044
 10
-6.086011085846784
 20
3.804246099874889
 10
-6.086011085846784
 20
3.797493300055395
 10
-6.086368189200209
 20
3.795002399253176
 10
-6.08615529310231
 20
3.792001895444823
 10
-6.086047885073532
 20
3.789430118627744
 10
-6.085940458759424
 20
3.78600141810269
 10
-6.085940458759424
 20
3.769713330645665
 10
-6.086047885073532
 20
3.767784612316169
 10
-6.086262719416418
 20
3.764355418087204
 10
-6.086690458999868
 20
3.759962349254736
 10
-6.086690458999868
 20
3.753103960796805
 10
-6.08658303268576
 20
3.751282659638752
 10
-6.086475606371653
 20
3.748496533040034
 10
-6.086047885073532
 20
3.743995553332212
 10
-6.085940458759424
 20
3.740566852807158
 10
-6.085940458759424
 20
3.731351019028457
 10
-6.086047885073532
 20
3.72877973591529
 10
-6.086047885073532
 20
3.724386182521576
 10
-6.086262719416418
 20
3.721813921143251
 10
-6.086063290464108
 20
3.717274368531665
 10
-6.086141441964789
 20
3.711647030777421
 10
-6.086475606371653
 20
3.70831244484619
 10
-6.08615529310231
 20
3.705848094343219
 10
-6.08615529310231
 20
3.703490676450445
 10
-6.085940458759424
 20
3.700704540709062
 10
-6.085833041587981
 20
3.698239705644844
 10
-6.085833041587981
 20
3.694489210738713
 10
-6.085940458759424
 20
3.691274841709968
 10
-6.086047885073532
 20
3.688381297939807
 10
-6.08615529310231
 20
3.685595162198424
 10
-6.08615529310231
 20
3.679701617466488
 10
-6.086262719416418
 20
3.677451607602491
 10
-6.086368189200209
 20
3.67584418995016
 10
-6.086368189200209
 20
3.673915471620664
 10
-6.086475606371653
 20
3.672308063110998
 10
-6.08658303268576
 20
3.67091451067906
 10
-6.08658303268576
 20
3.667057074020068
 10
-6.086262719416418
 20
3.664807073298736
 10
-6.086262719416418
 20
3.663092229332297
 10
-6.08615529310231
 20
3.660413519905022
 10
-6.086047885073532
 20
3.658591752471053
 10
-6.086047885073532
 20
3.657306092629139
 10
-6.08615529310231
 20
3.65505562563189
 10
-6.086262719416418
 20
3.654091257324477
 10
-6.086368189200209
 20
3.652483830529481
 10
-6.086475606371653
 20
3.650340771561011
 10
-6.086475606371653
 20
3.649483345006459
 10
-6.08658303268576
 20
3.64787642105804
 10
-6.086497403438401
 20
3.645514498090171
 10
-6.086411756760072
 20
3.64350180114945
 10
-6.08658305011673
 20
3.639733347302992
 10
-6.086497403438401
 20
3.63742088698812
 10
-6.086411756760072
 20
3.63562230674322
 10
-6.086197640064251
 20
3.633738079819992
 10
-6.085940458759424
 20
3.63158832445835
 10
-6.085940458759424
 20
3.628587857220658
 10
-6.086262719416418
 20
3.627194780207302
 10
-6.086318802137932
 20
3.624946397624157
 10
-6.086112285263104
 20
3.623242633406827
 10
-6.086320068774766
 20
3.620469992916517
 10
-6.086385851203501
 20
3.61931673415446
 10
-6.086368189200209
 20
3.618300731667013
 10
-6.086262719416418
 20
3.617765090350873
 10
-6.086262719416418
 20
3.617122022720626
 10
-6.086364285282241
 20
3.615989703656603
 10
-6.086364285282241
 20
3.615458935380924
 10
-6.086231469787344
 20
3.614729432995479
 10
-6.086098663435111
 20
3.613933536576582
 10
-6.086098663435111
 20
3.610199626464816
 10
-6.08615529310231
 20
3.609464885332308
 10
-6.086208091992861
 20
3.60856971785651
 10
-6.086364285282241
 20
3.607633737524016
 10
-6.086497091634474
 20
3.606705510171469
 10
-6.086497091634474
 20
3.602414180915461
 10
-6.08658303268576
 20
3.600785204858988
 10
-6.08658303268576
 20
3.599160763564371
 10
-6.086629916272036
 20
3.59887983689598
 97
        1
330
7F
 75
     0
 76
     2
 52
0.0
 41
1.0
 77
     0
 78
     2
 53
54.4623222080256
 43
0.0
 44
0.007
 45
-0.0015909902576697
 46
0.0022273863607376
 79
     4
 49
0.0
 49
-0.0018248287590895
 49
0.0
 49
-0.0027372431386342
 53
104.5730751475173
 43
0.005
 44
0.007
 45
0.0021143083967683
 46
0.0010773634514758
 79
     4
 49
0.0
 49
-0.0014952319594509
 49
0.0
 49
-0.0025826733845062
 98
        0
  0
LWPOLYLINE
  5
7F
102
{ACAD_REACTORS
330
7E
102
}
330
1F
100
AcDbEntity
  8
000 Kataster
  6
Continuous
 62
     7
370
    13
100
AcDbPolyline
 90
      156
 70
   129
 43
0.0
 10
-6.086762722624269
 20
3.597553656762651
 10
-6.086961941295282
 20
3.59576314810042
 10
-6.086718645937859
 20
3.59380171888878
 10
-6.086656980329463
 20
3.58948512630102
 10
-6.086759058303996
 20
3.585064506496616
 10
-6.086699581444045
 20
3.582982816398352
 10
-6.08656351309592
 20
3.58090815510159
 10
-6.086364285282241
 20
3.579316837682378
 10
-6.086262719416418
 20
3.578403906008427
 10
-6.086584491340965
 20
3.576270828961974
 10
-6.086246180335378
 20
3.573492713206018
 10
-6.08629787296346
 20
3.572950626311032
 10
-6.086364285282241
 20
3.571955511221121
 10
-6.086497091634474
 20
3.570430615263355
 10
-6.086497091634474
 20
3.568374457326
 10
-6.08656351309592
 20
3.566716745873336
 10
-6.08656351309592
 20
3.55895796033521
 10
-6.086627493465803
 20
3.557615725682088
 10
-6.086246939176576
 20
3.554565403491984
 10
-6.086368189200209
 20
3.553100638842124
 10
-6.086475606371653
 20
3.550421920272184
 10
-6.086475606371653
 20
3.544099657691639
 10
-6.086368189200209
 20
3.541313521950256
 10
-6.08615529310231
 20
3.538313036427234
 10
-6.086147183558428
 20
3.538118736510006
 10
-6.08613273814768
 20
3.512741185190332
 10
-6.086262719416418
 20
3.510666549926949
 10
-6.086352646523594
 20
3.506643722407329
 10
-6.086352646523594
 20
3.502825387935412
 10
-6.086387488965112
 20
3.502473645407077
 10
-6.08658303268576
 20
3.497593800621162
 10
-6.086475606371653
 20
3.494807664879779
 10
-6.086047885073532
 20
3.490306685171958
 10
-6.085940458759424
 20
3.486877984646904
 10
-6.085940458759424
 20
3.477662150868202
 10
-6.086047885073532
 20
3.475090867755035
 10
-6.086047885073532
 20
3.470697314361322
 10
-6.086262719416418
 20
3.468125043840331
 10
-6.086475606371653
 20
3.465446343555721
 10
-6.086377888312632
 20
3.461570421707518
 10
-6.086377888312632
 20
3.457716321182732
 10
-6.086496573899469
 20
3.453123566397657
 10
-6.086176260630126
 20
3.452152561256907
 10
-6.086176260630126
 20
3.449795143364132
 10
-6.08596142628724
 20
3.447008998480084
 10
-6.085854009115797
 20
3.444544163415867
 10
-6.085854009115797
 20
3.440793677652401
 10
-6.08596142628724
 20
3.437579317766321
 10
-6.086068852601349
 20
3.434685764853495
 10
-6.086088535158749
 20
3.434175271582149
 10
-6.084191061856288
 20
3.434175271582149
 10
-6.084170292526886
 20
3.514668751544034
 10
-6.084170292526886
 20
3.872596051084068
 10
-6.085725606131208
 20
3.872596051084068
 10
-6.085725606131208
 20
3.872583434206326
 10
-6.085940458759424
 20
3.871083452010768
 10
-6.085940458759424
 20
3.868833451289436
 10
-6.086047885073532
 20
3.866261189911111
 10
-6.086047885073532
 20
3.864547315067166
 10
-6.08615529310231
 20
3.863153762635227
 10
-6.086262719416418
 20
3.861332470619839
 10
-6.086368189200209
 20
3.859938918187901
 10
-6.086368189200209
 20
3.858117635315178
 10
-6.086475606371653
 20
3.856510199377517
 10
-6.08658303268576
 20
3.854474073019242
 10
-6.08658303268576
 20
3.851795363591968
 10
-6.086475606371653
 20
3.850616645502915
 10
-6.086368189200209
 20
3.848151810438698
 10
-6.086368189200209
 20
3.846116159499005
 10
-6.086262719416418
 20
3.844508732704009
 10
-6.086262719416418
 20
3.827577577616737
 10
-6.08615529310231
 20
3.82500629450357
 10
-6.08615529310231
 20
3.822327585076295
 10
-6.085940458759424
 20
3.817612255586833
 10
-6.085940458759424
 20
3.816112255105946
 10
-6.086047885073532
 20
3.813861769823367
 10
-6.08615529310231
 20
3.81139693475915
 10
-6.08615529310231
 20
3.809361274676792
 10
-6.086368189200209
 20
3.806789516145044
 10
-6.086011085846784
 20
3.804246099874889
 10
-6.086011085846784
 20
3.797493300055395
 10
-6.086368189200209
 20
3.795002399253176
 10
-6.08615529310231
 20
3.792001895444823
 10
-6.086047885073532
 20
3.789430118627744
 10
-6.085940458759424
 20
3.78600141810269
 10
-6.085940458759424
 20
3.769713330645665
 10
-6.086047885073532
 20
3.767784612316169
 10
-6.086262719416418
 20
3.764355418087204
 10
-6.086690458999868
 20
3.759962349254736
 10
-6.086690458999868
 20
3.753103960796805
 10
-6.08658303268576
 20
3.751282659638752
 10
-6.086475606371653
 20
3.748496533040034
 10
-6.086047885073532
 20
3.743995553332212
 10
-6.085940458759424
 20
3.740566852807158
 10
-6.085940458759424
 20
3.731351019028457
 10
-6.086047885073532
 20
3.72877973591529
 10
-6.086047885073532
 20
3.724386182521576
 10
-6.086262719416418
 20
3.721813921143251
 10
-6.086063290464108
 20
3.717274368531665
 10
-6.086141441964789
 20
3.711647030777421
 10
-6.086475606371653
 20
3.70831244484619
 10
-6.08615529310231
 20
3.705848094343219
 10
-6.08615529310231
 20
3.703490676450445
 10
-6.085940458759424
 20
3.700704540709062
 10
-6.085833041587981
 20
3.698239705644844
 10
-6.085833041587981
 20
3.694489210738713
 10
-6.085940458759424
 20
3.691274841709968
 10
-6.086047885073532
 20
3.688381297939807
 10
-6.08615529310231
 20
3.685595162198424
 10
-6.08615529310231
 20
3.679701617466488
 10
-6.086262719416418
 20
3.677451607602491
 10
-6.086368189200209
 20
3.67584418995016
 10
-6.086368189200209
 20
3.673915471620664
 10
-6.086475606371653
 20
3.672308063110998
 10
-6.08658303268576
 20
3.67091451067906
 10
-6.08658303268576
 20
3.667057074020068
 10
-6.086262719416418
 20
3.664807073298736
 10
-6.086262719416418
 20
3.663092229332297
 10
-6.08615529310231
 20
3.660413519905022
 10
-6.086047885073532
 20
3.658591752471053
 10
-6.086047885073532
 20
3.657306092629139
 10
-6.08615529310231
 20
3.65505562563189
 10
-6.086262719416418
 20
3.654091257324477
 10
-6.086368189200209
 20
3.652483830529481
 10
-6.086475606371653
 20
3.650340771561011
 10
-6.086475606371653
 20
3.649483345006459
 10
-6.08658303268576
 20
3.64787642105804
 10
-6.086497403438401
 20
3.645514498090171
 10
-6.086411756760072
 20
3.64350180114945
 10
-6.08658305011673
 20
3.639733347302992
 10
-6.086497403438401
 20
3.63742088698812
 10
-6.086411756760072
 20
3.63562230674322
 10
-6.086197640064251
 20
3.633738079819992
 10
-6.085940458759424
 20
3.63158832445835
 10
-6.085940458759424
 20
3.628587857220658
 10
-6.086262719416418
 20
3.627194780207302
 10
-6.086318802137932
 20
3.624946397624157
 10
-6.086112285263104
 20
3.623242633406827
 10
-6.086320068774766
 20
3.620469992916517
 10
-6.086385851203501
 20
3.61931673415446
 10
-6.086368189200209
 20
3.618300731667013
 10
-6.086262719416418
 20
3.617765090350873
 10
-6.086262719416418
 20
3.617122022720626
 10
-6.086364285282241
 20
3.615989703656603
 10
-6.086364285282241
 20
3.615458935380924
 10
-6.086231469787344
 20
3.614729432995479
 10
-6.086098663435111
 20
3.613933536576582
 10
-6.086098663435111
 20
3.610199626464816
 10
-6.08615529310231
 20
3.609464885332308
 10
-6.086208091992861
 20
3.60856971785651
 10
-6.086364285282241
 20
3.607633737524016
 10
-6.086497091634474
 20
3.606705510171469
 10
-6.086497091634474
 20
3.602414180915461
 10
-6.08658303268576
 20
3.600785204858988
 10
-6.08658303268576
 20
3.599160763564371
 10
-6.086629916272036
 20
3.59887983689598
  0
HATCH
  5
80
330
1F
100
AcDbEntity
  8
000 Kataster
  6
Continuous
 62
    30
420
 16741427
370
     5
100
AcDbHatch
 10
0.0
 20
0.0
 30
0.0
210
0.0
220
0.0
230
1.0
  2
SOLID
 70
     1
 71
     1
 91
        1
 92
        3
 72
     0
 73
     1
 93
      306
 10
-6.087366330746407
 20
3.597553655750119
 10
-6.087565550520005
 20
3.595763146206471
 10
-6.087322253716159
 20
3.59380171836039
 10
-6.087260589202437
 20
3.589485123620534
 10
-6.087362667507969
 20
3.585064507351889
 10
-6.087303189120411
 20
3.58298281630695
 10
-6.087167124102696
 20
3.580908156316434
 10
-6.086967897764155
 20
3.57931684028661
 10
-6.086866331524211
 20
3.578403906122105
 10
-6.087188099096983
 20
3.576270831264869
 10
-6.086849787866745
 20
3.573492711325098
 10
-6.086901480231383
 20
3.572950624250515
 10
-6.086967897764155
 20
3.571955510124041
 10
-6.087100700004981
 20
3.570430618191932
 10
-6.087100700004981
 20
3.568374458212027
 10
-6.087167124102696
 20
3.566716744344262
 10
-6.087167124102696
 20
3.558957959376013
 10
-6.087231099476509
 20
3.557615723865206
 10
-6.086850549400184
 20
3.554565401675626
 10
-6.086971797340557
 20
3.553100638060474
 10
-6.087079212945105
 20
3.550421917929312
 10
-6.087079212945105
 20
3.544099660754484
 10
-6.086971797340557
 20
3.541313525018773
 10
-6.086758902789777
 20
3.538313037314838
 10
-6.08675079508463
 20
3.538118734683876
 10
-6.086736345644121
 20
3.512741184287234
 10
-6.086866331524211
 20
3.510666550556492
 10
-6.086956258119438
 20
3.506643723905642
 10
-6.086956258119438
 20
3.502825388677971
 10
-6.086991098274268
 20
3.502473645573456
 10
-6.087186641679541
 20
3.497593798381371
 10
-6.087079212945105
 20
3.49480766264566
 10
-6.086651493750172
 20
3.490306684904379
 10
-6.086544065015738
 20
3.486877985634752
 10
-6.086544065015738
 20
3.477662150859893
 10
-6.086651493750172
 20
3.475090866028108
 10
-6.086651493750172
 20
3.470697317021262
 10
-6.086866331524211
 20
3.468125040883018
 10
-6.087079212945105
 20
3.465446340446686
 10
-6.08698150032696
 20
3.461570424100112
 10
-6.08698150032696
 20
3.457716323060586
 10
-6.087100181374449
 20
3.453123567410028
 10
-6.086779871219121
 20
3.452152559755862
 10
-6.086779871219121
 20
3.449795141086488
 10
-6.086565033445082
 20
3.447008998785835
 10
-6.086457617840534
 20
3.444544164511913
 10
-6.086457617840534
 20
3.440793677974684
 10
-6.086565033445082
 20
3.437579317543395
 10
-6.086672462179516
 20
3.434685766203137
 10
-6.086692143879946
 20
3.434175269636382
 10
-6.086088535158749
 20
3.434175271582149
 10
-6.086068855019967
 20
3.434685766203137
 10
-6.085961426285531
 20
3.437579317543395
 10
-6.085854010680984
 20
3.440793677974684
 10
-6.085854010680984
 20
3.444544164511913
 10
-6.085961426285531
 20
3.447008998785835
 10
-6.086176257494627
 20
3.449795141086488
 10
-6.086176257494627
 20
3.452152559755862
 10
-6.0864965742149
 20
3.453123567410028
 10
-6.086377886602468
 20
3.457716323060586
 10
-6.086377886602468
 20
3.461570424100112
 10
-6.086475605785556
 20
3.465446340446686
 10
-6.086262717799718
 20
3.468125040883018
 10
-6.086047886590623
 20
3.470697317021262
 10
-6.086047886590623
 20
3.475090866028108
 10
-6.085940457856188
 20
3.477662150859893
 10
-6.085940457856188
 20
3.486877985634752
 10
-6.086047886590623
 20
3.490306684904379
 10
-6.086475605785556
 20
3.49480766264566
 10
-6.08658303451999
 20
3.497593798381371
 10
-6.086387491114719
 20
3.502473645573456
 10
-6.086352644394945
 20
3.502825388677971
 10
-6.086352644394945
 20
3.506643723905642
 10
-6.086262717799718
 20
3.510666550556492
 10
-6.08613273848457
 20
3.512741184287234
 10
-6.086147181360136
 20
3.538118734683876
 10
-6.086155295630227
 20
3.538313037314838
 10
-6.086368190181008
 20
3.541313525018773
 10
-6.086475605785556
 20
3.544099660754484
 10
-6.086475605785556
 20
3.550421917929312
 10
-6.086368190181008
 20
3.553100638060474
 10
-6.086246942240635
 20
3.554565401675626
 10
-6.08662749231696
 20
3.557615723865206
 10
-6.086563510378204
 20
3.558957959376013
 10
-6.086563510378204
 20
3.566716744344262
 10
-6.086497092845431
 20
3.568374458212027
 10
-6.086497092845431
 20
3.570430618191932
 10
-6.086364284039662
 20
3.571955510124041
 10
-6.086297873071834
 20
3.572950624250515
 10
-6.086246180707196
 20
3.573492711325098
 10
-6.086584491937434
 20
3.576270831264869
 10
-6.086262717799718
 20
3.578403906122105
 10
-6.086364284039662
 20
3.57931684028661
 10
-6.086563510378204
 20
3.580908156316434
 10
-6.086699581960862
 20
3.58298281630695
 10
-6.086759060348419
 20
3.585064507351889
 10
-6.086656982042887
 20
3.589485123620534
 10
-6.086718646556609
 20
3.59380171836039
 10
-6.086961943360456
 20
3.595763146206471
 10
-6.086762723586858
 20
3.597553655750119
 10
-6.086629914781089
 20
3.598879839974218
 10
-6.08658303451999
 20
3.599160760468914
 10
-6.08658303451999
 20
3.600785203203331
 10
-6.086497092845431
 20
3.602414182313664
 10
-6.086497092845431
 20
3.606705508586223
 10
-6.086364284039662
 20
3.607633739068941
 10
-6.086208090905363
 20
3.608569716184917
 10
-6.086155295630227
 20
3.609464885612476
 10
-6.086098666428123
 20
3.610199627517218
 10
-6.086098666428123
 20
3.613933537572264
 10
-6.086231468668949
 20
3.61472943192514
 10
-6.086364284039662
 20
3.615458935005018
 10
-6.086364284039662
 20
3.615989704117113
 10
-6.086262717799718
 20
3.61712202556146
 10
-6.086262717799718
 20
3.617765088031077
 10
-6.086368190181008
 20
3.618300734896147
 10
-6.086385849878859
 20
3.6193167321077
 10
-6.086320069145601
 20
3.620469995721618
 10
-6.086112282120815
 20
3.623242633933618
 10
-6.086318802111517
 20
3.624946400879607
 10
-6.086262717799718
 20
3.627194782403404
 10
-6.085940457856188
 20
3.628587856836203
 10
-6.085940457856188
 20
3.631588324845307
 10
-6.086197639515408
 20
3.633738081223821
 10
-6.086411755145669
 20
3.63562230533506
 10
-6.086497401397773
 20
3.637420889759138
 10
-6.086583047649878
 20
3.639733345130899
 10
-6.086411755145669
 20
3.643501799918321
 10
-6.086497401397773
 20
3.64551449997266
 10
-6.08658303451999
 20
3.647876422193233
 10
-6.086475605785556
 20
3.649483343093611
 10
-6.086475605785556
 20
3.65034077066134
 10
-6.086368190181008
 20
3.652483830797546
 10
-6.086262717799718
 20
3.65409125719857
 10
-6.086155295630227
 20
3.655055627694919
 10
-6.086047886590623
 20
3.657306090305786
 10
-6.086047886590623
 20
3.65859175569898
 10
-6.086155295630227
 20
3.660413520938341
 10
-6.086262717799718
 20
3.663092227939617
 10
-6.086262717799718
 20
3.664807076510131
 10
-6.08658303451999
 20
3.667057073010014
 10
-6.08658303451999
 20
3.670914509040807
 10
-6.086475605785556
 20
3.672308062714477
 10
-6.086368190181008
 20
3.673915469420669
 10
-6.086368190181008
 20
3.675844190718538
 10
-6.086262717799718
 20
3.677451610554618
 10
-6.086155295630227
 20
3.679701620184387
 10
-6.086155295630227
 20
3.685595160292879
 10
-6.086047886590623
 20
3.688381296028589
 10
-6.085940457856188
 20
3.691274840803904
 10
-6.08583304225164
 20
3.694489207800136
 10
-6.08583304225164
 20
3.698239707467252
 10
-6.085940457856188
 20
3.700704541741174
 10
-6.086155295630227
 20
3.703490677476885
 10
-6.086155295630227
 20
3.705848096146259
 10
-6.086475605785556
 20
3.708312444614366
 10
-6.086141443599571
 20
3.711647028854852
 10
-6.086063287947931
 20
3.717274367071838
 10
-6.086262717799718
 20
3.721813920420767
 10
-6.086047886590623
 20
3.724386183429123
 10
-6.086047886590623
 20
3.728779739000914
 10
-6.085940457856188
 20
3.731351017267754
 10
-6.085940457856188
 20
3.740566852042615
 10
-6.086047886590623
 20
3.743995551312241
 10
-6.086475605785556
 20
3.748496535618465
 10
-6.08658303451999
 20
3.751282658224289
 10
-6.086690456689482
 20
3.75310396391761
 10
-6.086690456689482
 20
3.759962347198378
 10
-6.086262717799718
 20
3.764355416964354
 10
-6.086047886590623
 20
3.767784615169681
 10
-6.085940457856188
 20
3.769713329902606
 10
-6.085940457856188
 20
3.786001420685588
 10
-6.086047886590623
 20
3.789430119955215
 10
-6.086155295630227
 20
3.792001897157757
 10
-6.086368190181008
 20
3.795002397991579
 10
-6.086011083517704
 20
3.797493301655897
 10
-6.086011083517704
 20
3.804246100951337
 10
-6.086368190181008
 20
3.806789517598223
 10
-6.086155295630227
 20
3.809361275105935
 10
-6.086155295630227
 20
3.81139693276748
 10
-6.086047886590623
 20
3.813861767041402
 10
-6.085940457856188
 20
3.816112255912043
 10
-6.085940457856188
 20
3.817612253578631
 10
-6.086155295630227
 20
3.822327583288137
 10
-6.086155295630227
 20
3.825006296854356
 10
-6.086262717799718
 20
3.827577575121197
 10
-6.086262717799718
 20
3.84450873493874
 10
-6.086368190181008
 20
3.846116161339763
 10
-6.086368190181008
 20
3.848151812436365
 10
-6.086475605785556
 20
3.850616646710287
 10
-6.08658303451999
 20
3.851795362609917
 10
-6.08658303451999
 20
3.854474076176136
 10
-6.086475605785556
 20
3.856510199948665
 10
-6.086368190181008
 20
3.858117632914632
 10
-6.086368190181008
 20
3.859938918913122
 10
-6.086262717799718
 20
3.861332472586792
 10
-6.086155295630227
 20
3.863153765150225
 10
-6.086047886590623
 20
3.864547312258952
 10
-6.086047886590623
 20
3.866261189217837
 10
-6.085940457856188
 20
3.868833452226194
 10
-6.085940457856188
 20
3.87108345529102
 10
-6.085725606952262
 20
3.872583433262778
 10
-6.085725606952262
 20
3.872596051084068
 10
-6.086329214111811
 20
3.872596051084068
 10
-6.086329214111811
 20
3.872583433262778
 10
-6.086544065015738
 20
3.87108345529102
 10
-6.086544065015738
 20
3.868833452226194
 10
-6.086651493750172
 20
3.866261189217837
 10
-6.086651493750172
 20
3.864547312258952
 10
-6.086758902789777
 20
3.863153765150225
 10
-6.086866331524211
 20
3.861332472586792
 10
-6.086971797340557
 20
3.859938918913122
 10
-6.086971797340557
 20
3.858117632914632
 10
-6.087079212945105
 20
3.856510199948665
 10
-6.087186641679541
 20
3.854474076176136
 10
-6.087186641679541
 20
3.851795362609917
 10
-6.087079212945105
 20
3.850616646710287
 10
-6.086971797340557
 20
3.848151812436365
 10
-6.086971797340557
 20
3.846116161339763
 10
-6.086866331524211
 20
3.84450873493874
 10
-6.086866331524211
 20
3.827577575121197
 10
-6.086758902789777
 20
3.825006296854356
 10
-6.086758902789777
 20
3.822327583288137
 10
-6.086544065015738
 20
3.817612253578631
 10
-6.086544065015738
 20
3.816112255912043
 10
-6.086651493750172
 20
3.813861767041402
 10
-6.086758902789777
 20
3.81139693276748
 10
-6.086758902789777
 20
3.809361275105935
 10
-6.086971797340557
 20
3.806789517598223
 10
-6.086614697242196
 20
3.804246100951337
 10
-6.086614697242196
 20
3.797493301655897
 10
-6.086971797340557
 20
3.795002397991579
 10
-6.086758902789777
 20
3.792001897157757
 10
-6.086651493750172
 20
3.789430119955215
 10
-6.086544065015738
 20
3.786001420685588
 10
-6.086544065015738
 20
3.769713329902606
 10
-6.086651493750172
 20
3.767784615169681
 10
-6.086866331524211
 20
3.764355416964354
 10
-6.087294070413975
 20
3.759962347198378
 10
-6.087294070413975
 20
3.75310396391761
 10
-6.087186641679541
 20
3.751282658224289
 10
-6.087079212945105
 20
3.748496535618465
 10
-6.086651493750172
 20
3.743995551312241
 10
-6.086544065015738
 20
3.740566852042615
 10
-6.086544065015738
 20
3.731351017267754
 10
-6.086651493750172
 20
3.728779739000914
 10
-6.086651493750172
 20
3.724386183429123
 10
-6.086866331524211
 20
3.721813920420767
 10
-6.086666901672423
 20
3.717274367071838
 10
-6.08674505075912
 20
3.711647028854852
 10
-6.087079212945105
 20
3.708312444614366
 10
-6.086758902789777
 20
3.705848096146259
 10
-6.086758902789777
 20
3.703490677476885
 10
-6.086544065015738
 20
3.700704541741174
 10
-6.08643664941119
 20
3.698239707467252
 10
-6.08643664941119
 20
3.694489207800136
 10
-6.086544065015738
 20
3.691274840803904
 10
-6.086651493750172
 20
3.688381296028589
 10
-6.086758902789777
 20
3.685595160292879
 10
-6.086758902789777
 20
3.679701620184387
 10
-6.086866331524211
 20
3.677451610554618
 10
-6.086971797340557
 20
3.675844190718538
 10
-6.086971797340557
 20
3.673915469420669
 10
-6.087079212945105
 20
3.672308062714477
 10
-6.087186641679541
 20
3.670914509040807
 10
-6.087186641679541
 20
3.667057073010014
 10
-6.086866331524211
 20
3.664807076510131
 10
-6.086866331524211
 20
3.663092227939617
 10
-6.086758902789777
 20
3.660413520938341
 10
-6.086651493750172
 20
3.65859175569898
 10
-6.086651493750172
 20
3.657306090305786
 10
-6.086758902789777
 20
3.655055627694919
 10
-6.086866331524211
 20
3.65409125719857
 10
-6.086971797340557
 20
3.652483830797546
 10
-6.087079212945105
 20
3.65034077066134
 10
-6.087079212945105
 20
3.649483343093611
 10
-6.087186641679541
 20
3.647876422193233
 10
-6.087101015122267
 20
3.64551449997266
 10
-6.087015368870162
 20
3.643501799918321
 10
-6.08718666137437
 20
3.639733345130899
 10
-6.087101015122267
 20
3.637420889759138
 10
-6.087015368870162
 20
3.63562230533506
 10
-6.086801246674957
 20
3.633738081223821
 10
-6.086544065015738
 20
3.631588324845307
 10
-6.086544065015738
 20
3.628587856836203
 10
-6.086866331524211
 20
3.627194782403404
 10
-6.086922409271066
 20
3.624946400879607
 10
-6.086715895845308
 20
3.623242633933618
 10
-6.08692367630515
 20
3.620469995721618
 10
-6.086989463603352
 20
3.6193167321077
 10
-6.086971797340557
 20
3.618300734896147
 10
-6.086866331524211
 20
3.617765088031077
 10
-6.086866331524211
 20
3.61712202556146
 10
-6.086967897764155
 20
3.615989704117113
 10
-6.086967897764155
 20
3.615458935005018
 10
-6.086835075828499
 20
3.61472943192514
 10
-6.086702273587672
 20
3.613933537572264
 10
-6.086702273587672
 20
3.610199627517218
 10
-6.086758902789777
 20
3.609464885612476
 10
-6.086811698064913
 20
3.608569716184917
 10
-6.086967897764155
 20
3.607633739068941
 10
-6.087100700004981
 20
3.606705508586223
 10
-6.087100700004981
 20
3.602414182313664
 10
-6.087186641679541
 20
3.600785203203331
 10
-6.087186641679541
 20
3.599160760468914
 10
-6.087233528505581
 20
3.598879839974218
 97
        1
330
81
 75
     0
 76
     1
 98
        0
  0
LWPOLYLINE
  5
81
102
{ACAD_REACTORS
330
80
102
}
330
1F
100
AcDbEntity
  8
000 Kataster
  6
Continuous
 62
     7
370
    13
100
AcDbPolyline
 90
      306
 70
   129
 43
0.0
 10
-6.087366330746407
 20
3.597553655750119
 10
-6.087565550520005
 20
3.595763146206471
 10
-6.087322253716159
 20
3.59380171836039
 10
-6.087260589202437
 20
3.589485123620534
 10
-6.087362667507969
 20
3.585064507351889
 10
-6.087303189120411
 20
3.58298281630695
 10
-6.087167124102696
 20
3.580908156316434
 10
-6.086967897764155
 20
3.57931684028661
 10
-6.086866331524211
 20
3.578403906122105
 10
-6.087188099096983
 20
3.576270831264869
 10
-6.086849787866745
 20
3.573492711325098
 10
-6.086901480231383
 20
3.572950624250515
 10
-6.086967897764155
 20
3.571955510124041
 10
-6.087100700004981
 20
3.570430618191932
 10
-6.087100700004981
 20
3.568374458212027
 10
-6.087167124102696
 20
3.566716744344262
 10
-6.087167124102696
 20
3.558957959376013
 10
-6.087231099476509
 20
3.557615723865206
 10
-6.086850549400184
 20
3.554565401675626
 10
-6.086971797340557
 20
3.553100638060474
 10
-6.087079212945105
 20
3.550421917929312
 10
-6.087079212945105
 20
3.544099660754484
 10
-6.086971797340557
 20
3.541313525018773
 10
-6.086758902789777
 20
3.538313037314838
 10
-6.08675079508463
 20
3.538118734683876
 10
-6.086736345644121
 20
3.512741184287234
 10
-6.086866331524211
 20
3.510666550556492
 10
-6.086956258119438
 20
3.506643723905642
 10
-6.086956258119438
 20
3.502825388677971
 10
-6.086991098274268
 20
3.502473645573456
 10
-6.087186641679541
 20
3.497593798381371
 10
-6.087079212945105
 20
3.49480766264566
 10
-6.086651493750172
 20
3.490306684904379
 10
-6.086544065015738
 20
3.486877985634752
 10
-6.086544065015738
 20
3.477662150859893
 10
-6.086651493750172
 20
3.475090866028108
 10
-6.086651493750172
 20
3.470697317021262
 10
-6.086866331524211
 20
3.468125040883018
 10
-6.087079212945105
 20
3.465446340446686
 10
-6.08698150032696
 20
3.461570424100112
 10
-6.08698150032696
 20
3.457716323060586
 10
-6.087100181374449
 20
3.453123567410028
 10
-6.086779871219121
 20
3.452152559755862
 10
-6.086779871219121
 20
3.449795141086488
 10
-6.086565033445082
 20
3.447008998785835
 10
-6.086457617840534
 20
3.444544164511913
 10
-6.086457617840534
 20
3.440793677974684
 10
-6.086565033445082
 20
3.437579317543395
 10
-6.086672462179516
 20
3.434685766203137
 10
-6.086692143879946
 20
3.434175269636382
 10
-6.086088535158749
 20
3.434175271582149
 10
-6.086068855019967
 20
3.434685766203137
 10
-6.085961426285531
 20
3.437579317543395
 10
-6.085854010680984
 20
3.440793677974684
 10
-6.085854010680984
 20
3.444544164511913
 10
-6.085961426285531
 20
3.447008998785835
 10
-6.086176257494627
 20
3.449795141086488
 10
-6.086176257494627
 20
3.452152559755862
 10
-6.0864965742149
 20
3.453123567410028
 10
-6.086377886602468
 20
3.457716323060586
 10
-6.086377886602468
 20
3.461570424100112
 10
-6.086475605785556
 20
3.465446340446686
 10
-6.086262717799718
 20
3.468125040883018
 10
-6.086047886590623
 20
3.470697317021262
 10
-6.086047886590623
 20
3.475090866028108
 10
-6.085940457856188
 20
3.477662150859893
 10
-6.085940457856188
 20
3.486877985634752
 10
-6.086047886590623
 20
3.490306684904379
 10
-6.086475605785556
 20
3.49480766264566
 10
-6.08658303451999
 20
3.497593798381371
 10
-6.086387491114719
 20
3.502473645573456
 10
-6.086352644394945
 20
3.502825388677971
 10
-6.086352644394945
 20
3.506643723905642
 10
-6.086262717799718
 20
3.510666550556492
 10
-6.08613273848457
 20
3.512741184287234
 10
-6.086147181360136
 20
3.538118734683876
 10
-6.086155295630227
 20
3.538313037314838
 10
-6.086368190181008
 20
3.541313525018773
 10
-6.086475605785556
 20
3.544099660754484
 10
-6.086475605785556
 20
3.550421917929312
 10
-6.086368190181008
 20
3.553100638060474
 10
-6.086246942240635
 20
3.554565401675626
 10
-6.08662749231696
 20
3.557615723865206
 10
-6.086563510378204
 20
3.558957959376013
 10
-6.086563510378204
 20
3.566716744344262
 10
-6.086497092845431
 20
3.568374458212027
 10
-6.086497092845431
 20
3.570430618191932
 10
-6.086364284039662
 20
3.571955510124041
 10
-6.086297873071834
 20
3.572950624250515
 10
-6.086246180707196
 20
3.573492711325098
 10
-6.086584491937434
 20
3.576270831264869
 10
-6.086262717799718
 20
3.578403906122105
 10
-6.086364284039662
 20
3.57931684028661
 10
-6.086563510378204
 20
3.580908156316434
 10
-6.086699581960862
 20
3.58298281630695
 10
-6.086759060348419
 20
3.585064507351889
 10
-6.086656982042887
 20
3.589485123620534
 10
-6.086718646556609
 20
3.59380171836039
 10
-6.086961943360456
 20
3.595763146206471
 10
-6.086762723586858
 20
3.597553655750119
 10
-6.086629914781089
 20
3.598879839974218
 10
-6.08658303451999
 20
3.599160760468914
 10
-6.08658303451999
 20
3.600785203203331
 10
-6.086497092845431
 20
3.602414182313664
 10
-6.086497092845431
 20
3.606705508586223
 10
-6.086364284039662
 20
3.607633739068941
 10
-6.086208090905363
 20
3.608569716184917
 10
-6.086155295630227
 20
3.609464885612476
 10
-6.086098666428123
 20
3.610199627517218
 10
-6.086098666428123
 20
3.613933537572264
 10
-6.086231468668949
 20
3.61472943192514
 10
-6.086364284039662
 20
3.615458935005018
 10
-6.086364284039662
 20
3.615989704117113
 10
-6.086262717799718
 20
3.61712202556146
 10
-6.086262717799718
 20
3.617765088031077
 10
-6.086368190181008
 20
3.618300734896147
 10
-6.086385849878859
 20
3.6193167321077
 10
-6.086320069145601
 20
3.620469995721618
 10
-6.086112282120815
 20
3.623242633933618
 10
-6.086318802111517
 20
3.624946400879607
 10
-6.086262717799718
 20
3.627194782403404
 10
-6.085940457856188
 20
3.628587856836203
 10
-6.085940457856188
 20
3.631588324845307
 10
-6.086197639515408
 20
3.633738081223821
 10
-6.086411755145669
 20
3.63562230533506
 10
-6.086497401397773
 20
3.637420889759138
 10
-6.086583047649878
 20
3.639733345130899
 10
-6.086411755145669
 20
3.643501799918321
 10
-6.086497401397773
 20
3.64551449997266
 10
-6.08658303451999
 20
3.647876422193233
 10
-6.086475605785556
 20
3.649483343093611
 10
-6.086475605785556
 20
3.65034077066134
 10
-6.086368190181008
 20
3.652483830797546
 10
-6.086262717799718
 20
3.65409125719857
 10
-6.086155295630227
 20
3.655055627694919
 10
-6.086047886590623
 20
3.657306090305786
 10
-6.086047886590623
 20
3.65859175569898
 10
-6.086155295630227
 20
3.660413520938341
 10
-6.086262717799718
 20
3.663092227939617
 10
-6.086262717799718
 20
3.664807076510131
 10
-6.08658303451999
 20
3.667057073010014
 10
-6.08658303451999
 20
3.670914509040807
 10
-6.086475605785556
 20
3.672308062714477
 10
-6.086368190181008
 20
3.673915469420669
 10
-6.086368190181008
 20
3.675844190718538
 10
-6.086262717799718
 20
3.677451610554618
 10
-6.086155295630227
 20
3.679701620184387
 10
-6.086155295630227
 20
3.685595160292879
 10
-6.086047886590623
 20
3.688381296028589
 10
-6.085940457856188
 20
3.691274840803904
 10
-6.08583304225164
 20
3.694489207800136
 10
-6.08583304225164
 20
3.698239707467252
 10
-6.085940457856188
 20
3.700704541741174
 10
-6.086155295630227
 20
3.703490677476885
 10
-6.086155295630227
 20
3.705848096146259
 10
-6.086475605785556
 20
3.708312444614366
 10
-6.086141443599571
 20
3.711647028854852
 10
-6.086063287947931
 20
3.717274367071838
 10
-6.086262717799718
 20
3.721813920420767
 10
-6.086047886590623
 20
3.724386183429123
 10
-6.086047886590623
 20
3.728779739000914
 10
-6.085940457856188
 20
3.731351017267754
 10
-6.085940457856188
 20
3.740566852042615
 10
-6.086047886590623
 20
3.743995551312241
 10
-6.086475605785556
 20
3.748496535618465
 10
-6.08658303451999
 20
3.751282658224289
 10
-6.086690456689482
 20
3.75310396391761
 10
-6.086690456689482
 20
3.759962347198378
 10
-6.086262717799718
 20
3.764355416964354
 10
-6.086047886590623
 20
3.767784615169681
 10
-6.085940457856188
 20
3.769713329902606
 10
-6.085940457856188
 20
3.786001420685588
 10
-6.086047886590623
 20
3.789430119955215
 10
-6.086155295630227
 20
3.792001897157757
 10
-6.086368190181008
 20
3.795002397991579
 10
-6.086011083517704
 20
3.797493301655897
 10
-6.086011083517704
 20
3.804246100951337
 10
-6.086368190181008
 20
3.806789517598223
 10
-6.086155295630227
 20
3.809361275105935
 10
-6.086155295630227
 20
3.81139693276748
 10
-6.086047886590623
 20
3.813861767041402
 10
-6.085940457856188
 20
3.816112255912043
 10
-6.085940457856188
 20
3.817612253578631
 10
-6.086155295630227
 20
3.822327583288137
 10
-6.086155295630227
 20
3.825006296854356
 10
-6.086262717799718
 20
3.827577575121197
 10
-6.086262717799718
 20
3.84450873493874
 10
-6.086368190181008
 20
3.846116161339763
 10
-6.086368190181008
 20
3.848151812436365
 10
-6.086475605785556
 20
3.850616646710287
 10
-6.08658303451999
 20
3.851795362609917
 10
-6.08658303451999
 20
3.854474076176136
 10
-6.086475605785556
 20
3.856510199948665
 10
-6.086368190181008
 20
3.858117632914632
 10
-6.086368190181008
 20
3.859938918913122
 10
-6.086262717799718
 20
3.861332472586792
 10
-6.086155295630227
 20
3.863153765150225
 10
-6.086047886590623
 20
3.864547312258952
 10
-6.086047886590623
 20
3.866261189217837
 10
-6.085940457856188
 20
3.868833452226194
 10
-6.085940457856188
 20
3.87108345529102
 10
-6.085725606952262
 20
3.872583433262778
 10
-6.085725606952262
 20
3.872596051084068
 10
-6.086329214111811
 20
3.872596051084068
 10
-6.086329214111811
 20
3.872583433262778
 10
-6.086544065015738
 20
3.87108345529102
 10
-6.086544065015738
 20
3.868833452226194
 10
-6.086651493750172
 20
3.866261189217837
 10
-6.086651493750172
 20
3.864547312258952
 10
-6.086758902789777
 20
3.863153765150225
 10
-6.086866331524211
 20
3.861332472586792
 10
-6.086971797340557
 20
3.859938918913122
 10
-6.086971797340557
 20
3.858117632914632
 10
-6.087079212945105
 20
3.856510199948665
 10
-6.087186641679541
 20
3.854474076176136
 10
-6.087186641679541
 20
3.851795362609917
 10
-6.087079212945105
 20
3.850616646710287
 10
-6.086971797340557
 20
3.848151812436365
 10
-6.086971797340557
 20
3.846116161339763
 10
-6.086866331524211
 20
3.84450873493874
 10
-6.086866331524211
 20
3.827577575121197
 10
-6.086758902789777
 20
3.825006296854356
 10
-6.086758902789777
 20
3.822327583288137
 10
-6.086544065015738
 20
3.817612253578631
 10
-6.086544065015738
 20
3.816112255912043
 10
-6.086651493750172
 20
3.813861767041402
 10
-6.086758902789777
 20
3.81139693276748
 10
-6.086758902789777
 20
3.809361275105935
 10
-6.086971797340557
 20
3.806789517598223
 10
-6.086614697242196
 20
3.804246100951337
 10
-6.086614697242196
 20
3.797493301655897
 10
-6.086971797340557
 20
3.795002397991579
 10
-6.086758902789777
 20
3.792001897157757
 10
-6.086651493750172
 20
3.789430119955215
 10
-6.086544065015738
 20
3.786001420685588
 10
-6.086544065015738
 20
3.769713329902606
 10
-6.086651493750172
 20
3.767784615169681
 10
-6.086866331524211
 20
3.764355416964354
 10
-6.087294070413975
 20
3.759962347198378
 10
-6.087294070413975
 20
3.75310396391761
 10
-6.087186641679541
 20
3.751282658224289
 10
-6.087079212945105
 20
3.748496535618465
 10
-6.086651493750172
 20
3.743995551312241
 10
-6.086544065015738
 20
3.740566852042615
 10
-6.086544065015738
 20
3.731351017267754
 10
-6.086651493750172
 20
3.728779739000914
 10
-6.086651493750172
 20
3.724386183429123
 10
-6.086866331524211
 20
3.721813920420767
 10
-6.086666901672423
 20
3.717274367071838
 10
-6.08674505075912
 20
3.711647028854852
 10
-6.087079212945105
 20
3.708312444614366
 10
-6.086758902789777
 20
3.705848096146259
 10
-6.086758902789777
 20
3.703490677476885
 10
-6.086544065015738
 20
3.700704541741174
 10
-6.08643664941119
 20
3.698239707467252
 10
-6.08643664941119
 20
3.694489207800136
 10
-6.086544065015738
 20
3.691274840803904
 10
-6.086651493750172
 20
3.688381296028589
 10
-6.086758902789777
 20
3.685595160292879
 10
-6.086758902789777
 20
3.679701620184387
 10
-6.086866331524211
 20
3.677451610554618
 10
-6.086971797340557
 20
3.675844190718538
 10
-6.086971797340557
 20
3.673915469420669
 10
-6.087079212945105
 20
3.672308062714477
 10
-6.087186641679541
 20
3.670914509040807
 10
-6.087186641679541
 20
3.667057073010014
 10
-6.086866331524211
 20
3.664807076510131
 10
-6.086866331524211
 20
3.663092227939617
 10
-6.086758902789777
 20
3.660413520938341
 10
-6.086651493750172
 20
3.65859175569898
 10
-6.086651493750172
 20
3.657306090305786
 10
-6.086758902789777
 20
3.655055627694919
 10
-6.086866331524211
 20
3.65409125719857
 10
-6.086971797340557
 20
3.652483830797546
 10
-6.087079212945105
 20
3.65034077066134
 10
-6.087079212945105
 20
3.649483343093611
 10
-6.087186641679541
 20
3.647876422193233
 10
-6.087101015122267
 20
3.64551449997266
 10
-6.087015368870162
 20
3.643501799918321
 10
-6.08718666137437
 20
3.639733345130899
 10
-6.087101015122267
 20
3.637420889759138
 10
-6.087015368870162
 20
3.63562230533506
 10
-6.086801246674957
 20
3.633738081223821
 10
-6.086544065015738
 20
3.631588324845307
 10
-6.086544065015738
 20
3.628587856836203
 10
-6.086866331524211
 20
3.627194782403404
 10
-6.086922409271066
 20
3.624946400879607
 10
-6.086715895845308
 20
3.623242633933618
 10
-6.08692367630515
 20
3.620469995721618
 10
-6.086989463603352
 20
3.6193167321077
 10
-6.086971797340557
 20
3.618300734896147
 10
-6.086866331524211
 20
3.617765088031077
 10
-6.086866331524211
 20
3.61712202556146
 10
-6.086967897764155
 20
3.615989704117113
 10
-6.086967897764155
 20
3.615458935005018
 10
-6.086835075828499
 20
3.61472943192514
 10
-6.086702273587672
 20
3.613933537572264
 10
-6.086702273587672
 20
3.610199627517218
 10
-6.086758902789777
 20
3.609464885612476
 10
-6.086811698064913
 20
3.608569716184917
 10
-6.086967897764155
 20
3.607633739068941
 10
-6.087100700004981
 20
3.606705508586223
 10
-6.087100700004981
 20
3.602414182313664
 10
-6.087186641679541
 20
3.600785203203331
 10
-6.087186641679541
 20
3.599160760468914
 10
-6.087233528505581
 20
3.598879839974218
  0
HATCH
  5
82
330
1F
100
AcDbEntity
  8
000 Kataster
  6
Continuous
 62
     7
370
    13
100
AcDbHatch
 10
0.0
 20
0.0
 30
0.0
210
0.0
220
0.0
230
1.0
  2
Dichtungsmasse_0002
 70
     0
 71
     1
 91
        1
 92
        3
 72
     0
 73
     1
 93
        5
 10
-6.08112414822534
 20
3.542896568283622
 10
-6.081094246806194
 20
3.437196036260542
 10
-6.081093382719486
 20
3.445637902173746
 10
-6.081067841923965
 20
3.502573017532713
 10
-6.081068022779323
 20
3.542896568283622
 97
        1
330
83
 75
     0
 76
     2
 52
0.0
 41
1.0
 77
     0
 78
     2
 53
54.4623222080256
 43
0.0
 44
0.007
 45
-0.0015909902576697
 46
0.0022273863607376
 79
     4
 49
0.0
 49
-0.0018248287590895
 49
0.0
 49
-0.0027372431386342
 53
104.5730751475173
 43
0.005
 44
0.007
 45
0.0021143083967683
 46
0.0010773634514758
 79
     4
 49
0.0
 49
-0.0014952319594509
 49
0.0
 49
-0.0025826733845062
 98
        0
  0
LWPOLYLINE
  5
83
102
{ACAD_REACTORS
330
82
102
}
330
1F
100
AcDbEntity
  8
000 Kataster
  6
Continuous
 62
     7
370
    13
100
AcDbPolyline
 90
        5
 70
   129
 43
0.0
 10
-6.08112414822534
 20
3.542896568283622
 10
-6.081094246806194
 20
3.437196036260542
 10
-6.081093382719486
 20
3.445637902173746
 10
-6.081067841923965
 20
3.502573017532713
 10
-6.081068022779323
 20
3.542896568283622
  0
HATCH
  5
84
330
1F
100
AcDbEntity
  8
000 Kataster
  6
Continuous
 62
     7
370
    13
100
AcDbHatch
 10
0.0
 20
0.0
 30
0.0
210
0.0
220
0.0
230
1.0
  2
Dichtungsmasse_0002
 70
     0
 71
     1
 91
        1
 92
        3
 72
     0
 73
     1
 93
        6
 10
-6.063103925977716
 20
4.785750039731335
 10
-6.081073267584697
 20
4.785750039731335
 10
-6.081068619070325
 20
3.673200722942248
 10
-6.081068026431042
 20
3.542896568283622
 10
-6.063103925977716
 20
3.542899161080483
 10
-6.063103925977716
 20
3.673202686059871
 97
        1
330
85
 75
     0
 76
     2
 52
0.0
 41
1.0
 77
     0
 78
     2
 53
54.4623222080256
 43
0.0
 44
0.007
 45
-0.0015909902576697
 46
0.0022273863607376
 79
     4
 49
0.0
 49
-0.0018248287590895
 49
0.0
 49
-0.0027372431386342
 53
104.5730751475173
 43
0.005
 44
0.007
 45
0.0021143083967683
 46
0.0010773634514758
 79
     4
 49
0.0
 49
-0.0014952319594509
 49
0.0
 49
-0.0025826733845062
 98
        0
  0
LWPOLYLINE
  5
85
102
{ACAD_REACTORS
330
84
102
}
330
1F
100
AcDbEntity
  8
000 Kataster
  6
Continuous
 62
     7
370
    13
100
AcDbPolyline
 90
        6
 70
   129
 43
0.0
 10
-6.063103925977716
 20
4.785750039731335
 10
-6.081073267584697
 20
4.785750039731335
 10
-6.081068619070325
 20
3.673200722942248
 10
-6.081068026431042
 20
3.542896568283622
 10
-6.063103925977716
 20
3.542899161080483
 10
-6.063103925977716
 20
3.673202686059871
  0
HATCH
  5
86
330
1F
100
AcDbEntity
  8
000 Kataster
  6
Continuous
 62
   252
420
  9737364
370
     0
100
AcDbHatch
 10
0.0
 20
0.0
 30
0.0
210
0.0
220
0.0
230
1.0
  2
SOLID
 70
     1
 71
     1
 91
        1
 92
        3
 72
     0
 73
     1
 93
        6
 10
-6.081096462650864
 20
3.444028974199618
 10
-6.082096462650864
 20
3.444028974199618
 10
-6.082096462650864
 20
3.434175271582149
 10
-6.086818743499825
 20
3.434175271582149
 10
-6.086818743499825
 20
3.433209364486088
 10
-6.081096462650864
 20
3.433209364486088
 97
        1
330
87
 75
     0
 76
     1
 98
        0
  0
LWPOLYLINE
  5
87
102
{ACAD_REACTORS
330
86
102
}
330
1F
100
AcDbEntity
  8
000 Kataster
  6
Continuous
 62
     7
370
    13
100
AcDbPolyline
 90
        6
 70
   129
 43
0.0
 10
-6.081096462650864
 20
3.444028974199618
 10
-6.082096462650864
 20
3.444028974199618
 10
-6.082096462650864
 20
3.434175271582149
 10
-6.086818743499825
 20
3.434175271582149
 10
-6.086818743499825
 20
3.433209364486088
 10
-6.081096462650864
 20
3.433209364486088
  0
HATCH
  5
88
330
1F
100
AcDbEntity
  8
000 Kataster
  6
Continuous
 62
    51
370
    20
100
AcDbHatch
 10
0.0
 20
0.0
 30
0.0
210
0.0
220
0.0
230
1.0
  2
SOLID
 70
     1
 71
     1
 91
        1
 92
        3
 72
     0
 73
     1
 93
        4
 10
-6.081096462650864
 20
3.433205008794773
 10
-6.081096462650864
 20
3.427196881257006
 10
-6.073013166040605
 20
3.427196881257006
 10
-6.073013166040605
 20
3.433205008794773
 97
        1
330
89
 75
     0
 76
     1
 98
        0
  0
LWPOLYLINE
  5
89
102
{ACAD_REACTORS
330
88
102
}
330
1F
100
AcDbEntity
  8
000 Kataster
  6
Continuous
 62
     7
370
    13
100
AcDbPolyline
 90
        4
 70
   129
 43
0.0
 10
-6.081096462650864
 20
3.433205008794773
 10
-6.081096462650864
 20
3.427196881257006
 10
-6.073013166040605
 20
3.427196881257006
 10
-6.073013166040605
 20
3.433205008794773
  0
HATCH
  5
8A
330
1F
100
AcDbEntity
  8
000 Kataster
  6
Continuous
 62
   152
420
    27349
370
    20
100
AcDbHatch
 10
0.0
 20
0.0
 30
0.0
210
0.0
220
0.0
230
1.0
  2
SOLID
 70
     1
 71
     1
 91
        1
 92
        3
 72
     0
 73
     1
 93
        4
 10
-6.081108151561933
 20
3.49289655429727
 10
-6.082058961746033
 20
3.49289655429727
 10
-6.082058961746033
 20
3.59289655429727
 10
-6.081108151561933
 20
3.59289655429727
 97
        1
330
8B
 75
     0
 76
     1
 98
        0
  0
LWPOLYLINE
  5
8B
102
{ACAD_REACTORS
330
8A
102
}
330
1F
100
AcDbEntity
  8
000 Kataster
  6
Continuous
 62
     7
370
    13
100
AcDbPolyline
 90
        4
 70
   129
 43
0.0
 10
-6.081108151561933
 20
3.49289655429727
 10
-6.082058961746033
 20
3.49289655429727
 10
-6.082058961746033
 20
3.59289655429727
 10
-6.081108151561933
 20
3.59289655429727
  0
LINE
  5
8C
330
1F
100
AcDbEntity
  8
000 Kataster
  6
Continuous
 62
     7
370
    13
100
AcDbLine
 10
-5.893103939523819
 20
3.423202698370702
 30
0.0
 11
-7.792478977860678
 21
3.423202698370703
 31
0.0
  0
LINE
  5
8D
330
1F
100
AcDbEntity
  8
000 Kataster
  6
Continuous
 62
     7
370
    13
100
AcDbLine
 10
-6.063103939523813
 20
4.719612001192901
 30
0.0
 11
-6.063103939523813
 21
3.443202698370705
 31
0.0
  0
LINE
  5
8E
330
1F
100
AcDbEntity
  8
000 Kataster
  6
Continuous
 62
     7
370
    13
100
AcDbLine
 10
-6.063103939523813
 20
3.443202698370703
 30
0.0
 11
-6.063103939523813
 21
3.423211156864741
 31
0.0
  0
LINE
  5
8F
330
1F
100
AcDbEntity
  8
000 Kataster
  6
Continuous
 62
     7
370
    13
100
AcDbLine
 10
-5.893103939523819
 20
3.423409900969837
 30
0.0
 11
-5.813103939523813
 21
3.423409900969837
 31
0.0
  0
LINE
  5
90
330
1F
100
AcDbEntity
  8
000 Kataster
  6
Continuous
 62
     7
370
    13
100
AcDbLine
 10
-5.893103939523819
 20
3.223202698370703
 30
0.0
 11
-5.893103939523819
 21
3.423202698370702
 31
0.0
  0
LINE
  5
91
330
1F
100
AcDbEntity
  8
000 Kataster
  6
Continuous
 62
     7
370
    13
100
AcDbLine
 10
-5.638103939523809
 20
3.443202698370703
 30
0.0
 11
-6.063103939523813
 21
3.443202698370703
 31
0.0
  0
LINE
  5
93
330
1F
100
AcDbEntity
  8
000 Kataster
  6
Strich 2_1mm
 62
    12
420
 13959168
370
    13
100
AcDbLine
 10
-6.082691466711617
 20
3.434632457811437
 30
0.0
 11
-6.082670292526886
 21
4.785750039731335
 31
0.0
  0
LINE
  5
94
330
1F
100
AcDbEntity
  8
000 Kataster
  6
Continuous
 62
     7
370
    13
100
AcDbLine
 10
-6.10786524272001
 20
3.427204502226961
 30
0.0
 11
-6.067087789963622
 21
3.427196043732922
 31
0.0
  0
LINE
  5
95
330
1F
100
AcDbEntity
  8
000 Kataster
  6
Continuous
 62
     7
370
    13
100
AcDbLine
 10
-6.067103939523813
 20
3.54289917772311
 30
0.0
 11
-6.067103939523813
 21
3.427196043732922
 31
0.0
  0
LINE
  5
96
330
1F
100
AcDbEntity
  8
000 Kataster
  6
Strich 2_1mm
 62
     7
370
    13
100
AcDbLine
 10
-6.082096609909529
 20
3.434632448489075
 30
0.0
 11
-6.082096462650864
 21
3.444028974199618
 31
0.0
  0
LINE
  5
97
330
1F
100
AcDbEntity
  8
000 Kataster
  6
Strich 2_1mm
 62
     7
370
    13
100
AcDbLine
 10
-6.082096462650864
 20
3.444028974199618
 30
0.0
 11
-6.081601529437441
 21
3.444523907413041
 31
0.0
  0
LINE
  5
98
330
1F
100
AcDbEntity
  8
000 Kataster
  6
Strich 2_1mm
 62
     7
370
    13
100
AcDbLine
 10
-6.081601529437441
 20
3.444523907413041
 30
0.0
 11
-6.081601529437441
 21
3.462227387163227
 31
0.0
  0
HATCH
  5
99
330
1F
100
AcDbEntity
  8
000 Kataster
  6
Continuous
 62
   251
420
  6250335
370
    18
100
AcDbHatch
 10
0.0
 20
0.0
 30
0.0
210
0.0
220
0.0
230
1.0
  2
_1_Backstein_1_0_mm_0002
 70
     0
 71
     1
 91
        1
 92
        3
 72
     0
 73
     1
 93
        4
 10
-5.638103939523809
 20
3.443202698370703
 10
-5.638103939523809
 20
4.785750039731335
 10
-6.063103939523813
 20
4.785750039731335
 10
-6.063103939523813
 20
3.443202698370703
 97
        1
330
9A
 75
     0
 76
     2
 52
0.0
 41
1.0
 77
     0
 78
     1
 53
44.99999783714449
 43
0.0
 44
0.0
 45
-0.0056568540359521
 46
0.0056568544630327
 79
     0
 98
        0
  0
LWPOLYLINE
  5
9A
102
{ACAD_REACTORS
330
99
102
}
330
1F
100
AcDbEntity
  8
000 Kataster
  6
Continuous
 62
     7
370
    60
100
AcDbPolyline
 90
        4
 70
   129
 43
0.0
 10
-5.638103939523809
 20
3.443202698370703
 10
-5.638103939523809
 20
4.785750039731335
 10
-6.063103939523813
 20
4.785750039731335
 10
-6.063103939523813
 20
3.443202698370703
  0
HATCH
  5
9B
330
1F
100
AcDbEntity
  8
000 Kataster
  6
Continuous
 62
   251
420
  6250335
370
    18
100
AcDbHatch
 10
0.0
 20
0.0
 30
0.0
210
0.0
220
0.0
230
1.0
  2
__Beton_0002
 70
     0
 71
     1
 91
        1
 92
        3
 72
     0
 73
     1
 93
        4
 10
-5.893103939523819
 20
3.223202698370703
 10
-7.628481332599421
 20
3.223202698370703
 10
-7.629507221661643
 20
3.423202698370702
 10
-5.893103939523819
 20
3.423202698370702
 97
        1
330
9C
 75
     0
 76
     2
 52
0.0
 41
1.0
 77
     0
 78
     2
 53
44.99999999999999
 43
-6.76079263606162
 44
3.323202698370703
 45
-0.0169705627484771
 46
0.0169705627484771
 79
     0
 53
135.0
 43
-6.76079263606162
 44
3.323202698370703
 45
0.0169705627484771
 46
0.0169705627484771
 79
     0
 98
        0
  0
LWPOLYLINE
  5
9C
102
{ACAD_REACTORS
330
9B
102
}
330
1F
100
AcDbEntity
  8
000 Kataster
  6
Continuous
 62
     7
370
    60
100
AcDbPolyline
 90
        4
 70
   129
 43
0.0
 10
-5.893103939523819
 20
3.223202698370703
 10
-7.628481332599421
 20
3.223202698370703
 10
-7.629507221661643
 20
3.423202698370702
 10
-5.893103939523819
 20
3.423202698370702
  0
LINE
  5
9D
330
1F
100
AcDbEntity
  8
000 Kataster
  6
Continuous
 62
     7
370
     9
100
AcDbLine
 10
-3.0649355576554
 20
2.116522459166797
 30
0.0
 11
-3.066920581444935
 21
2.116522459166797
 31
0.0
  0
LINE
  5
9E
330
1F
100
AcDbEntity
  8
000 Kataster
  6
Continuous
 62
     7
370
     9
100
AcDbLine
 10
-3.06183852649434
 20
2.116522459166797
 30
0.0
 11
-3.0649355576554
 21
2.116522459166797
 31
0.0
  0
LINE
  5
9F
330
1F
100
AcDbEntity
  8
000 Kataster
  6
Continuous
 62
     7
370
     9
100
AcDbLine
 10
-3.066920581444935
 20
2.116522459166797
 30
0.0
 11
-3.067420573824903
 21
2.116522459166797
 31
0.0
  0
HATCH
  5
A0
330
1F
100
AcDbEntity
  8
0
  6
Continuous
 62
    42
420
 15244032
370
    35
100
AcDbHatch
 10
0.0
 20
0.0
 30
0.0
210
0.0
220
0.0
230
1.0
  2
SOLID
 70
     1
 71
     1
 91
        1
 92
        3
 72
     0
 73
     1
 93
        4
 10
-2.61886940814251
 20
2.316522447660411
 10
-2.608869387621804
 20
2.316522447660411
 10
-2.608869387621804
 20
2.970841838288431
 10
-2.61886940814251
 20
2.970841838288431
 97
        1
330
A1
 75
     0
 76
     1
 98
        0
  0
LWPOLYLINE
  5
A1
102
{ACAD_REACTORS
330
A0
102
}
330
1F
100
AcDbEntity
  8
0
  6
Continuous
 62
     7
370
     9
100
AcDbPolyline
 90
        4
 70
   129
 43
0.0
 10
-2.61886940814251
 20
2.316522447660411
 10
-2.608869387621804
 20
2.316522447660411
 10
-2.608869387621804
 20
2.970841838288431
 10
-2.61886940814251
 20
2.970841838288431
  0
HATCH
  5
A2
330
1F
100
AcDbEntity
  8
000 Kataster
  6
Continuous
 62
    31
420
 16106877
370
    20
100
AcDbHatch
 10
0.0
 20
0.0
 30
0.0
210
0.0
220
0.0
230
1.0
  2
SOLID
 70
     1
 71
     1
 91
        1
 92
        3
 72
     0
 73
     1
 93
        5
 10
-3.066920580629839
 20
1.467644137667178
 10
-3.06566119657742
 20
1.467646158498562
 10
-3.043869382468894
 20
1.467681102444124
 10
-3.043869382468894
 20
2.116522459166797
 10
-3.066920580629839
 20
2.116522459166797
 97
        1
330
A3
 75
     0
 76
     1
 98
        0
  0
LWPOLYLINE
  5
A3
102
{ACAD_REACTORS
330
A2
102
}
330
1F
100
AcDbEntity
  8
000 Kataster
  6
Continuous
 62
     7
370
     9
100
AcDbPolyline
 90
        5
 70
   129
 43
0.0
 10
-3.066920580629839
 20
1.467644137667178
 10
-3.06566119657742
 20
1.467646158498562
 10
-3.043869382468894
 20
1.467681102444124
 10
-3.043869382468894
 20
2.116522459166797
 10
-3.066920580629839
 20
2.116522459166797
  0
HATCH
  5
A4
330
1F
100
AcDbEntity
  8
0
  6
Continuous
 62
    42
420
 15244032
370
    35
100
AcDbHatch
 10
0.0
 20
0.0
 30
0.0
210
0.0
220
0.0
230
1.0
  2
SOLID
 70
     1
 71
     1
 91
        1
 92
        3
 72
     0
 73
     1
 93
        7
 10
-2.61886940814251
 20
1.366948695966143
 10
-2.608869385574559
 20
1.366948695966143
 10
-2.608869385574559
 20
2.106522434551601
 10
-1.85929562442115
 20
2.106522434551601
 10
-1.85929562442115
 20
2.116522457119552
 10
-2.608869385574559
 20
2.116522457119552
 10
-2.61886940814251
 20
2.116522457119552
 97
        1
330
A5
 75
     0
 76
     1
 98
        0
  0
LWPOLYLINE
  5
A5
102
{ACAD_REACTORS
330
A4
102
}
330
1F
100
AcDbEntity
  8
0
  6
Continuous
 62
     7
370
     9
100
AcDbPolyline
 90
        7
 70
   129
 43
0.0
 10
-2.61886940814251
 20
1.366948695966143
 10
-2.608869385574559
 20
1.366948695966143
 10
-2.608869385574559
 20
2.106522434551601
 10
-1.85929562442115
 20
2.106522434551601
 10
-1.85929562442115
 20
2.116522457119552
 10
-2.608869385574559
 20
2.116522457119552
 10
-2.61886940814251
 20
2.116522457119552
  0
HATCH
  5
A6
330
1F
100
AcDbEntity
  8
000 Kataster
  6
Continuous
 62
    31
420
 16106877
370
    20
100
AcDbHatch
 10
0.0
 20
0.0
 30
0.0
210
0.0
220
0.0
230
1.0
  2
SOLID
 70
     1
 71
     1
 91
        1
 92
        3
 72
     0
 73
     1
 93
        5
 10
-3.066920580629839
 20
2.970841864778921
 10
-3.066702615188544
 20
2.436038778721123
 10
-3.043866672915967
 20
2.436075397170275
 10
-3.043869390411323
 20
2.6859940015646
 10
-3.043869382442128
 20
2.970841864778921
 97
        1
330
A7
 75
     0
 76
     1
 98
        0
  0
LWPOLYLINE
  5
A7
102
{ACAD_REACTORS
330
A6
102
}
330
1F
100
AcDbEntity
  8
000 Kataster
  6
Continuous
 62
     7
370
     9
100
AcDbPolyline
 90
        5
 70
   129
 43
0.0
 10
-3.066920580629839
 20
2.970841864778921
 10
-3.066702615188544
 20
2.436038778721123
 10
-3.043866672915967
 20
2.436075397170275
 10
-3.043869390411323
 20
2.6859940015646
 10
-3.043869382442128
 20
2.970841864778921
  0
HATCH
  5
A8
330
1F
100
AcDbEntity
  8
0
  6
Continuous
 62
     7
370
     9
100
AcDbHatch
 10
0.0
 20
0.0
 30
0.0
210
0.0
220
0.0
230
1.0
  2
__Steinwolle_90__0001
 70
     0
 71
     1
 91
        1
 92
        3
 72
     0
 73
     1
 93
        4
 10
-3.067047474896931
 20
2.318874904408871
 10
-3.046369395924569
 20
2.318874904408871
 10
-3.046369395924569
 20
2.436071383761279
 10
-3.066920580002104
 20
2.435938371542899
 97
        1
330
A9
 75
     0
 76
     2
 52
0.0
 41
1.0
 77
     0
 78
     1
 53
360.0
 43
-3.055144994403368
 44
2.293147365283466
 45
0.0
 46
0.0061182616263604
 79
     0
 98
        0
  0
LWPOLYLINE
  5
A9
102
{ACAD_REACTORS
330
A8
102
}
330
1F
100
AcDbEntity
  8
0
  6
Continuous
 62
     7
370
     9
100
AcDbPolyline
 90
        4
 70
   129
 43
0.0
 10
-3.067047474896931
 20
2.318874904408871
 10
-3.046369395924569
 20
2.318874904408871
 10
-3.046369395924569
 20
2.436071383761279
 10
-3.066920580002104
 20
2.435938371542899
  0
HATCH
  5
AA
330
1F
100
AcDbEntity
  8
000 Kataster
  6
Continuous
 62
     7
370
     9
100
AcDbHatch
 10
0.0
 20
0.0
 30
0.0
210
0.0
220
0.0
230
1.0
  2
__Steinwolle_90__0001
 70
     0
 71
     0
 91
        1
 92
        3
 72
     0
 73
     1
 93
        4
 10
-1.906037643366099
 20
2.346522461303166
 10
-2.598975248846176
 20
2.346522461303166
 10
-2.598975248846176
 20
2.316522461090682
 10
-1.906037643366099
 20
2.316522461090682
 97
        0
 75
     0
 76
     2
 52
0.0
 41
1.0
 77
     0
 78
     1
 53
90.0
 43
-2.598975245210694
 44
2.316522453105009
 45
-0.008
 46
0.0
 79
     0
 98
        0
  0
HATCH
  5
AB
330
1F
100
AcDbEntity
  8
0
  6
Continuous
 62
     7
370
     9
100
AcDbHatch
 10
0.0
 20
0.0
 30
0.0
210
0.0
220
0.0
230
1.0
  2
__Steinwolle_fein_0001
 70
     0
 71
     0
 91
        1
 92
        3
 72
     0
 73
     1
 93
        4
 10
-2.608869397870626
 20
2.426522453105009
 10
-2.608869397870626
 20
2.316522453105009
 10
-2.598975245210694
 20
2.316522453105009
 10
-2.598975245210694
 20
2.426522453105009
 97
        0
 75
     0
 76
     2
 52
0.0
 41
1.0
 77
     0
 78
     1
 53
0.0
 43
-2.850472686749801
 44
2.1380218500416
 45
0.0
 46
0.01
 79
     0
 98
        0
  0
HATCH
  5
AC
330
1F
100
AcDbEntity
  8
0
  6
Continuous
 62
     7
370
     9
100
AcDbHatch
 10
0.0
 20
0.0
 30
0.0
210
0.0
220
0.0
230
1.0
  2
_1_Backstein_3_0_mm_0001
 70
     0
 71
     1
 91
        1
 92
        3
 72
     0
 73
     1
 93
        4
 10
-2.61886939929393
 20
2.096522452664426
 10
-3.04386939593577
 20
2.096522452664426
 10
-3.04386939593577
 20
1.305201845431858
 10
-2.61886939929393
 20
1.305201845431858
 97
        1
330
AD
 75
     0
 76
     2
 52
0.0
 41
1.0
 77
     0
 78
     1
 53
44.9999978371445
 43
-2.850472686749801
 44
2.1380218500416
 45
-0.0169705621078562
 46
0.016970563389098
 79
     0
 98
        0
  0
LWPOLYLINE
  5
AD
102
{ACAD_REACTORS
330
AC
102
}
330
1F
100
AcDbEntity
  8
0
  6
Continuous
 62
     7
370
     9
100
AcDbPolyline
 90
        4
 70
   129
 43
0.0
 10
-2.61886939929393
 20
2.096522452664426
 10
-3.04386939593577
 20
2.096522452664426
 10
-3.04386939593577
 20
1.305201845431858
 10
-2.61886939929393
 20
1.305201845431858
  0
LINE
  5
AE
330
1F
100
AcDbEntity
  8
000 Kataster
  6
Continuous
 62
     7
370
     9
100
AcDbLine
 10
-2.61886939929393
 20
1.305201845431858
 30
0.0
 11
-2.61886939929393
 21
2.096522452664426
 31
0.0
  0
LINE
  5
AF
330
1F
100
AcDbEntity
  8
000 Kataster
  6
Continuous
 62
     7
370
     9
100
AcDbLine
 10
-2.61886939929393
 20
2.096522454357819
 30
0.0
 11
-3.04386939593577
 21
2.096522454357819
 31
0.0
  0
LINE
  5
B0
330
1F
100
AcDbEntity
  8
000 Kataster
  6
Continuous
 62
     7
370
     9
100
AcDbLine
 10
-3.04386939593577
 20
2.096522452664426
 30
0.0
 11
-3.04386939593577
 21
1.305201845431858
 31
0.0
  0
HATCH
  5
B1
330
1F
100
AcDbEntity
  8
0
  6
Continuous
 62
     7
370
     9
100
AcDbHatch
 10
0.0
 20
0.0
 30
0.0
210
0.0
220
0.0
230
1.0
  2
_1_Backstein_3_0_mm_0001
 70
     0
 71
     1
 91
        1
 92
        3
 72
     0
 73
     1
 93
        4
 10
-3.043869383626045
 20
2.336522439344877
 10
-3.043869383626045
 20
2.970841838288431
 10
-2.618869383464037
 20
2.970841838288431
 10
-2.618869383464037
 20
2.336522439344877
 97
        1
330
B2
 75
     0
 76
     2
 52
0.0
 41
1.0
 77
     0
 78
     1
 53
44.9999978371445
 43
-2.850472686749801
 44
2.1380218500416
 45
-0.0169705621078562
 46
0.016970563389098
 79
     0
 98
        0
  0
LWPOLYLINE
  5
B2
102
{ACAD_REACTORS
330
B1
102
}
330
1F
100
AcDbEntity
  8
0
  6
Continuous
 62
     7
370
     9
100
AcDbPolyline
 90
        4
 70
   129
 43
0.0
 10
-3.043869383626045
 20
2.336522439344877
 10
-3.043869383626045
 20
2.970841838288431
 10
-2.618869383464037
 20
2.970841838288431
 10
-2.618869383464037
 20
2.336522439344877
  0
LINE
  5
B3
330
1F
100
AcDbEntity
  8
000 Kataster
  6
Continuous
 62
     7
370
     9
100
AcDbLine
 10
-2.618869383464037
 20
2.970841838288431
 30
0.0
 11
-2.618869383464037
 21
2.336522439344877
 31
0.0
  0
LINE
  5
B4
330
1F
100
AcDbEntity
  8
000 Kataster
  6
Continuous
 62
     7
370
     9
100
AcDbLine
 10
-3.043869383626045
 20
2.336522439344877
 30
0.0
 11
-3.043869383626045
 21
2.970841838288431
 31
0.0
  0
LINE
  5
B5
330
1F
100
AcDbEntity
  8
000 Kataster
  6
Continuous
 62
     7
370
     9
100
AcDbLine
 10
-2.61886939929393
 20
2.336522455772786
 30
0.0
 11
-3.04386939593577
 21
2.336522455772786
 31
0.0
  0
HATCH
  5
B6
330
1F
100
AcDbEntity
  8
000 Kataster
  6
Continuous
 62
     7
370
     9
100
AcDbHatch
 10
0.0
 20
0.0
 30
0.0
210
0.0
220
0.0
230
1.0
  2
Beton_0001
 70
     0
 71
     1
 91
        1
 92
        3
 72
     0
 73
     1
 93
        4
 10
-2.793869383002431
 20
2.116522459674124
 10
-1.906037643366099
 20
2.116522459674124
 10
-1.906037643366099
 20
2.316522461090682
 10
-2.793869383002431
 20
2.316522461090682
 97
        1
330
B7
 75
     0
 76
     2
 52
0.0
 41
1.0
 77
     0
 78
     2
 53
44.99999999999998
 43
-2.140666188819283
 44
2.216522453105009
 45
-0.0318198051533946
 46
0.0318198051533947
 79
     0
 53
135.0000000000002
 43
-2.140666188819283
 44
2.216522453105009
 45
0.0318198051533945
 46
0.0318198051533947
 79
     0
 98
        0
  0
LWPOLYLINE
  5
B7
102
{ACAD_REACTORS
330
B6
102
}
330
1F
100
AcDbEntity
  8
000 Kataster
  6
Continuous
 62
     7
370
     9
100
AcDbPolyline
 90
        4
 70
   129
 43
0.0
 10
-2.793869383002431
 20
2.116522459674124
 10
-1.906037643366099
 20
2.116522459674124
 10
-1.906037643366099
 20
2.316522461090682
 10
-2.793869383002431
 20
2.316522461090682
  0
LINE
  5
B8
330
1F
100
AcDbEntity
  8
0
  6
Continuous
 62
     7
370
     9
100
AcDbLine
 10
-3.04386939593577
 20
2.322000469256071
 30
0.0
 11
-2.61886939929393
 21
2.322000469256071
 31
0.0
  0
LINE
  5
B9
330
1F
100
AcDbEntity
  8
0
  6
Continuous
 62
     7
370
     9
100
AcDbLine
 10
-2.61886939929393
 20
2.322000469256071
 30
0.0
 11
-2.61886939929393
 21
2.336522455772786
 31
0.0
  0
LINE
  5
BA
330
1F
100
AcDbEntity
  8
0
  6
Continuous
 62
     7
370
     9
100
AcDbLine
 10
-2.61886939929393
 20
2.336522455772786
 30
0.0
 11
-3.04386939593577
 21
2.336522455772786
 31
0.0
  0
LINE
  5
BB
330
1F
100
AcDbEntity
  8
0
  6
Continuous
 62
     7
370
     9
100
AcDbLine
 10
-3.04386939593577
 20
2.336522455772786
 30
0.0
 11
-3.04386939593577
 21
2.322000469256071
 31
0.0
  0
LINE
  5
BC
330
1F
100
AcDbEntity
  8
0
  6
Continuous
 62
     7
370
     9
100
AcDbLine
 10
-2.793869406189507
 20
2.106522442689116
 30
0.0
 11
-2.793869406189507
 21
2.096522454357819
 31
0.0
  0
LINE
  5
BD
330
1F
100
AcDbEntity
  8
0
  6
Continuous
 62
     7
370
     9
100
AcDbLine
 10
-2.793869406189507
 20
2.096522454357819
 30
0.0
 11
-2.61886939929393
 21
2.096522454357819
 31
0.0
  0
LINE
  5
BE
330
1F
100
AcDbEntity
  8
0
  6
Continuous
 62
     7
370
     9
100
AcDbLine
 10
-2.61886939929393
 20
2.096522454357819
 30
0.0
 11
-2.61886939929393
 21
2.106522442689116
 31
0.0
  0
LINE
  5
BF
330
1F
100
AcDbEntity
  8
0
  6
Continuous
 62
     7
370
     9
100
AcDbLine
 10
-2.61886939929393
 20
2.106522442689116
 30
0.0
 11
-2.793869406189507
 21
2.106522442689116
 31
0.0
  0
LINE
  5
C0
330
1F
100
AcDbEntity
  8
0
  6
Continuous
 62
     7
370
     9
100
AcDbLine
 10
-3.04386939593577
 20
2.106522442689116
 30
0.0
 11
-2.873869397279034
 21
2.106522442689116
 31
0.0
  0
LINE
  5
C1
330
1F
100
AcDbEntity
  8
0
  6
Continuous
 62
     7
370
     9
100
AcDbLine
 10
-3.04386939593577
 20
2.096522454357819
 30
0.0
 11
-3.04386939593577
 21
2.106522442689116
 31
0.0
  0
LINE
  5
C2
330
1F
100
AcDbEntity
  8
0
  6
Continuous
 62
     7
370
     9
100
AcDbLine
 10
-2.873869397279034
 20
2.096522454357819
 30
0.0
 11
-3.04386939593577
 21
2.096522454357819
 31
0.0
  0
LINE
  5
C3
330
1F
100
AcDbEntity
  8
0
  6
Continuous
 62
     7
370
     9
100
AcDbLine
 10
-2.873869397279034
 20
2.106522442689116
 30
0.0
 11
-2.873869397279034
 21
2.096522454357819
 31
0.0
  0
HATCH
  5
C4
330
1F
100
AcDbEntity
  8
000 Kataster
  6
Continuous
 62
     7
370
     9
100
AcDbHatch
 10
0.0
 20
0.0
 30
0.0
210
0.0
220
0.0
230
1.0
  2
Beton_0001
 70
     0
 71
     1
 91
        1
 92
        3
 72
     0
 73
     1
 93
        4
 10
-3.794907730609002
 20
2.316522459578722
 10
-3.794907730609002
 20
2.116522451189485
 10
-2.873869393009032
 20
2.116522451189485
 10
-2.873869393009032
 20
2.316522459578722
 97
        1
330
C5
 75
     0
 76
     2
 52
0.0
 41
1.0
 77
     0
 78
     2
 53
44.99999999999997
 43
-3.741558094408434
 44
2.216522453105008
 45
-0.0318198051533946
 46
0.0318198051533946
 79
     0
 53
135.0000000000002
 43
-3.741558094408434
 44
2.216522453105008
 45
0.0318198051533945
 46
0.0318198051533947
 79
     0
 98
        0
  0
LWPOLYLINE
  5
C5
102
{ACAD_REACTORS
330
C4
102
}
330
1F
100
AcDbEntity
  8
000 Kataster
  6
Continuous
 62
     7
370
     9
100
AcDbPolyline
 90
        4
 70
   129
 43
0.0
 10
-3.794907730609002
 20
2.316522459578722
 10
-3.794907730609002
 20
2.116522451189485
 10
-2.873869393009032
 20
2.116522451189485
 10
-2.873869393009032
 20
2.316522459578722
  0
HATCH
  5
C6
330
1F
100
AcDbEntity
  8
000 Kataster
  6
Continuous
 62
     8
420
  7631988
370
     0
100
AcDbHatch
 10
0.0
 20
0.0
 30
0.0
210
0.0
220
0.0
230
1.0
  2
SOLID
 70
     1
 71
     0
 91
        1
 92
        3
 72
     0
 73
     1
 93
        4
 10
-2.793687897366111
 20
2.106522453105008
 10
-2.643687897366112
 20
2.106522453105008
 10
-2.643687897366112
 20
2.115887201339209
 10
-2.793687897366111
 20
2.115887201339209
 97
        0
 75
     0
 76
     1
 98
        0
  0
HATCH
  5
C7
330
1F
100
AcDbEntity
  8
000 Kataster
  6
Continuous
 62
     8
420
  7631988
370
     0
100
AcDbHatch
 10
0.0
 20
0.0
 30
0.0
210
0.0
220
0.0
230
1.0
  2
SOLID
 70
     1
 71
     0
 91
        1
 92
        3
 72
     0
 73
     1
 93
        4
 10
-3.023869397870632
 20
2.106522453105008
 10
-2.873869397870633
 20
2.106522453105008
 10
-2.873869397870633
 20
2.116522453105008
 10
-3.023869397870632
 20
2.116522453105008
 97
        0
 75
     0
 76
     1
 98
        0
  0
HATCH
  5
C8
330
1F
100
AcDbEntity
  8
000 Kataster
  6
Continuous
 62
   251
420
  6974058
370
     9
100
AcDbHatch
 10
0.0
 20
0.0
 30
0.0
210
0.0
220
0.0
230
1.0
  2
SOLID
 70
     1
 71
     1
 91
        1
 92
        3
 72
     0
 73
     1
 93
        4
 10
-2.61886939929393
 20
2.316530911599045
 10
-2.61886939929393
 20
2.322000479500538
 10
-3.043869397870536
 20
2.322000479500538
 10
-3.043869397870536
 20
2.316530911599045
 97
        1
330
C9
 75
     0
 76
     1
 98
        0
  0
LWPOLYLINE
  5
C9
102
{ACAD_REACTORS
330
C8
102
}
330
1F
100
AcDbEntity
  8
000 Kataster
  6
Continuous
 62
     7
370
     9
100
AcDbPolyline
 90
        4
 70
   129
 43
0.0
 10
-2.61886939929393
 20
2.316530911599045
 10
-2.61886939929393
 20
2.322000479500538
 10
-3.043869397870536
 20
2.322000479500538
 10
-3.043869397870536
 20
2.316530911599045
  0
HATCH
  5
CA
330
1F
100
AcDbEntity
  8
0
  6
Continuous
 62
     7
370
     9
100
AcDbHatch
 10
0.0
 20
0.0
 30
0.0
210
0.0
220
0.0
230
1.0
  2
Dämmstoff__allgemein_hor_81
 70
     0
 71
     0
 91
        1
 92
        3
 72
     0
 73
     1
 93
        4
 10
-2.793869397870628
 20
2.316522453105009
 10
-2.873869397870633
 20
2.316522453105009
 10
-2.873869397870633
 20
2.097171658781066
 10
-2.793869397870628
 20
2.097171658781066
 97
        0
 75
     0
 76
     2
 52
0.0
 41
1.0
 77
     0
 78
     1
 53
0.0
 43
-2.850472686749801
 44
2.1380218500416
 45
0.0
 46
0.015
 79
     0
 98
        0
  0
LINE
  5
CB
330
1F
100
AcDbEntity
  8
000 Kataster
  6
Continuous
 62
     7
370
     9
100
AcDbLine
 10
-3.04386939593577
 20
2.116522459166797
 30
0.0
 11
-3.06183852649434
 21
2.116522459166797
 31
0.0
  0
LINE
  5
CC
330
1F
100
AcDbEntity
  8
000 Kataster
  6
Continuous
 62
     7
370
     9
100
AcDbLine
 10
-3.04386940367313
 20
1.305201838490002
 30
0.0
 11
-3.04386940367313
 21
2.116522441840273
 31
0.0
  0
HATCH
  5
CD
330
1F
100
AcDbEntity
  8
000 Kataster
  6
Continuous
 62
    12
420
 13959168
370
    15
100
AcDbHatch
 10
0.0
 20
0.0
 30
0.0
210
0.0
220
0.0
230
1.0
  2
SOLID
 70
     1
 71
     1
 91
        1
 92
        3
 72
     0
 73
     1
 93
        5
 10
-3.060355362117897
 20
2.316516313317763
 10
-3.060355362117897
 20
2.318874904505446
 10
-3.046353246472155
 20
2.318874904505446
 10
-3.04386939593577
 20
2.318874904505446
 10
-3.04386939593577
 20
2.316530923025639
 97
        1
330
CE
 75
     0
 76
     1
 98
        0
  0
LWPOLYLINE
  5
CE
102
{ACAD_REACTORS
330
CD
102
}
330
1F
100
AcDbEntity
  8
000 Kataster
  6
Continuous
 62
     7
370
     9
100
AcDbPolyline
 90
        5
 70
   129
 43
0.0
 10
-3.060355362117897
 20
2.316516313317763
 10
-3.060355362117897
 20
2.318874904505446
 10
-3.046353246472155
 20
2.318874904505446
 10
-3.04386939593577
 20
2.318874904505446
 10
-3.04386939593577
 20
2.316530923025639
  0
HATCH
  5
CF
330
1F
100
AcDbEntity
  8
000 Kataster
  6
Continuous
 62
    12
420
 13959168
370
    15
100
AcDbHatch
 10
0.0
 20
0.0
 30
0.0
210
0.0
220
0.0
230
1.0
  2
SOLID
 70
     1
 71
     1
 91
        1
 92
        3
 72
     1
 73
     1
 93
        4
 10
-3.088630699120765
 20
2.31888336290291
 42
0.0
 10
-3.076841406323152
 20
2.318874904408871
 42
0.0
 10
-3.076841406323152
 20
2.316332741816724
 42
0.0
 10
-3.092649543887982
 20
2.316340594360711
 42
-0.1113172828073425
 97
        1
330
D0
 75
     0
 76
     1
 98
        0
  0
LWPOLYLINE
  5
D0
102
{ACAD_REACTORS
330
CF
102
}
330
1F
100
AcDbEntity
  8
000 Kataster
  6
Continuous
 62
     7
370
     9
100
AcDbPolyline
 90
        4
 70
   129
 43
0.0
 10
-3.088630699120765
 20
2.31888336290291
 10
-3.076841406323152
 20
2.318874904408871
 10
-3.076841406323152
 20
2.316332741816724
 10
-3.092649543887982
 20
2.316340594360711
 42
-0.1113172828073425
  0
HATCH
  5
D1
330
1F
100
AcDbEntity
  8
000 Kataster
  6
Continuous
 62
    12
420
 13959168
370
    15
100
AcDbHatch
 10
0.0
 20
0.0
 30
0.0
210
0.0
220
0.0
230
1.0
  2
SOLID
 70
     1
 71
     1
 91
        1
 92
        3
 72
     0
 73
     1
 93
        4
 10
-3.046369395924569
 20
2.41661689851946
 10
-3.043869395924569
 20
2.41661689851946
 10
-3.043869395924569
 20
2.436071383761279
 10
-3.046369395924569
 20
2.436071383761279
 97
        1
330
D2
 75
     0
 76
     1
 98
        0
  0
LWPOLYLINE
  5
D2
102
{ACAD_REACTORS
330
D1
102
}
330
1F
100
AcDbEntity
  8
000 Kataster
  6
Continuous
 62
     7
370
     9
100
AcDbPolyline
 90
        4
 70
   129
 43
0.0
 10
-3.046369395924569
 20
2.41661689851946
 10
-3.043869395924569
 20
2.41661689851946
 10
-3.043869395924569
 20
2.436071383761279
 10
-3.046369395924569
 20
2.436071383761279
  0
HATCH
  5
D3
330
1F
100
AcDbEntity
  8
000 Kataster
  6
Continuous
 62
    12
420
 13959168
370
    15
100
AcDbHatch
 10
0.0
 20
0.0
 30
0.0
210
0.0
220
0.0
230
1.0
  2
SOLID
 70
     1
 71
     1
 91
        1
 92
        3
 72
     0
 73
     1
 93
        4
 10
-3.046369395924569
 20
2.377707928035822
 10
-3.043869395924569
 20
2.377707928035822
 10
-3.043869395924569
 20
2.397162413277641
 10
-3.046369395924569
 20
2.397162413277641
 97
        1
330
D4
 75
     0
 76
     1
 98
        0
  0
LWPOLYLINE
  5
D4
102
{ACAD_REACTORS
330
D3
102
}
330
1F
100
AcDbEntity
  8
000 Kataster
  6
Continuous
 62
     7
370
     9
100
AcDbPolyline
 90
        4
 70
   129
 43
0.0
 10
-3.046369395924569
 20
2.377707928035822
 10
-3.043869395924569
 20
2.377707928035822
 10
-3.043869395924569
 20
2.397162413277641
 10
-3.046369395924569
 20
2.397162413277641
  0
HATCH
  5
D5
330
1F
100
AcDbEntity
  8
000 Kataster
  6
Continuous
 62
    12
420
 13959168
370
    15
100
AcDbHatch
 10
0.0
 20
0.0
 30
0.0
210
0.0
220
0.0
230
1.0
  2
SOLID
 70
     1
 71
     1
 91
        1
 92
        3
 72
     0
 73
     1
 93
        4
 10
-3.046369395924569
 20
2.338798957552183
 10
-3.043869395924569
 20
2.338798957552183
 10
-3.043869395924569
 20
2.358253442794002
 10
-3.046369395924569
 20
2.358253442794002
 97
        1
330
D6
 75
     0
 76
     1
 98
        0
  0
LWPOLYLINE
  5
D6
102
{ACAD_REACTORS
330
D5
102
}
330
1F
100
AcDbEntity
  8
000 Kataster
  6
Continuous
 62
     7
370
     9
100
AcDbPolyline
 90
        4
 70
   129
 43
0.0
 10
-3.046369395924569
 20
2.338798957552183
 10
-3.043869395924569
 20
2.338798957552183
 10
-3.043869395924569
 20
2.358253442794002
 10
-3.046369395924569
 20
2.358253442794002
  0
HATCH
  5
D7
330
1F
100
AcDbEntity
  8
0
  6
Continuous
 62
     7
370
     9
100
AcDbHatch
 10
0.0
 20
0.0
 30
0.0
210
0.0
220
0.0
230
1.0
  2
Unterlagsboden_0001
 70
     0
 71
     0
 91
        1
 92
        3
 72
     0
 73
     1
 93
        4
 10
-2.063235385754719
 20
2.426522461303166
 10
-2.598975248846176
 20
2.426522461303166
 10
-2.598975248846176
 20
2.346522461303166
 10
-2.063235385754719
 20
2.346522461303166
 97
        0
 75
     0
 76
     2
 52
0.0
 41
1.0
 77
     0
 78
     2
 53
32.47984934355839
 43
-2.331105317300447
 44
2.410764262552044
 45
-0.0121174764331244
 46
0.0077136939230663
 79
     4
 49
0.0
 49
-0.0095762277204446
 49
0.0
 49
-0.0143643415806669
 53
119.7593012938811
 43
-2.29302376282609
 44
2.410764262552044
 45
0.0161032300774247
 46
0.0037310329519262
 79
     4
 49
0.0
 49
-0.0057729061625485
 49
0.0
 49
-0.0099713833716747
 98
        0
  0
HATCH
  5
D8
330
1F
100
AcDbEntity
  8
0
  6
Continuous
 62
     7
370
     9
100
AcDbHatch
 10
0.0
 20
0.0
 30
0.0
210
0.0
220
0.0
230
1.0
  2
__Mörtel__0001
 70
     0
 71
     0
 91
        1
 92
        3
 72
     0
 73
     1
 93
        4
 10
-3.043869397870535
 20
2.322000479500538
 10
-2.618869397870537
 20
2.322000479500538
 10
-2.61886939787056
 20
2.336522453105008
 10
-3.043869397870564
 20
2.336522453105008
 97
        0
 75
     0
 76
     2
 52
0.0
 41
1.0
 77
     0
 78
     2
 53
44.99999999999999
 43
-2.83136939787055
 44
2.349261466302773
 45
-0.0063639610306789
 46
0.0063639610306789
 79
     4
 49
0.0
 49
-0.006
 49
0.0
 49
-0.009
 53
110.0
 43
-2.81136939787055
 44
2.349261466302773
 45
0.0084572335870732
 46
0.003078181289931
 79
     4
 49
0.0
 49
-0.0044
 49
0.0
 49
-0.0076
 98
        0
  0
HATCH
  5
D9
330
1F
100
AcDbEntity
  8
0
  6
Continuous
 62
     7
370
     9
100
AcDbHatch
 10
0.0
 20
0.0
 30
0.0
210
0.0
220
0.0
230
1.0
  2
__Mörtel__0001
 70
     0
 71
     0
 91
        1
 92
        3
 72
     0
 73
     1
 93
        4
 10
-2.793869397870628
 20
2.106522453105008
 10
-2.793869397870628
 20
2.096522453105008
 10
-2.618869397870624
 20
2.096522453105008
 10
-2.618869397870624
 20
2.106522453105008
 97
        0
 75
     0
 76
     2
 52
0.0
 41
1.0
 77
     0
 78
     2
 53
44.99999999999999
 43
-2.706369397870626
 44
2.121522453105008
 45
-0.0063639610306789
 46
0.0063639610306789
 79
     4
 49
0.0
 49
-0.006
 49
0.0
 49
-0.009
 53
110.0
 43
-2.686369397870626
 44
2.121522453105008
 45
0.0084572335870732
 46
0.003078181289931
 79
     4
 49
0.0
 49
-0.0044
 49
0.0
 49
-0.0076
 98
        0
  0
HATCH
  5
DA
330
1F
100
AcDbEntity
  8
0
  6
Continuous
 62
     7
370
     9
100
AcDbHatch
 10
0.0
 20
0.0
 30
0.0
210
0.0
220
0.0
230
1.0
  2
__Mörtel__0001
 70
     0
 71
     0
 91
        1
 92
        3
 72
     0
 73
     1
 93
        4
 10
-2.873869397870633
 20
2.106522453105008
 10
-2.873869397870633
 20
2.096522453105008
 10
-3.043869397870635
 20
2.096522453105008
 10
-3.043869397870635
 20
2.106522453105008
 97
        0
 75
     0
 76
     2
 52
0.0
 41
1.0
 77
     0
 78
     2
 53
44.99999999999999
 43
-2.958869397870634
 44
2.121522453105008
 45
-0.0063639610306789
 46
0.0063639610306789
 79
     4
 49
0.0
 49
-0.006
 49
0.0
 49
-0.009
 53
110.0
 43
-2.938869397870634
 44
2.121522453105008
 45
0.0084572335870732
 46
0.003078181289931
 79
     4
 49
0.0
 49
-0.0044
 49
0.0
 49
-0.0076
 98
        0
  0
LINE
  5
DB
330
1F
100
AcDbEntity
  8
0
  6
Continuous
 62
     7
370
     9
100
AcDbLine
 10
-1.906037643366099
 20
2.436522461940617
 30
0.0
 11
-2.608975248917003
 21
2.436522461940617
 31
0.0
  0
LINE
  5
DC
330
1F
100
AcDbEntity
  8
0
  6
Continuous
 62
     7
370
     9
100
AcDbLine
 10
-1.906037643366099
 20
2.426522461869789
 30
0.0
 11
-2.608975248917003
 21
2.426522461869789
 31
0.0
  0
LINE
  5
DD
330
1F
100
AcDbEntity
  8
0
  6
Continuous
 62
     7
370
     9
100
AcDbLine
 10
-1.906037643366099
 20
2.346522461303166
 30
0.0
 11
-2.598975248846176
 21
2.346522461303166
 31
0.0
  0
LINE
  5
DE
330
1F
100
AcDbEntity
  8
0
  6
Continuous
 62
     7
370
     9
100
AcDbLine
 10
-2.61886939929393
 20
2.109022460881728
 30
0.0
 11
-2.61886939929393
 21
2.116522459166797
 31
0.0
  0
LINE
  5
DF
330
1F
100
AcDbEntity
  8
0
  6
Continuous
 62
     7
370
     9
100
AcDbLine
 10
-2.598975253038265
 20
2.316522450963808
 30
0.0
 11
-2.598975253038265
 21
2.426522463339994
 31
0.0
  0
LINE
  5
E0
330
1F
100
AcDbEntity
  8
0
  6
Continuous
 62
     7
370
     9
100
AcDbLine
 10
-2.61886939929393
 20
1.305201845431858
 30
0.0
 11
-2.61886939929393
 21
2.096522452664426
 31
0.0
  0
LINE
  5
E1
330
1F
100
AcDbEntity
  8
0
  6
Continuous
 62
     7
370
     9
100
AcDbLine
 10
-2.61886939929393
 20
2.096522454357819
 30
0.0
 11
-3.04386939593577
 21
2.096522454357819
 31
0.0
  0
LINE
  5
E2
330
1F
100
AcDbEntity
  8
0
  6
Continuous
 62
     7
370
     9
100
AcDbLine
 10
-2.873869376838448
 20
2.316522461646016
 30
0.0
 11
-3.794907735510241
 21
2.316522461646016
 31
0.0
  0
LINE
  5
E3
330
1F
100
AcDbEntity
  8
0
  6
Continuous
 62
     7
370
     9
100
AcDbLine
 10
-2.793869388002296
 20
2.116522462979297
 30
0.0
 11
-1.906037621510559
 21
2.116522462979297
 31
0.0
  0
LINE
  5
E4
330
1F
100
AcDbEntity
  8
0
  6
Continuous
 62
     7
370
     9
100
AcDbLine
 10
-3.04386939593577
 20
1.305201845431858
 30
0.0
 11
-3.04386939593577
 21
2.096522452664426
 31
0.0
  0
LINE
  5
E5
330
1F
100
AcDbEntity
  8
0
  6
Continuous
 62
     7
370
     9
100
AcDbLine
 10
-2.873869412450247
 20
2.116522459205791
 30
0.0
 11
-3.794907751247848
 21
2.116522459205791
 31
0.0
  0
LINE
  5
E6
330
1F
100
AcDbEntity
  8
0
  6
Continuous
 62
     7
370
     9
100
AcDbLine
 10
-2.61886940814251
 20
2.336522467166091
 30
0.0
 11
-2.61886940814251
 21
2.970841864778921
 31
0.0
  0
LINE
  5
E7
330
1F
100
AcDbEntity
  8
0
  6
Continuous
 62
     7
370
     9
100
AcDbLine
 10
-3.04386938666013
 20
2.970841864778921
 30
0.0
 11
-3.04386938666013
 21
2.336522467166091
 31
0.0
  0
LINE
  5
E8
330
1F
100
AcDbEntity
  8
0
  6
Continuous
 62
     7
370
     9
100
AcDbLine
 10
-2.61886939929393
 20
2.316522450963808
 30
0.0
 11
-2.61886939929393
 21
2.386522453722038
 31
0.0
  0
LINE
  5
E9
330
1F
100
AcDbEntity
  8
0
  6
Continuous
 62
     7
370
     9
100
AcDbLine
 10
-3.04386939593577
 20
2.336522455772786
 30
0.0
 11
-3.04386939593577
 21
2.316530923025639
 31
0.0
  0
LINE
  5
EA
330
1F
100
AcDbEntity
  8
0
  6
Continuous
 62
     7
370
     9
100
AcDbLine
 10
-2.873869397279034
 20
2.316729664648864
 30
0.0
 11
-2.793869406189507
 21
2.316729664648864
 31
0.0
  0
LINE
  5
EB
330
1F
100
AcDbEntity
  8
0
  6
Continuous
 62
     7
370
     9
100
AcDbLine
 10
-2.793869406189507
 20
2.316522450963808
 30
0.0
 11
-2.793869406189507
 21
2.116522459166797
 31
0.0
  0
LINE
  5
EC
330
1F
100
AcDbEntity
  8
0
  6
Continuous
 62
     7
370
     9
100
AcDbLine
 10
-2.873869397279034
 20
2.116522459166797
 30
0.0
 11
-2.873869397279034
 21
2.316522450963808
 31
0.0
  0
LINE
  5
ED
330
1F
100
AcDbEntity
  8
0
  6
Continuous
 62
     7
370
     9
100
AcDbLine
 10
-2.893869402088012
 20
2.144114219475362
 30
0.0
 11
-2.773869401380529
 21
2.144114219475362
 31
0.0
  0
LINE
  5
EE
330
1F
100
AcDbEntity
  8
0
  6
Continuous
 62
     7
370
     9
100
AcDbLine
 10
-2.773869401380529
 20
2.284114224991823
 30
0.0
 11
-2.893869402088012
 21
2.284114224991823
 31
0.0
  0
LINE
  5
EF
330
1F
100
AcDbEntity
  8
0
  6
Continuous
 62
     7
370
     9
100
AcDbLine
 10
-2.893869402088012
 20
2.284114224991823
 30
0.0
 11
-2.893869402088012
 21
2.144114219475362
 31
0.0
  0
LINE
  5
F0
330
1F
100
AcDbEntity
  8
0
  6
Continuous
 62
     7
370
     9
100
AcDbLine
 10
-2.773869401380529
 20
2.144114219475362
 30
0.0
 11
-2.773869401380529
 21
2.284114224991823
 31
0.0
  0
LINE
  5
F2
330
1F
100
AcDbEntity
  8
0
  6
PUNKT
 62
     7
370
     9
100
AcDbLine
 10
-3.233869399401484
 20
2.144114219475362
 30
0.0
 11
-2.893869402088012
 21
2.144114219475362
 31
0.0
  0
LINE
  5
F3
330
1F
100
AcDbEntity
  8
0
  6
PUNKT
 62
     7
370
     9
100
AcDbLine
 10
-2.433869404067057
 20
2.144114219475362
 30
0.0
 11
-2.773869401380529
 21
2.144114219475362
 31
0.0
  0
LINE
  5
F4
330
1F
100
AcDbEntity
  8
0
  6
PUNKT
 62
     7
370
     9
100
AcDbLine
 10
-2.773869401380529
 20
2.284114224991823
 30
0.0
 11
-2.353869384831145
 21
2.284114224991823
 31
0.0
  0
LINE
  5
F5
330
1F
100
AcDbEntity
  8
0
  6
PUNKT
 62
     7
370
     9
100
AcDbLine
 10
-2.893869402088012
 20
2.284114224991823
 30
0.0
 11
-3.31387265547165
 21
2.284110960011184
 31
0.0
  0
LINE
  5
F6
330
1F
100
AcDbEntity
  8
0
  6
PUNKT
 62
     7
370
     9
100
AcDbLine
 10
-2.893869402088012
 20
2.144114219475362
 30
0.0
 11
-2.893869402088012
 21
2.284114224991823
 31
0.0
  0
LINE
  5
F7
330
1F
100
AcDbEntity
  8
0
  6
PUNKT
 62
     7
370
     9
100
AcDbLine
 10
-2.773869401380529
 20
2.144114219475362
 30
0.0
 11
-2.773869401380529
 21
2.284114224991823
 31
0.0
  0
LINE
  5
F8
330
1F
100
AcDbEntity
  8
0
  6
Continuous
 62
     7
370
     9
100
AcDbLine
 10
-2.433869404067057
 20
2.152114210140399
 30
0.0
 11
-2.750463965472001
 21
2.152114210140399
 31
0.0
  0
LINE
  5
F9
330
1F
100
AcDbEntity
  8
0
  6
Continuous
 62
     7
370
     9
100
AcDbLine
 10
-2.750463965472001
 20
2.152114210140399
 30
0.0
 11
-2.753371796634292
 21
2.152518870714977
 31
0.0
  0
LINE
  5
FA
330
1F
100
AcDbEntity
  8
0
  6
Continuous
 62
     7
370
     9
100
AcDbLine
 10
-2.753371796634292
 20
2.152518870714977
 30
0.0
 11
-2.756305269153156
 21
2.153485924204674
 31
0.0
  0
LINE
  5
FB
330
1F
100
AcDbEntity
  8
0
  6
Continuous
 62
     7
370
     9
100
AcDbLine
 10
-2.756305269153156
 20
2.153485924204674
 30
0.0
 11
-2.758990912753665
 21
2.154989954423994
 31
0.0
  0
LINE
  5
FC
330
1F
100
AcDbEntity
  8
0
  6
Continuous
 62
     7
370
     9
100
AcDbLine
 10
-2.758990912753665
 20
2.154989954423994
 30
0.0
 11
-2.761171750942403
 21
2.156811841767103
 31
0.0
  0
LINE
  5
FD
330
1F
100
AcDbEntity
  8
0
  6
Continuous
 62
     7
370
     9
100
AcDbLine
 10
-2.761171750942403
 20
2.156811841767103
 30
0.0
 11
-2.762993666431897
 21
2.15899267995584
 31
0.0
  0
LINE
  5
FE
330
1F
100
AcDbEntity
  8
0
  6
Continuous
 62
     7
370
     9
100
AcDbLine
 10
-2.762993666431897
 20
2.15899267995584
 30
0.0
 11
-2.764497696651217
 21
2.16167832355635
 31
0.0
  0
LINE
  5
FF
330
1F
100
AcDbEntity
  8
0
  6
Continuous
 62
     7
370
     9
100
AcDbLine
 10
-2.764497696651217
 20
2.16167832355635
 30
0.0
 11
-2.765464750140914
 21
2.164611824221598
 31
0.0
  0
LINE
  5
100
330
1F
100
AcDbEntity
  8
0
  6
Continuous
 62
     7
370
     9
100
AcDbLine
 10
-2.765464750140914
 20
2.164611824221598
 30
0.0
 11
-2.765869410715491
 21
2.167519627237505
 31
0.0
  0
LINE
  5
101
330
1F
100
AcDbEntity
  8
0
  6
Continuous
 62
     7
370
     9
100
AcDbLine
 10
-2.765869410715491
 20
2.167519627237505
 30
0.0
 11
-2.765869410715491
 21
2.26102732172032
 31
0.0
  0
LINE
  5
102
330
1F
100
AcDbEntity
  8
0
  6
Continuous
 62
     7
370
     9
100
AcDbLine
 10
-2.765869410715491
 20
2.26102732172032
 30
0.0
 11
-2.765464356091526
 21
2.263936447616313
 31
0.0
  0
LINE
  5
103
330
1F
100
AcDbEntity
  8
0
  6
Continuous
 62
     7
370
     9
100
AcDbLine
 10
-2.765464356091526
 20
2.263936447616313
 30
0.0
 11
-2.764496289331976
 21
2.266871411893572
 31
0.0
  0
LINE
  5
104
330
1F
100
AcDbEntity
  8
0
  6
Continuous
 62
     7
370
     9
100
AcDbLine
 10
-2.764496289331976
 20
2.266871411893572
 30
0.0
 11
-2.762990711061491
 21
2.26955815320309
 31
0.0
  0
LINE
  5
105
330
1F
100
AcDbEntity
  8
0
  6
Continuous
 62
     7
370
     9
100
AcDbLine
 10
-2.762990711061491
 20
2.26955815320309
 30
0.0
 11
-2.761167163081677
 21
2.27173935729483
 31
0.0
  0
LINE
  5
106
330
1F
100
AcDbEntity
  8
0
  6
Continuous
 62
     7
370
     9
100
AcDbLine
 10
-2.761167163081677
 20
2.27173935729483
 30
0.0
 11
-2.758984495377927
 21
2.2735611320524
 31
0.0
  0
LINE
  5
107
330
1F
100
AcDbEntity
  8
0
  6
Continuous
 62
     7
370
     9
100
AcDbLine
 10
-2.758984495377927
 20
2.2735611320524
 30
0.0
 11
-2.75629654377386
 21
2.275064543051254
 31
0.0
  0
LINE
  5
108
330
1F
100
AcDbEntity
  8
0
  6
Continuous
 62
     7
370
     9
100
AcDbLine
 10
-2.75629654377386
 20
2.275064543051254
 30
0.0
 11
-2.753360791397827
 21
2.276030217368094
 31
0.0
  0
LINE
  5
109
330
1F
100
AcDbEntity
  8
0
  6
Continuous
 62
     7
370
     9
100
AcDbLine
 10
-2.753360791397827
 20
2.276030217368094
 30
0.0
 11
-2.750451299598831
 21
2.276432907695734
 31
0.0
  0
LINE
  5
10A
330
1F
100
AcDbEntity
  8
0
  6
Continuous
 62
     7
370
     9
100
AcDbLine
 10
-2.750451299598831
 20
2.276432907695734
 30
0.0
 11
-2.353872649811784
 21
2.276110969346147
 31
0.0
  0
LINE
  5
10B
330
1F
100
AcDbEntity
  8
0
  6
Continuous
 62
     7
370
     9
100
AcDbLine
 10
-2.353872649811784
 20
2.276110969346147
 30
0.0
 11
-2.35386614799689
 21
2.284110960011184
 31
0.0
  0
LINE
  5
10C
330
1F
100
AcDbEntity
  8
0
  6
Continuous
 62
     7
370
     9
100
AcDbLine
 10
-2.35386614799689
 20
2.284110960011184
 30
0.0
 11
-2.750999028247457
 21
2.284433348702929
 31
0.0
  0
LINE
  5
10D
330
1F
100
AcDbEntity
  8
0
  6
Continuous
 62
     7
370
     9
100
AcDbLine
 10
-2.750999028247457
 20
2.284433348702929
 30
0.0
 11
-2.755173700044178
 21
2.283855559715314
 31
0.0
  0
LINE
  5
10E
330
1F
100
AcDbEntity
  8
0
  6
Continuous
 62
     7
370
     9
100
AcDbLine
 10
-2.755173700044178
 20
2.283855559715314
 30
0.0
 11
-2.759528733874834
 21
2.282423049459825
 31
0.0
  0
LINE
  5
10F
330
1F
100
AcDbEntity
  8
0
  6
Continuous
 62
     7
370
     9
100
AcDbLine
 10
-2.759528733874834
 20
2.282423049459825
 30
0.0
 11
-2.763539312248046
 21
2.280179895175093
 31
0.0
  0
LINE
  5
110
330
1F
100
AcDbEntity
  8
0
  6
Continuous
 62
     7
370
     9
100
AcDbLine
 10
-2.763539312248046
 20
2.280179895175093
 30
0.0
 11
-2.766844429632092
 21
2.277421239852356
 31
0.0
  0
LINE
  5
111
330
1F
100
AcDbEntity
  8
0
  6
Continuous
 62
     7
370
     9
100
AcDbLine
 10
-2.766844429632092
 20
2.277421239852356
 30
0.0
 11
-2.769605758861387
 21
2.274118346032711
 31
0.0
  0
LINE
  5
112
330
1F
100
AcDbEntity
  8
0
  6
Continuous
 62
     7
370
     9
100
AcDbLine
 10
-2.769605758861387
 20
2.274118346032711
 30
0.0
 11
-2.771852178126759
 21
2.270109597174512
 31
0.0
  0
LINE
  5
113
330
1F
100
AcDbEntity
  8
0
  6
Continuous
 62
     7
370
     9
100
AcDbLine
 10
-2.771852178126759
 20
2.270109597174512
 30
0.0
 11
-2.773288234826735
 21
2.265755745492018
 31
0.0
  0
LINE
  5
114
330
1F
100
AcDbEntity
  8
0
  6
Continuous
 62
     7
370
     9
100
AcDbLine
 10
-2.773288234826735
 20
2.265755745492018
 30
0.0
 11
-2.773869401380529
 21
2.26158155218384
 31
0.0
  0
LINE
  5
115
330
1F
100
AcDbEntity
  8
0
  6
Continuous
 62
     7
370
     9
100
AcDbLine
 10
-2.773869401380529
 20
2.26158155218384
 30
0.0
 11
-2.773869401380529
 21
2.166965678237833
 31
0.0
  0
LINE
  5
116
330
1F
100
AcDbEntity
  8
0
  6
Continuous
 62
     7
370
     9
100
AcDbLine
 10
-2.773869401380529
 20
2.166965678237833
 30
0.0
 11
-2.773288797754431
 21
2.162793455176592
 31
0.0
  0
LINE
  5
117
330
1F
100
AcDbEntity
  8
0
  6
Continuous
 62
     7
370
     9
100
AcDbLine
 10
-2.773288797754431
 20
2.162793455176592
 30
0.0
 11
-2.771854232812851
 21
2.158441742619345
 31
0.0
  0
LINE
  5
118
330
1F
100
AcDbEntity
  8
0
  6
Continuous
 62
     7
370
     9
100
AcDbLine
 10
-2.771854232812851
 20
2.158441742619345
 30
0.0
 11
-2.769610121551034
 21
2.154434598105081
 31
0.0
  0
LINE
  5
119
330
1F
100
AcDbEntity
  8
0
  6
Continuous
 62
     7
370
     9
100
AcDbLine
 10
-2.769610121551034
 20
2.154434598105081
 30
0.0
 11
-2.766851297349989
 21
2.151132295359517
 31
0.0
  0
LINE
  5
11A
330
1F
100
AcDbEntity
  8
0
  6
Continuous
 62
     7
370
     9
100
AcDbLine
 10
-2.766851297349989
 20
2.151132295359517
 30
0.0
 11
-2.763548994604425
 21
2.148373499304856
 31
0.0
  0
LINE
  5
11B
330
1F
100
AcDbEntity
  8
0
  6
Continuous
 62
     7
370
     9
100
AcDbLine
 10
-2.763548994604425
 20
2.148373499304856
 30
0.0
 11
-2.759541878236546
 21
2.14612938804304
 31
0.0
  0
LINE
  5
11C
330
1F
100
AcDbEntity
  8
0
  6
Continuous
 62
     7
370
     9
100
AcDbLine
 10
-2.759541878236546
 20
2.14612938804304
 30
0.0
 11
-2.755190165679299
 21
2.144694823101459
 31
0.0
  0
LINE
  5
11D
330
1F
100
AcDbEntity
  8
0
  6
Continuous
 62
     7
370
     9
100
AcDbLine
 10
-2.755190165679299
 20
2.144694823101459
 30
0.0
 11
-2.751017942618057
 21
2.144114219475362
 31
0.0
  0
LINE
  5
11E
330
1F
100
AcDbEntity
  8
0
  6
Continuous
 62
     7
370
     9
100
AcDbLine
 10
-2.751017942618057
 20
2.144114219475362
 30
0.0
 11
-2.433869404067057
 21
2.144114219475362
 31
0.0
  0
LINE
  5
11F
330
1F
100
AcDbEntity
  8
0
  6
Continuous
 62
     7
370
     9
100
AcDbLine
 10
-2.433869404067057
 20
2.144114219475362
 30
0.0
 11
-2.433869404067057
 21
2.152114210140399
 31
0.0
  0
LINE
  5
120
330
1F
100
AcDbEntity
  8
0
  6
Continuous
 62
     7
370
     9
100
AcDbLine
 10
-3.233869399401484
 20
2.144114219475362
 30
0.0
 11
-2.916720860850484
 21
2.144114219475362
 31
0.0
  0
LINE
  5
121
330
1F
100
AcDbEntity
  8
0
  6
Continuous
 62
     7
370
     9
100
AcDbLine
 10
-2.916720860850484
 20
2.144114219475362
 30
0.0
 11
-2.912548637789243
 21
2.144694823101459
 31
0.0
  0
LINE
  5
122
330
1F
100
AcDbEntity
  8
0
  6
Continuous
 62
     7
370
     9
100
AcDbLine
 10
-2.912548637789243
 20
2.144694823101459
 30
0.0
 11
-2.908196925231995
 21
2.14612938804304
 31
0.0
  0
LINE
  5
123
330
1F
100
AcDbEntity
  8
0
  6
Continuous
 62
     7
370
     9
100
AcDbLine
 10
-2.908196925231995
 20
2.14612938804304
 30
0.0
 11
-2.904189780717732
 21
2.148373499304856
 31
0.0
  0
LINE
  5
124
330
1F
100
AcDbEntity
  8
0
  6
Continuous
 62
     7
370
     9
100
AcDbLine
 10
-2.904189780717732
 20
2.148373499304856
 30
0.0
 11
-2.900887477972168
 21
2.151132295359517
 31
0.0
  0
LINE
  5
125
330
1F
100
AcDbEntity
  8
0
  6
Continuous
 62
     7
370
     9
100
AcDbLine
 10
-2.900887477972168
 20
2.151132295359517
 30
0.0
 11
-2.898128681917506
 21
2.154434598105081
 31
0.0
  0
LINE
  5
126
330
1F
100
AcDbEntity
  8
0
  6
Continuous
 62
     7
370
     9
100
AcDbLine
 10
-2.898128681917506
 20
2.154434598105081
 30
0.0
 11
-2.89588457065569
 21
2.158441742619345
 31
0.0
  0
LINE
  5
127
330
1F
100
AcDbEntity
  8
0
  6
Continuous
 62
     7
370
     9
100
AcDbLine
 10
-2.89588457065569
 20
2.158441742619345
 30
0.0
 11
-2.894450005714109
 21
2.162793455176592
 31
0.0
  0
LINE
  5
128
330
1F
100
AcDbEntity
  8
0
  6
Continuous
 62
     7
370
     9
100
AcDbLine
 10
-2.894450005714109
 20
2.162793455176592
 30
0.0
 11
-2.893869402088012
 21
2.166965678237833
 31
0.0
  0
LINE
  5
129
330
1F
100
AcDbEntity
  8
0
  6
Continuous
 62
     7
370
     9
100
AcDbLine
 10
-2.893869402088012
 20
2.166965678237833
 30
0.0
 11
-2.893869402088012
 21
2.26158155218384
 31
0.0
  0
LINE
  5
12A
330
1F
100
AcDbEntity
  8
0
  6
Continuous
 62
     7
370
     9
100
AcDbLine
 10
-2.893869402088012
 20
2.26158155218384
 30
0.0
 11
-2.894450568641806
 21
2.265755745492018
 31
0.0
  0
LINE
  5
12B
330
1F
100
AcDbEntity
  8
0
  6
Continuous
 62
     7
370
     9
100
AcDbLine
 10
-2.894450568641806
 20
2.265755745492018
 30
0.0
 11
-2.895886625341782
 21
2.270109597174512
 31
0.0
  0
LINE
  5
12C
330
1F
100
AcDbEntity
  8
0
  6
Continuous
 62
     7
370
     9
100
AcDbLine
 10
-2.895886625341782
 20
2.270109597174512
 30
0.0
 11
-2.898133044607153
 21
2.274118346032711
 31
0.0
  0
LINE
  5
12D
330
1F
100
AcDbEntity
  8
0
  6
Continuous
 62
     7
370
     9
100
AcDbLine
 10
-2.898133044607153
 20
2.274118346032711
 30
0.0
 11
-2.900894373836449
 21
2.277421239852356
 31
0.0
  0
LINE
  5
12E
330
1F
100
AcDbEntity
  8
0
  6
Continuous
 62
     7
370
     9
100
AcDbLine
 10
-2.900894373836449
 20
2.277421239852356
 30
0.0
 11
-2.904199491220495
 21
2.280179895175093
 31
0.0
  0
LINE
  5
12F
330
1F
100
AcDbEntity
  8
0
  6
Continuous
 62
     7
370
     9
100
AcDbLine
 10
-2.904199491220495
 20
2.280179895175093
 30
0.0
 11
-2.908210069593706
 21
2.282423049459825
 31
0.0
  0
LINE
  5
130
330
1F
100
AcDbEntity
  8
0
  6
Continuous
 62
     7
370
     9
100
AcDbLine
 10
-2.908210069593706
 20
2.282423049459825
 30
0.0
 11
-2.912565075277978
 21
2.283855559715314
 31
0.0
  0
LINE
  5
131
330
1F
100
AcDbEntity
  8
0
  6
Continuous
 62
     7
370
     9
100
AcDbLine
 10
-2.912565075277978
 20
2.283855559715314
 30
0.0
 11
-2.916739747074699
 21
2.284433348702929
 31
0.0
  0
LINE
  5
132
330
1F
100
AcDbEntity
  8
0
  6
Continuous
 62
     7
370
     9
100
AcDbLine
 10
-2.916739747074699
 20
2.284433348702929
 30
0.0
 11
-3.31387265547165
 21
2.284110960011184
 31
0.0
  0
LINE
  5
133
330
1F
100
AcDbEntity
  8
0
  6
Continuous
 62
     7
370
     9
100
AcDbLine
 10
-3.31387265547165
 20
2.284110960011184
 30
0.0
 11
-3.313866153656757
 21
2.276110969346147
 31
0.0
  0
LINE
  5
134
330
1F
100
AcDbEntity
  8
0
  6
Continuous
 62
     7
370
     9
100
AcDbLine
 10
-3.313866153656757
 20
2.276110969346147
 30
0.0
 11
-2.917287503869709
 21
2.276432907695734
 31
0.0
  0
LINE
  5
135
330
1F
100
AcDbEntity
  8
0
  6
Continuous
 62
     7
370
     9
100
AcDbLine
 10
-2.917287503869709
 20
2.276432907695734
 30
0.0
 11
-2.914378012070714
 21
2.276030217368094
 31
0.0
  0
LINE
  5
136
330
1F
100
AcDbEntity
  8
0
  6
Continuous
 62
     7
370
     9
100
AcDbLine
 10
-2.914378012070714
 20
2.276030217368094
 30
0.0
 11
-2.91144225969468
 21
2.275064543051254
 31
0.0
  0
LINE
  5
137
330
1F
100
AcDbEntity
  8
0
  6
Continuous
 62
     7
370
     9
100
AcDbLine
 10
-2.91144225969468
 20
2.275064543051254
 30
0.0
 11
-2.908754308090614
 21
2.2735611320524
 31
0.0
  0
LINE
  5
138
330
1F
100
AcDbEntity
  8
0
  6
Continuous
 62
     7
370
     9
100
AcDbLine
 10
-2.908754308090614
 20
2.2735611320524
 30
0.0
 11
-2.906571640386864
 21
2.27173935729483
 31
0.0
  0
LINE
  5
139
330
1F
100
AcDbEntity
  8
0
  6
Continuous
 62
     7
370
     9
100
AcDbLine
 10
-2.906571640386864
 20
2.27173935729483
 30
0.0
 11
-2.904748064260666
 21
2.26955815320309
 31
0.0
  0
LINE
  5
13A
330
1F
100
AcDbEntity
  8
0
  6
Continuous
 62
     7
370
     9
100
AcDbLine
 10
-2.904748064260666
 20
2.26955815320309
 30
0.0
 11
-2.90324248599018
 21
2.266871411893572
 31
0.0
  0
LINE
  5
13B
330
1F
100
AcDbEntity
  8
0
  6
Continuous
 62
     7
370
     9
100
AcDbLine
 10
-2.90324248599018
 20
2.266871411893572
 30
0.0
 11
-2.90227441923063
 21
2.263936447616313
 31
0.0
  0
LINE
  5
13C
330
1F
100
AcDbEntity
  8
0
  6
Continuous
 62
     7
370
     9
100
AcDbLine
 10
-2.90227441923063
 20
2.263936447616313
 30
0.0
 11
-2.901869392753049
 21
2.26102732172032
 31
0.0
  0
LINE
  5
13D
330
1F
100
AcDbEntity
  8
0
  6
Continuous
 62
     7
370
     9
100
AcDbLine
 10
-2.901869392753049
 20
2.26102732172032
 30
0.0
 11
-2.901869392753049
 21
2.167519627237505
 31
0.0
  0
LINE
  5
13E
330
1F
100
AcDbEntity
  8
0
  6
Continuous
 62
     7
370
     9
100
AcDbLine
 10
-2.901869392753049
 20
2.167519627237505
 30
0.0
 11
-2.902274053327628
 21
2.164611824221598
 31
0.0
  0
LINE
  5
13F
330
1F
100
AcDbEntity
  8
0
  6
Continuous
 62
     7
370
     9
100
AcDbLine
 10
-2.902274053327628
 20
2.164611824221598
 30
0.0
 11
-2.903241106817324
 21
2.16167832355635
 31
0.0
  0
LINE
  5
140
330
1F
100
AcDbEntity
  8
0
  6
Continuous
 62
     7
370
     9
100
AcDbLine
 10
-2.903241106817324
 20
2.16167832355635
 30
0.0
 11
-2.90474510889026
 21
2.15899267995584
 31
0.0
  0
LINE
  5
141
330
1F
100
AcDbEntity
  8
0
  6
Continuous
 62
     7
370
     9
100
AcDbLine
 10
-2.90474510889026
 20
2.15899267995584
 30
0.0
 11
-2.906567024379753
 21
2.156811841767103
 31
0.0
  0
LINE
  5
142
330
1F
100
AcDbEntity
  8
0
  6
Continuous
 62
     7
370
     9
100
AcDbLine
 10
-2.906567024379753
 20
2.156811841767103
 30
0.0
 11
-2.90874786256849
 21
2.154989954423994
 31
0.0
  0
LINE
  5
143
330
1F
100
AcDbEntity
  8
0
  6
Continuous
 62
     7
370
     9
100
AcDbLine
 10
-2.90874786256849
 20
2.154989954423994
 30
0.0
 11
-2.911433506169001
 21
2.153485924204674
 31
0.0
  0
LINE
  5
144
330
1F
100
AcDbEntity
  8
0
  6
Continuous
 62
     7
370
     9
100
AcDbLine
 10
-2.911433506169001
 20
2.153485924204674
 30
0.0
 11
-2.914367006834249
 21
2.152518870714977
 31
0.0
  0
LINE
  5
145
330
1F
100
AcDbEntity
  8
0
  6
Continuous
 62
     7
370
     9
100
AcDbLine
 10
-2.914367006834249
 20
2.152518870714977
 30
0.0
 11
-2.917274809850155
 21
2.152114210140399
 31
0.0
  0
LINE
  5
146
330
1F
100
AcDbEntity
  8
0
  6
Continuous
 62
     7
370
     9
100
AcDbLine
 10
-2.917274809850155
 20
2.152114210140399
 30
0.0
 11
-3.233869399401484
 21
2.152114210140399
 31
0.0
  0
LINE
  5
147
330
1F
100
AcDbEntity
  8
0
  6
Continuous
 62
     7
370
     9
100
AcDbLine
 10
-3.233869399401484
 20
2.152114210140399
 30
0.0
 11
-3.233869399401484
 21
2.144114219475362
 31
0.0
  0
LINE
  5
149
330
1F
100
AcDbEntity
  8
0
  6
STRICHLINIE__LANG
 62
     7
370
     9
100
AcDbLine
 10
-1.906037643366099
 20
2.350473313357721
 30
0.0
 11
-2.595615485931953
 21
2.350473313357721
 31
0.0
  0
LINE
  5
14A
330
1F
100
AcDbEntity
  8
0
  6
STRICHLINIE__LANG
 62
     7
370
     9
100
AcDbLine
 10
-2.595615503521281
 20
2.350473323995087
 30
0.0
 11
-2.595615503521281
 21
2.426522463339994
 31
0.0
  0
LINE
  5
14B
330
1F
100
AcDbEntity
  8
0
  6
Continuous
 62
     7
370
     9
100
AcDbLine
 10
-2.61886939929393
 20
2.109022460881728
 30
0.0
 11
-2.61886939929393
 21
2.116522459166797
 31
0.0
  0
LINE
  5
14C
330
1F
100
AcDbEntity
  8
0
  6
Continuous
 62
     7
370
     9
100
AcDbLine
 10
-2.61886939929393
 20
2.096522454357819
 30
0.0
 11
-3.04386939593577
 21
2.096522454357819
 31
0.0
  0
LINE
  5
14D
330
1F
100
AcDbEntity
  8
0
  6
Continuous
 62
     7
370
     9
100
AcDbLine
 10
-2.793869406189507
 20
2.116522459166797
 30
0.0
 11
-2.61886939929393
 21
2.116522459166797
 31
0.0
  0
LINE
  5
14E
330
1F
100
AcDbEntity
  8
0
  6
Continuous
 62
     7
370
     9
100
AcDbLine
 10
-2.793869383002431
 20
2.116522459674124
 30
0.0
 11
-1.906037643366099
 21
2.116522459674124
 31
0.0
  0
LINE
  5
14F
330
1F
100
AcDbEntity
  8
0
  6
Continuous
 62
     7
370
     9
100
AcDbLine
 10
-2.793869383002431
 20
2.316522461090682
 30
0.0
 11
-1.906037643366099
 21
2.316522461090682
 31
0.0
  0
LINE
  5
150
330
1F
100
AcDbEntity
  8
0
  6
Continuous
 62
     7
370
     9
100
AcDbLine
 10
-2.61886939929393
 20
2.096522454357819
 30
0.0
 11
-2.61886939929393
 21
2.113353570285287
 31
0.0
  0
LINE
  5
151
330
1F
100
AcDbEntity
  8
0
  6
Continuous
 62
     7
370
     9
100
AcDbLine
 10
-2.61886939929393
 20
2.336522455772786
 30
0.0
 11
-3.04386939593577
 21
2.336522455772786
 31
0.0
  0
LINE
  5
152
330
1F
100
AcDbEntity
  8
0
  6
Continuous
 62
     7
370
     9
100
AcDbLine
 10
-3.04386939593577
 20
2.109022460881728
 30
0.0
 11
-3.04386939593577
 21
2.116522459166797
 31
0.0
  0
LINE
  5
153
330
1F
100
AcDbEntity
  8
0
  6
Continuous
 62
     7
370
     9
100
AcDbLine
 10
-3.04386939593577
 20
2.109022460881728
 30
0.0
 11
-3.04386939593577
 21
2.116522459166797
 31
0.0
  0
LINE
  5
154
330
1F
100
AcDbEntity
  8
0
  6
Continuous
 62
     7
370
     9
100
AcDbLine
 10
-2.873869397279034
 20
2.116522459166797
 30
0.0
 11
-3.04386939593577
 21
2.116522459166797
 31
0.0
  0
LINE
  5
155
330
1F
100
AcDbEntity
  8
0
  6
Continuous
 62
     7
370
     9
100
AcDbLine
 10
-3.04386939593577
 20
2.096522454357819
 30
0.0
 11
-3.04386939593577
 21
2.113353570285287
 31
0.0
  0
LINE
  5
156
330
1F
100
AcDbEntity
  8
0
  6
Continuous
 62
     7
370
     9
100
AcDbLine
 10
-2.61886939929393
 20
2.106522442689116
 30
0.0
 11
-2.61886939929393
 21
2.116522459166797
 31
0.0
  0
LINE
  5
157
330
1F
100
AcDbEntity
  8
0
  6
Continuous
 62
     7
370
     9
100
AcDbLine
 10
-2.793869406189507
 20
2.106522442689116
 30
0.0
 11
-2.793869406189507
 21
2.116522459166797
 31
0.0
  0
LINE
  5
158
330
1F
100
AcDbEntity
  8
0
  6
Continuous
 62
     7
370
     9
100
AcDbLine
 10
-2.873869397279034
 20
2.106522442689116
 30
0.0
 11
-2.873869397279034
 21
2.116522459166797
 31
0.0
  0
LINE
  5
159
330
1F
100
AcDbEntity
  8
000 Kataster
  6
Continuous
 62
     7
370
     9
100
AcDbLine
 10
-3.088630699120765
 20
2.31888336290291
 30
0.0
 11
-3.046353246364379
 21
2.318874904408871
 31
0.0
  0
LINE
  5
15A
330
1F
100
AcDbEntity
  8
000 Kataster
  6
Continuous
 62
     7
370
     9
100
AcDbLine
 10
-3.046369395924569
 20
2.436071383761279
 30
0.0
 11
-3.046369395924569
 21
2.318874904408871
 31
0.0
  0
LINE
  5
15B
330
1F
100
AcDbEntity
  8
0
  6
Continuous
 62
     7
370
     9
100
AcDbLine
 10
-2.613451445386875
 20
2.316522450963808
 30
0.0
 11
-2.608869410962633
 21
2.316522450963808
 31
0.0
  0
LINE
  5
15C
330
1F
100
AcDbEntity
  8
0
  6
Continuous
 62
     7
370
     9
100
AcDbLine
 10
-2.608869387621804
 20
2.316522447660411
 30
0.0
 11
-2.608869387621804
 21
2.970841838288431
 31
0.0
  0
LWPOLYLINE
  5
15E
330
1F
100
AcDbEntity
  8
0
  6
STRICHLINIE_S4
 62
     7
370
     9
100
AcDbPolyline
 90
        4
 70
   129
 43
0.0
 10
-3.794907741603393
 20
1.30520184712525
 10
-1.906037631896209
 20
1.30520184712525
 10
-1.906037631896209
 20
2.970841852957949
 10
-3.794907741603393
 20
2.970841852957949
  0
VIEWPORT
  5
6A
330
1B
100
AcDbEntity
 67
     1
  8
0
  6
Continuous
370
     0
100
AcDbViewport
 10
87.62347291338088
 20
148.5
 30
0.0
 40
0.2937036650078859
 41
0.3564
 68
     1
 69
     1
 12
87.62347291338088
 22
148.5
 13
0.0
 23
0.0
 14
0.5
 24
0.5
 15
0.0
 25
0.0
 16
0.0
 26
0.0
 36
1.0
 17
0.0
 27
0.0
 37
0.0
 42
50.0
 43
0.0
 44
0.0
 45
0.3564
 50
0.0
 51
0.0
 72
   100
 90
   557152
  1

281
     0
 71
     1
 74
     0
110
0.0
120
0.0
130
0.0
111
1.0
121
0.0
131
0.0
112
0.0
122
1.0
132
0.0
 79
     0
146
0.0
170
     0
 61
     5
292
     1
282
     1
141
0.0
142
0.0
 63
   256
361
190
  0
LINE
  5
15F
330
1B
100
AcDbEntity
 67
     1
  8
000 Kataster
  6
Continuous
 62
     8
 48
1000.0
370
    60
100
AcDbLine
 10
145.444041244086
 20
232.4730709378237
 30
0.0
 11
15.0
 21
232.4730709378238
 31
0.0
  0
VIEWPORT
  5
160
330
1B
100
AcDbEntity
 67
     1
  8
NonPlottable_000 Kataster
  6
Continuous
 62
     7
 48
1000.0
370
     9
100
AcDbViewport
 10
160.0
 20
232.0
 30
0.0
 40
59.99999999999997
 41
40.0
 68
     2
 69
     2
 12
0.0
 22
0.0
 13
0.0
 23
0.0
 14
0.5
 24
0.5
 15
0.0
 25
0.0
 16
0.0
 26
0.0
 36
1.0
 17
-2.942044019282311
 27
2.366956423014683
 37
0.0
 42
50.0
 43
0.0
 44
0.0
 45
0.8000000000000002
 50
0.0
 51
0.0
 72
   100
 90
   622688
340
162
  1

281
     0
 71
     1
 74
     0
110
0.0
120
0.0
130
0.0
111
1.0
121
0.0
131
0.0
112
0.0
122
1.0
132
0.0
 79
     0
146
0.0
170
     0
 61
     5
292
     1
282
     1
141
0.0
142
0.0
 63
   256
  0
LWPOLYLINE
  5
162
102
{ACAD_REACTORS
330
160
102
}
330
1B
100
AcDbEntity
 67
     1
  8
NonPlottable_000 Kataster
  6
Continuous
 62
     7
 48
1000.0
370
     9
100
AcDbPolyline
 90
        4
 70
   129
 43
0.0
 10
130.0
 20
212.0
 10
190.0
 20
212.0
 10
190.0
 20
252.0
 10
130.0
 20
252.0
  0
VIEWPORT
  5
163
330
1B
100
AcDbEntity
 67
     1
  8
NonPlottable_000 Kataster
  6
Continuous
 62
    59
420
  5000268
 48
1000.0
370
     9
100
AcDbViewport
 10
102.5
 20
113.5
 30
0.0
 40
175.0
 41
177.0
 68
     3
 69
     3
 12
0.0
 22
0.0
 13
0.0
 23
0.0
 14
0.5
 24
0.5
 15
0.0
 25
0.0
 16
0.0
 26
0.0
 36
1.0
 17
-6.031065057567794
 27
3.558275948856001
 37
0.0
 42
50.0
 43
0.0
 44
0.0
 45
0.354
 50
0.0
 51
0.0
 72
   100
 90
   622688
340
164
  1

281
     0
 71
     1
 74
     0
110
0.0
120
0.0
130
0.0
111
1.0
121
0.0
131
0.0
112
0.0
122
1.0
132
0.0
 79
     0
146
0.0
170
     0
 61
     5
292
     1
282
     1
141
0.0
142
0.0
 63
   256
  0
LWPOLYLINE
  5
164
102
{ACAD_REACTORS
330
163
102
}
330
1B
100
AcDbEntity
 67
     1
  8
NonPlottable_000 Kataster
  6
Continuous
 62
    59
420
  5000268
 48
1000.0
370
     9
100
AcDbPolyline
 90
        4
 70
   129
 43
0.0
 10
15.0
 20
25.0
 10
190.0
 20
25.0
 10
190.0
 20
202.0
 10
15.0
 20
202.0
  0
HATCH
  5
165
330
1B
100
AcDbEntity
 67
     1
  8
000 Kataster
  6
Continuous
 62
   255
 48
1000.0
370
     5
100
AcDbHatch
 10
0.0
 20
0.0
 30
0.0
210
0.0
220
0.0
230
1.0
  2
SOLID
 70
     1
 71
     0
 91
        1
 92
        3
 72
     0
 73
     1
 93
        4
 10
108.2309452268081
 20
191.9101528575356
 10
175.0173768323119
 20
191.9101528575356
 10
175.0173768323119
 20
148.1256803813
 10
108.2309452268081
 20
148.1256803813
 97
        0
 75
     0
 76
     1
 98
        0
  0
LINE
  5
166
330
1B
100
AcDbEntity
 67
     1
  8
000 Kataster
  6
Continuous
 62
     7
 48
1000.0
370
    13
100
AcDbLine
 10
81.5053356253414
 20
198.199251825383
 30
0.0
 11
52.13587583758873
 21
198.199251825383
 31
0.0
  0
CIRCLE
  5
167
330
1B
100
AcDbEntity
 67
     1
  8
000 Kataster
  6
Continuous
 62
     7
 48
1000.0
370
     5
100
AcDbCircle
 10
82.10533562534141
 20
198.199251825383
 30
0.0
 40
0.6
  0
HATCH
  5
168
330
1B
100
AcDbEntity
 67
     1
  8
000 Kataster
  6
Continuous
 62
   178
420
        0
 48
1000.0
370
     0
100
AcDbHatch
 10
0.0
 20
0.0
 30
0.0
210
0.0
220
0.0
230
1.0
  2
SOLID
 70
     1
 71
     0
 91
        1
 92
        3
 72
     0
 73
     1
 93
       16
 10
81.5053356253414
 20
198.1992518253831
 10
81.55100791273142
 20
197.9696417653015
 10
81.68107155267134
 20
197.774987752713
 10
81.87572556525987
 20
197.6449241127731
 10
82.10533562534141
 20
197.599251825383
 10
82.33494568542295
 20
197.6449241127731
 10
82.52959969801147
 20
197.774987752713
 10
82.65966333795139
 20
197.9696417653015
 10
82.7053356253414
 20
198.1992518253831
 10
82.65966333795139
 20
198.4288618854646
 10
82.52959969801147
 20
198.6235158980531
 10
82.33494568542295
 20
198.753579537993
 10
82.10533562534141
 20
198.799251825383
 10
81.87572556525987
 20
198.753579537993
 10
81.68107155267134
 20
198.6235158980531
 10
81.55100791273142
 20
198.4288618854646
 97
        0
 75
     0
 76
     1
 98
        0
  0
LINE
  5
169
330
1B
100
AcDbEntity
 67
     1
  8
000 Kataster
  6
Continuous
 62
     7
 48
1000.0
370
    13
100
AcDbLine
 10
75.92513518678528
 20
190.3806133615127
 30
0.0
 11
52.13587583758873
 21
190.3806133615127
 31
0.0
  0
CIRCLE
  5
16A
330
1B
100
AcDbEntity
 67
     1
  8
000 Kataster
  6
Continuous
 62
     7
 48
1000.0
370
     5
100
AcDbCircle
 10
76.52513518678529
 20
190.3806133615127
 30
0.0
 40
0.6
  0
HATCH
  5
16B
330
1B
100
AcDbEntity
 67
     1
  8
000 Kataster
  6
Continuous
 62
   178
420
        0
 48
1000.0
370
     0
100
AcDbHatch
 10
0.0
 20
0.0
 30
0.0
210
0.0
220
0.0
230
1.0
  2
SOLID
 70
     1
 71
     0
 91
        1
 92
        3
 72
     0
 73
     1
 93
       16
 10
75.92513518678528
 20
190.3806133615127
 10
75.97080747417532
 20
190.1510033014312
 10
76.10087111411524
 20
189.9563492888427
 10
76.29552512670375
 20
189.8262856489027
 10
76.52513518678529
 20
189.7806133615127
 10
76.75474524686683
 20
189.8262856489027
 10
76.94939925945535
 20
189.9563492888427
 10
77.07946289939527
 20
190.1510033014312
 10
77.12513518678529
 20
190.3806133615127
 10
77.07946289939527
 20
190.6102234215942
 10
76.94939925945535
 20
190.8048774341828
 10
76.75474524686683
 20
190.9349410741227
 10
76.52513518678529
 20
190.9806133615127
 10
76.29552512670375
 20
190.9349410741227
 10
76.10087111411524
 20
190.8048774341828
 10
75.97080747417532
 20
190.6102234215942
 97
        0
 75
     0
 76
     1
 98
        0
  0
LINE
  5
16C
330
1B
100
AcDbEntity
 67
     1
  8
000 Kataster
  6
Continuous
 62
     7
 48
1000.0
370
    13
100
AcDbLine
 10
74.59325265281763
 20
182.5619748976424
 30
0.0
 11
52.13587583758873
 21
182.5619748976424
 31
0.0
  0
CIRCLE
  5
16D
330
1B
100
AcDbEntity
 67
     1
  8
000 Kataster
  6
Continuous
 62
     7
 48
1000.0
370
     5
100
AcDbCircle
 10
75.19325265281763
 20
182.5619748976424
 30
0.0
 40
0.6
  0
HATCH
  5
16E
330
1B
100
AcDbEntity
 67
     1
  8
000 Kataster
  6
Continuous
 62
   178
420
        0
 48
1000.0
370
     0
100
AcDbHatch
 10
0.0
 20
0.0
 30
0.0
210
0.0
220
0.0
230
1.0
  2
SOLID
 70
     1
 71
     0
 91
        1
 92
        3
 72
     0
 73
     1
 93
       16
 10
74.59325265281763
 20
182.5619748976424
 10
74.63892494020766
 20
182.3323648375609
 10
74.76898858014758
 20
182.1377108249723
 10
74.9636425927361
 20
182.0076471850324
 10
75.19325265281763
 20
181.9619748976424
 10
75.42286271289917
 20
182.0076471850324
 10
75.61751672548769
 20
182.1377108249723
 10
75.74758036542761
 20
182.3323648375609
 10
75.79325265281764
 20
182.5619748976424
 10
75.74758036542761
 20
182.7915849577239
 10
75.61751672548769
 20
182.9862389703125
 10
75.42286271289917
 20
183.1163026102524
 10
75.19325265281763
 20
183.1619748976424
 10
74.9636425927361
 20
183.1163026102524
 10
74.76898858014758
 20
182.9862389703125
 10
74.63892494020766
 20
182.7915849577239
 97
        0
 75
     0
 76
     1
 98
        0
  0
LINE
  5
16F
330
1B
100
AcDbEntity
 67
     1
  8
000 Kataster
  6
Continuous
 62
     7
 48
1000.0
370
    13
100
AcDbLine
 10
73.9294356224735
 20
174.7433364337721
 30
0.0
 11
52.13587583758873
 21
174.7433364337721
 31
0.0
  0
CIRCLE
  5
170
330
1B
100
AcDbEntity
 67
     1
  8
000 Kataster
  6
Continuous
 62
     7
 48
1000.0
370
     5
100
AcDbCircle
 10
74.52943562247351
 20
174.7433364337721
 30
0.0
 40
0.6
  0
HATCH
  5
171
330
1B
100
AcDbEntity
 67
     1
  8
000 Kataster
  6
Continuous
 62
   178
420
        0
 48
1000.0
370
     0
100
AcDbHatch
 10
0.0
 20
0.0
 30
0.0
210
0.0
220
0.0
230
1.0
  2
SOLID
 70
     1
 71
     0
 91
        1
 92
        3
 72
     0
 73
     1
 93
       16
 10
73.9294356224735
 20
174.7433364337721
 10
73.97510790986352
 20
174.5137263736906
 10
74.10517154980344
 20
174.319072361102
 10
74.29982556239197
 20
174.1890087211621
 10
74.52943562247351
 20
174.1433364337721
 10
74.75904568255505
 20
174.1890087211621
 10
74.95369969514357
 20
174.319072361102
 10
75.08376333508349
 20
174.5137263736906
 10
75.12943562247351
 20
174.7433364337721
 10
75.08376333508349
 20
174.9729464938536
 10
74.95369969514357
 20
175.1676005064421
 10
74.75904568255505
 20
175.2976641463821
 10
74.52943562247351
 20
175.3433364337721
 10
74.29982556239197
 20
175.2976641463821
 10
74.10517154980344
 20
175.1676005064421
 10
73.97510790986352
 20
174.9729464938536
 97
        0
 75
     0
 76
     1
 98
        0
  0
LINE
  5
172
330
1B
100
AcDbEntity
 67
     1
  8
000 Kataster
  6
Continuous
 62
     7
 48
1000.0
370
    13
100
AcDbLine
 10
84.65750239897989
 20
80.76353304056619
 30
0.0
 11
52.13587583758873
 21
80.76353304056619
 31
0.0
  0
CIRCLE
  5
173
330
1B
100
AcDbEntity
 67
     1
  8
000 Kataster
  6
Continuous
 62
     7
 48
1000.0
370
     5
100
AcDbCircle
 10
85.2575023989799
 20
80.76353304056619
 30
0.0
 40
0.6
  0
HATCH
  5
174
330
1B
100
AcDbEntity
 67
     1
  8
000 Kataster
  6
Continuous
 62
   178
420
        0
 48
1000.0
370
     0
100
AcDbHatch
 10
0.0
 20
0.0
 30
0.0
210
0.0
220
0.0
230
1.0
  2
SOLID
 70
     1
 71
     0
 91
        1
 92
        3
 72
     0
 73
     1
 93
       16
 10
84.65750239897989
 20
80.76353304056619
 10
84.7031746863699
 20
80.53392298048465
 10
84.83323832630983
 20
80.33926896789613
 10
85.02789233889835
 20
80.20920532795621
 10
85.2575023989799
 20
80.16353304056618
 10
85.48711245906144
 20
80.20920532795621
 10
85.68176647164995
 20
80.33926896789613
 10
85.81183011158987
 20
80.53392298048465
 10
85.85750239897989
 20
80.76353304056619
 10
85.81183011158987
 20
80.99314310064773
 10
85.68176647164995
 20
81.18779711323624
 10
85.48711245906144
 20
81.31786075317616
 10
85.2575023989799
 20
81.3635330405662
 10
85.02789233889835
 20
81.31786075317616
 10
84.83323832630983
 20
81.18779711323624
 10
84.7031746863699
 20
80.99314310064773
 97
        0
 75
     0
 76
     1
 98
        0
  0
LINE
  5
175
330
1B
100
AcDbEntity
 67
     1
  8
000 Kataster
  6
Continuous
 62
     7
 48
1000.0
370
    13
100
AcDbLine
 10
81.91404104002913
 20
69.13390701991861
 30
0.0
 11
103.6097770718146
 21
69.13390701991861
 31
0.0
  0
CIRCLE
  5
176
330
1B
100
AcDbEntity
 67
     1
  8
000 Kataster
  6
Continuous
 62
     7
 48
1000.0
370
     5
100
AcDbCircle
 10
81.26404104002914
 20
69.13390701991861
 30
0.0
 40
0.6500000000000001
  0
HATCH
  5
177
330
1B
100
AcDbEntity
 67
     1
  8
000 Kataster
  6
Continuous
 62
   178
420
        0
 48
1000.0
370
     0
100
AcDbHatch
 10
0.0
 20
0.0
 30
0.0
210
0.0
220
0.0
230
1.0
  2
SOLID
 70
     1
 71
     0
 91
        1
 92
        3
 72
     0
 73
     1
 93
       16
 10
80.61404104002915
 20
69.13390701991861
 10
80.66351935136834
 20
68.8851627881636
 10
80.80442162796992
 20
68.67428760785937
 10
81.01529680827414
 20
68.5333853312578
 10
81.26404104002914
 20
68.4839070199186
 10
81.51278527178414
 20
68.5333853312578
 10
81.72366045208837
 20
68.67428760785937
 10
81.86456272868995
 20
68.8851627881636
 10
81.91404104002913
 20
69.13390701991861
 10
81.86456272868995
 20
69.38265125167361
 10
81.72366045208837
 20
69.59352643197784
 10
81.51278527178414
 20
69.7344287085794
 10
81.26404104002914
 20
69.7839070199186
 10
81.01529680827414
 20
69.7344287085794
 10
80.80442162796992
 20
69.59352643197784
 10
80.66351935136834
 20
69.38265125167361
 97
        0
 75
     0
 76
     1
 98
        0
  0
LINE
  5
178
330
1B
100
AcDbEntity
 67
     1
  8
000 Kataster
  6
Continuous
 62
     7
 48
1000.0
370
    13
100
AcDbLine
 10
78.63962273019507
 20
49.66346966710817
 30
0.0
 11
52.13587583758873
 21
49.66346966710817
 31
0.0
  0
CIRCLE
  5
179
330
1B
100
AcDbEntity
 67
     1
  8
000 Kataster
  6
Continuous
 62
     7
 48
1000.0
370
     5
100
AcDbCircle
 10
79.23962273019508
 20
49.66346966710817
 30
0.0
 40
0.6
  0
HATCH
  5
17A
330
1B
100
AcDbEntity
 67
     1
  8
000 Kataster
  6
Continuous
 62
   178
420
        0
 48
1000.0
370
     0
100
AcDbHatch
 10
0.0
 20
0.0
 30
0.0
210
0.0
220
0.0
230
1.0
  2
SOLID
 70
     1
 71
     0
 91
        1
 92
        3
 72
     0
 73
     1
 93
       16
 10
78.63962273019507
 20
49.66346966710817
 10
78.6852950175851
 20
49.43385960702663
 10
78.81535865752502
 20
49.23920559443813
 10
79.01001267011354
 20
49.10914195449821
 10
79.23962273019508
 20
49.06346966710817
 10
79.46923279027662
 20
49.10914195449821
 10
79.66388680286514
 20
49.23920559443813
 10
79.79395044280506
 20
49.43385960702663
 10
79.83962273019509
 20
49.66346966710817
 10
79.79395044280506
 20
49.89307972718971
 10
79.66388680286514
 20
50.08773373977824
 10
79.46923279027662
 20
50.21779737971815
 10
79.23962273019508
 20
50.26346966710818
 10
79.01001267011354
 20
50.21779737971815
 10
78.81535865752502
 20
50.08773373977824
 10
78.6852950175851
 20
49.89307972718971
 97
        0
 75
     0
 76
     1
 98
        0
  0
LINE
  5
17B
330
1B
100
AcDbEntity
 67
     1
  8
000 Kataster
  6
Continuous
 62
     7
 48
1000.0
370
    13
100
AcDbLine
 10
76.57875243187932
 20
54.67177387557023
 30
0.0
 11
52.13587583758873
 21
54.67177387557023
 31
0.0
  0
CIRCLE
  5
17C
330
1B
100
AcDbEntity
 67
     1
  8
000 Kataster
  6
Continuous
 62
     7
 48
1000.0
370
     5
100
AcDbCircle
 10
77.17875243187933
 20
54.67177387557023
 30
0.0
 40
0.6
  0
HATCH
  5
17D
330
1B
100
AcDbEntity
 67
     1
  8
000 Kataster
  6
Continuous
 62
   178
420
        0
 48
1000.0
370
     0
100
AcDbHatch
 10
0.0
 20
0.0
 30
0.0
210
0.0
220
0.0
230
1.0
  2
SOLID
 70
     1
 71
     0
 91
        1
 92
        3
 72
     0
 73
     1
 93
       16
 10
76.57875243187932
 20
54.67177387557023
 10
76.62442471926934
 20
54.44216381548869
 10
76.75448835920928
 20
54.24750980290018
 10
76.94914237179779
 20
54.11744616296026
 10
77.17875243187933
 20
54.07177387557023
 10
77.40836249196087
 20
54.11744616296026
 10
77.60301650454939
 20
54.24750980290018
 10
77.7330801444893
 20
54.44216381548869
 10
77.77875243187933
 20
54.67177387557023
 10
77.7330801444893
 20
54.90138393565178
 10
77.60301650454939
 20
55.09603794824029
 10
77.40836249196087
 20
55.22610158818021
 10
77.17875243187933
 20
55.27177387557024
 10
76.94914237179779
 20
55.22610158818021
 10
76.75448835920928
 20
55.09603794824029
 10
76.62442471926934
 20
54.90138393565178
 97
        0
 75
     0
 76
     1
 98
        0
  0
LINE
  5
17E
330
1B
100
AcDbEntity
 67
     1
  8
000 Kataster
  6
Continuous
 62
     7
 48
1000.0
370
    13
100
AcDbLine
 10
76.67374234133696
 20
113.8418396699325
 30
0.0
 11
52.13587583758873
 21
113.8418396699325
 31
0.0
  0
CIRCLE
  5
17F
330
1B
100
AcDbEntity
 67
     1
  8
000 Kataster
  6
Continuous
 62
     7
 48
1000.0
370
     5
100
AcDbCircle
 10
77.27374234133697
 20
113.8418396699325
 30
0.0
 40
0.6
  0
HATCH
  5
180
330
1B
100
AcDbEntity
 67
     1
  8
000 Kataster
  6
Continuous
 62
   178
420
        0
 48
1000.0
370
     0
100
AcDbHatch
 10
0.0
 20
0.0
 30
0.0
210
0.0
220
0.0
230
1.0
  2
SOLID
 70
     1
 71
     0
 91
        1
 92
        3
 72
     0
 73
     1
 93
       16
 10
76.67374234133696
 20
113.8418396699325
 10
76.71941462872698
 20
113.612229609851
 10
76.84947826866691
 20
113.4175755972625
 10
77.04413228125543
 20
113.2875119573226
 10
77.27374234133697
 20
113.2418396699325
 10
77.50335240141851
 20
113.2875119573226
 10
77.69800641400703
 20
113.4175755972625
 10
77.82807005394694
 20
113.612229609851
 10
77.87374234133696
 20
113.8418396699325
 10
77.82807005394694
 20
114.0714497300141
 10
77.69800641400703
 20
114.2661037426026
 10
77.50335240141851
 20
114.3961673825425
 10
77.27374234133697
 20
114.4418396699325
 10
77.04413228125543
 20
114.3961673825425
 10
76.84947826866691
 20
114.2661037426026
 10
76.71941462872698
 20
114.0714497300141
 97
        0
 75
     0
 76
     1
 98
        0
  0
CIRCLE
  5
181
330
1B
100
AcDbEntity
 67
     1
  8
000 Kataster
  6
Continuous
 62
     8
 48
1000.0
370
    60
100
AcDbCircle
 10
156.1067694931644
 20
232.4730709378237
 30
0.0
 40
10.66272824907846
  0
MTEXT
  5
183
330
1B
100
AcDbEntity
 67
     1
  8
000 Kataster
  6
Continuous
 62
     7
370
    13
100
AcDbMText
 10
45.32645432747833
 20
196.9524208312312
 30
0.0
 40
2.2
 41
0.0
 46
0.0
 71
     7
 72
     1
  1
\A1;{\pql;\fArial|b0|i0|c0|p34;1/11}
  7
ERSTELLTER_STIL_1
 73
     1
 44
1.0
  0
MTEXT
  5
184
330
1B
100
AcDbEntity
 67
     1
  8
000 Kataster
  6
Continuous
 62
     7
370
    13
100
AcDbMText
 10
45.10040604264005
 20
189.1337786482741
 30
0.0
 40
2.2
 41
0.0
 46
0.0
 71
     7
 72
     1
  1
\A1;{\pql;\fArial|b0|i0|c0|p34;2/12}
  7
ERSTELLTER_STIL_1
 73
     1
 44
1.0
  0
MTEXT
  5
185
330
1B
100
AcDbEntity
 67
     1
  8
000 Kataster
  6
Continuous
 62
     7
370
    13
100
AcDbMText
 10
49.33429184841548
 20
181.3136795399028
 30
0.0
 40
2.2
 41
0.0
 46
0.0
 71
     7
 72
     1
  1
\A1;{\pql;\fArial|b0|i0|c0|p34;3}
  7
ERSTELLTER_STIL_1
 73
     1
 44
1.0
  0
MTEXT
  5
186
330
1B
100
AcDbEntity
 67
     1
  8
000 Kataster
  6
Continuous
 62
     7
370
    13
100
AcDbMText
 10
49.33429184841548
 20
173.533344647461
 30
0.0
 40
2.2
 41
0.0
 46
0.0
 71
     7
 72
     1
  1
\A1;{\pql;\fArial|b0|i0|c0|p34;4}
  7
ERSTELLTER_STIL_1
 73
     1
 44
1.0
  0
MTEXT
  5
187
330
1B
100
AcDbEntity
 67
     1
  8
000 Kataster
  6
Continuous
 62
     7
370
    13
100
AcDbMText
 10
47.75593720615026
 20
79.55354125425514
 30
0.0
 40
2.2
 41
0.0
 46
0.0
 71
     7
 72
     1
  1
\A1;{\pql;\fArial|b0|i0|c0|p34;21}
  7
ERSTELLTER_STIL_1
 73
     1
 44
1.0
  0
MTEXT
  5
188
330
1B
100
AcDbEntity
 67
     1
  8
000 Kataster
  6
Continuous
 62
     7
370
    13
100
AcDbMText
 10
113.9396444654811
 20
189.9072957146785
 30
0.0
 40
2.2
 41
5.0
 46
0.0
 71
     3
 72
     1
  3
\A1;{\pqr;\fArial|b0|i0|c0|p34;1\P\pqr;\fArial|b0|i0|c0|p34;2\P\pqr;\fArial|b0|i0|c0|p34;3\P\pqr;\fArial|b0|i0|c0|p34;4\P\pqr;\fArial|b0|i0|c0|p34;9\P\pqr;\fArial|b0|i0|c0|p34;11\P\pqr;\fArial|b0|i0|c0|p34;12\P\pqr;\fArial|b0|i0|c0|p34;1321\P\pqr;\fA
  1
rial|b0|i0|c0|p34;24}
  7
ERSTELLTER_STIL_1
 73
     1
 44
1.269739143696986
  0
MTEXT
  5
189
330
1B
100
AcDbEntity
 67
     1
  8
000 Kataster
  6
Continuous
 62
     7
370
     9
100
AcDbMText
 10
117.2039988782805
 20
189.9072681353134
 30
0.0
 40
2.200120659722223
 41
0.0
 46
0.0
 71
     1
 72
     1
  3
\A1;{\pql;\fArial|b0|i0|c0|p34;Leichtgrundputz, Fixit 622 / 623 / 666\P\pql;\fArial|b0|i0|c0|p34;Netzeinbettung vollflächig, Fixit 460 / 461\P\pql;\fArial|b0|i0|c0|p34;Mineralischer Deckputz\P\pql;\fArial|b0|i0|c0|p34;Mineralischer Anstrich \P\pql;\f
  3
Arial|b0|i0|c0|p34;Trennvlies\P\pql;\fArial|b0|i0|c0|p34;Aerogeldämmputz, Fixit 222\P\pql;\fArial|b0|i0|c0|p34;Spezial Einbettmörtel, Fixit 223\P\pql;\fArial|b0|i0|c0|p34;Fugendichtband BG1\P\pql;\fArial|b0|i0|c0|p34;Abdichtung bauseits\P\pql;\fArial
  1
|b0|i0|c0|p34;Abschlussprofil}
  7
ERSTELLTER_STIL_1
 73
     1
 44
1.12414648067486
  0
WIPEOUT
  5
18A
330
1B
100
AcDbEntity
 67
     1
  8
000 Kataster
  6
Continuous
 62
     7
 48
594.0275941893622
370
     9
160
               296
310
28010000060000000C0000000E000000B20000000C00000016000000000000C20C00000014000000010000006C0000000700000004000000EFB1084BB4825A4091F15EFA54ED5140000000000000000032EE5669C874634091F15EFA54ED5140000000000000000032EE5669C8746340BA5EB7CFCEA3504000000000000000
310
00EFB1084BB4825A40BA5EB7CFCEA3504000000000000000000C0000000E00000007000000840000000600000005000000EFB1084BB4825A4091F15EFA54ED5140000000000000000032EE5669C874634091F15EFA54ED5140000000000000000032EE5669C8746340BA5EB7CFCEA350400000000000000000EFB1084BB482
310
5A40BA5EB7CFCEA350400000000000000000EFB1084BB4825A4091F15EFA54ED51400000000000000000
100
AcDbWipeout
 90
        0
 10
106.0422542176163
 20
66.55949776561002
 30
0.0
 11
49.60721007470586
 21
0.0
 31
0.0
 12
0.0
 22
5.148813880582892
 32
0.0
 13
1.0
 23
1.0
340
0
 70
    15
280
     1
281
    50
282
    50
283
     0
360
0
 71
     2
 91
        5
 14
-0.5000000000000001
 24
-0.4999999999999986
 14
0.4999999999999998
 24
-0.4999999999999986
 14
0.4999999999999998
 24
0.5000000000000013
 14
-0.5000000000000001
 24
0.5000000000000013
 14
-0.5000000000000001
 24
-0.4999999999999986
290
     0
  0
LWPOLYLINE
  5
18B
330
1B
100
AcDbEntity
 67
     1
  8
000 Kataster
  6
Continuous
 62
   255
370
     5
100
AcDbPolyline
 90
        4
 70
   129
 43
0.0
 10
106.0422542176163
 20
71.70831164619291
 10
155.6494642923222
 20
71.70831164619291
 10
155.6494642923222
 20
66.55949776561002
 10
106.0422542176163
 20
66.55949776561002
  0
MTEXT
  5
18C
330
1B
100
AcDbEntity
 67
     1
  8
000 Kataster
  6
Continuous
 62
     7
370
     9
100
AcDbMText
 10
106.5422542176163
 20
67.90567516480186
 30
0.0
 40
2.200120659722223
 41
0.0
 46
0.0
 71
     7
 72
     1
  1
\A1;{\pql;\fArial|b0|i0|c0|p34;Sockel Dämmplatte }
  7
ERSTELLTER_STIL_1
 73
     1
 44
1.0
  0
MTEXT
  5
18D
330
1B
100
AcDbEntity
 67
     1
  8
000 Kataster
  6
Continuous
 62
     7
370
    13
100
AcDbMText
 10
47.75593063142625
 20
48.41516283170602
 30
0.0
 40
2.2
 41
0.0
 46
0.0
 71
     7
 72
     1
  1
\A1;{\pql;\fArial|b0|i0|c0|p34;13}
  7
ERSTELLTER_STIL_1
 73
     1
 44
1.0
  0
MTEXT
  5
18E
330
1B
100
AcDbEntity
 67
     1
  8
000 Kataster
  6
Continuous
 62
     7
370
    13
100
AcDbMText
 10
47.7559221674866
 20
53.46178775971345
 30
0.0
 40
2.2
 41
0.0
 46
0.0
 71
     7
 72
     1
  1
\A1;{\pql;\fArial|b0|i0|c0|p34;24}
  7
ERSTELLTER_STIL_1
 73
     1
 44
1.0
  0
MTEXT
  5
18F
330
1B
100
AcDbEntity
 67
     1
  8
000 Kataster
  6
Continuous
 62
     7
370
    13
100
AcDbMText
 10
49.44978564880482
 20
112.5950111709743
 30
0.0
 40
2.2
 41
0.0
 46
0.0
 71
     7
 72
     1
  1
\A1;{\pql;\fArial|b0|i0|c0|p34;9}
  7
ERSTELLTER_STIL_1
 73
     1
 44
1.0
  0
ENDSEC
  0
SECTION
  2
OBJECTS
  0
DICTIONARY
  5
C
330
0
100
AcDbDictionary
281
     1
  3
ACAD_DETAILVIEWSTYLE
350
1C8
  3
ACAD_GROUP
350
D
  3
ACAD_LAYOUT
350
1A
  3
ACAD_MATERIAL
350
43
  3
ACAD_MLEADERSTYLE
350
1C6
  3
ACAD_MLINESTYLE
350
17
  3
ACAD_PLOTSETTINGS
350
19
  3
ACAD_PLOTSTYLENAME
350
E
  3
ACAD_SCALELIST
350
47
  3
ACAD_SECTIONVIEWSTYLE
350
1C9
  3
ACAD_TABLESTYLE
350
1C5
  3
ACAD_VISUALSTYLE
350
2A
  3
AcDbVariableDictionary
350
193
  3
WATERMARKS
350
191
  0
SUN
  5
69
330
29
100
AcDbSun
 90
        1
290
     0
 63
     7
421
 16777215
 40
1.0
291
     1
 91
  2455826
 92
 54000000
292
     0
 70
     2
 71
   256
280
     1
  0
SUN
  5
190
330
6A
100
AcDbSun
 90
        1
290
     0
 63
     7
421
 16777215
 40
1.0
291
     1
 91
  2455826
 92
 54000000
292
     0
 70
     2
 71
   256
280
     1
  0
DICTIONARY
  5
1C8
102
{ACAD_REACTORS
330
C
102
}
330
C
100
AcDbDictionary
281
     1
  0
DICTIONARY
  5
D
102
{ACAD_REACTORS
330
C
102
}
330
C
100
AcDbDictionary
281
     1
  0
DICTIONARY
  5
1A
102
{ACAD_REACTORS
330
C
102
}
330
C
100
AcDbDictionary
281
     1
  3
14 Detail E1
350
1E
  3
Model
350
22
  0
DICTIONARY
  5
43
102
{ACAD_REACTORS
330
C
102
}
330
C
100
AcDbDictionary
281
     1
  3
ByBlock
350
45
  3
ByLayer
350
44
  3
Global
350
46
  0
DICTIONARY
  5
1C6
102
{ACAD_REACTORS
330
C
102
}
330
C
100
AcDbDictionary
281
     1
  0
DICTIONARY
  5
17
102
{ACAD_REACTORS
330
C
102
}
330
C
100
AcDbDictionary
281
     1
  3
Standard
350
18
  0
DICTIONARY
  5
19
102
{ACAD_REACTORS
330
C
102
}
330
C
100
AcDbDictionary
281
     1
  0
ACDBDICTIONARYWDFLT
  5
E
102
{ACAD_REACTORS
330
C
102
}
330
C
100
AcDbDictionary
281
     1
  3
Normal
350
F
100
AcDbDictionaryWithDefault
340
F
  0
DICTIONARY
  5
47
102
{ACAD_REACTORS
330
C
102
}
330
C
100
AcDbDictionary
281
     1
  3
A0
350
48
  3
A1
350
49
  3
A2
350
4A
  3
A3
350
4B
  3
A4
350
4C
  3
A5
350
4D
  3
A6
350
4E
  3
A7
350
4F
  3
A8
350
50
  3
A9
350
51
  3
B0
350
52
  3
B1
350
53
  3
B2
350
54
  3
B3
350
55
  3
B4
350
56
  3
B5
350
57
  3
B6
350
58
  3
B7
350
59
  3
B8
350
5A
  3
B9
350
5B
  3
C0
350
5C
  3
C1
350
5D
  3
C2
350
5E
  3
C3
350
5F
  3
C4
350
60
  3
C5
350
61
  3
C6
350
62
  3
C7
350
63
  3
C8
350
64
  3
C9
350
65
  3
D0
350
66
  3
D1
350
67
  3
D2
350
68
  0
DICTIONARY
  5
1C9
102
{ACAD_REACTORS
330
C
102
}
330
C
100
AcDbDictionary
281
     1
  0
DICTIONARY
  5
1C5
102
{ACAD_REACTORS
330
C
102
}
330
C
100
AcDbDictionary
281
     1
  0
DICTIONARY
  5
2A
102
{ACAD_REACTORS
330
C
102
}
330
C
100
AcDbDictionary
281
     1
  3
2dWireframe
350
2F
  3
Basic
350
32
  3
Brighten
350
36
  3
ColorChange
350
3A
  3
Conceptual
350
34
  3
Dim
350
35
  3
EdgeColorOff
350
3D
  3
Facepattern
350
39
  3
Flat
350
2B
  3
FlatWithEdges
350
2C
  3
Gouraud
350
2D
  3
GouraudWithEdges
350
2E
  3
Hidden
350
31
  3
JitterOff
350
3B
  3
Linepattern
350
38
  3
OverhangOff
350
3C
  3
Realistic
350
33
  3
Shaded
350
42
  3
Shaded with edges
350
41
  3
Shades of Gray
350
3E
  3
Sketchy
350
3F
  3
Thicken
350
37
  3
Wireframe
350
30
  3
X-Ray
350
40
  0
DICTIONARY
  5
193
102
{ACAD_REACTORS
330
C
102
}
330
C
100
AcDbDictionary
281
     1
  3
CANNOSCALE
350
194
  3
XCLIPFRAME
350
1C7
  0
DICTIONARY
  5
191
102
{ACAD_REACTORS
330
C
102
}
330
C
100
AcDbDictionary
281
     1
  3
AC_WATERMARK
350
192
  0
LAYOUT
  5
1E
102
{ACAD_REACTORS
330
1A
102
}
330
1A
100
AcDbPlotSettings
  1

  2
none_device
  4

  6

 40
15.0
 41
25.0
 42
20.0
 43
45.0
 44
210.0
 45
297.0
 46
0.0
 47
0.0
 48
0.0
 49
0.0
140
0.0
141
0.0
142
1.0
143
1.0
 70
   688
 72
     1
 73
     0
 74
     5
  7

 75
    16
 76
     0
 77
     2
 78
   300
147
1.0
148
-15.0
149
-25.0
100
AcDbLayout
  1
14 Detail E1
 70
     0
 71
     1
 10
0.0
 20
0.0
 11
12.0
 21
9.0
 12
0.0
 22
0.0
 32
0.0
 14
1.000000000000000E+20
 24
1.000000000000000E+20
 34
1.000000000000000E+20
 15
-1.000000000000000E+20
 25
-1.000000000000000E+20
 35
-1.000000000000000E+20
146
0.0
 13
0.0
 23
0.0
 33
0.0
 16
1.0
 26
0.0
 36
0.0
 17
0.0
 27
1.0
 37
0.0
 76
     0
330
1B
331
6A
  0
LAYOUT
  5
22
102
{ACAD_REACTORS
330
1A
102
}
330
1A
100
AcDbPlotSettings
  1

  2
none_device
  4
Letter_(8.50_x_11.00_Inches)
  6

 40
6.35
 41
6.35
 42
6.35000508
 43
6.35000508
 44
215.9
 45
279.4
 46
0.0
 47
0.0
 48
0.0
 49
0.0
140
0.0
141
0.0
142
1.0
143
1.0
 70
  1712
 72
     0
 73
     0
 74
     0
  7

 75
     0
 76
     0
 77
     2
 78
   300
147
1.0
148
0.0
149
0.0
100
AcDbLayout
  1
Model
 70
     1
 71
     0
 10
0.0
 20
0.0
 11
12.0
 21
9.0
 12
0.0
 22
0.0
 32
0.0
 14
1.000000000000000E+20
 24
1.000000000000000E+20
 34
1.000000000000000E+20
 15
-1.000000000000000E+20
 25
-1.000000000000000E+20
 35
-1.000000000000000E+20
146
0.0
 13
0.0
 23
0.0
 33
0.0
 16
1.0
 26
0.0
 36
0.0
 17
0.0
 27
1.0
 37
0.0
 76
     0
330
1F
331
29
  0
MATERIAL
  5
45
102
{ACAD_REACTORS
330
43
102
}
330
43
100
AcDbMaterial
  1
ByBlock
 72
     1
 94
      127
  0
MATERIAL
  5
44
102
{ACAD_REACTORS
330
43
102
}
330
43
100
AcDbMaterial
  1
ByLayer
 72
     1
 94
      127
  0
MATERIAL
  5
46
102
{ACAD_REACTORS
330
43
102
}
330
43
100
AcDbMaterial
  1
Global
 72
     1
 94
      127
  0
MLINESTYLE
  5
18
102
{ACAD_REACTORS
330
17
102
}
330
17
100
AcDbMlineStyle
  2
Standard
 70
     0
  3

 62
   256
 51
90.0
 52
90.0
 71
     2
 49
0.5
 62
   256
  6
BYLAYER
 49
-0.5
 62
   256
  6
BYLAYER
  0
ACDBPLACEHOLDER
  5
F
102
{ACAD_REACTORS
330
E
102
}
330
E
  0
SCALE
  5
48
102
{ACAD_REACTORS
330
47
102
}
330
47
100
AcDbScale
 70
     0
300
1:1
140
1.0
141
1.0
290
     1
  0
SCALE
  5
49
102
{ACAD_REACTORS
330
47
102
}
330
47
100
AcDbScale
 70
     0
300
1:2
140
1.0
141
2.0
290
     0
  0
SCALE
  5
4A
102
{ACAD_REACTORS
330
47
102
}
330
47
100
AcDbScale
 70
     0
300
1:4
140
1.0
141
4.0
290
     0
  0
SCALE
  5
4B
102
{ACAD_REACTORS
330
47
102
}
330
47
100
AcDbScale
 70
     0
300
1:5
140
1.0
141
5.0
290
     0
  0
SCALE
  5
4C
102
{ACAD_REACTORS
330
47
102
}
330
47
100
AcDbScale
 70
     0
300
1:8
140
1.0
141
8.0
290
     0
  0
SCALE
  5
4D
102
{ACAD_REACTORS
330
47
102
}
330
47
100
AcDbScale
 70
     0
300
1:10
140
1.0
141
10.0
290
     0
  0
SCALE
  5
4E
102
{ACAD_REACTORS
330
47
102
}
330
47
100
AcDbScale
 70
     0
300
1:16
140
1.0
141
16.0
290
     0
  0
SCALE
  5
4F
102
{ACAD_REACTORS
330
47
102
}
330
47
100
AcDbScale
 70
     0
300
1:20
140
1.0
141
20.0
290
     0
  0
SCALE
  5
50
102
{ACAD_REACTORS
330
47
102
}
330
47
100
AcDbScale
 70
     0
300
1:30
140
1.0
141
30.0
290
     0
  0
SCALE
  5
51
102
{ACAD_REACTORS
330
47
102
}
330
47
100
AcDbScale
 70
     0
300
1:40
140
1.0
141
40.0
290
     0
  0
SCALE
  5
52
102
{ACAD_REACTORS
330
47
102
}
330
47
100
AcDbScale
 70
     0
300
1:50
140
1.0
141
50.0
290
     0
  0
SCALE
  5
53
102
{ACAD_REACTORS
330
47
102
}
330
47
100
AcDbScale
 70
     0
300
1:100
140
1.0
141
100.0
290
     0
  0
SCALE
  5
54
102
{ACAD_REACTORS
330
47
102
}
330
47
100
AcDbScale
 70
     0
300
2:1
140
2.0
141
1.0
290
     0
  0
SCALE
  5
55
102
{ACAD_REACTORS
330
47
102
}
330
47
100
AcDbScale
 70
     0
300
4:1
140
4.0
141
1.0
290
     0
  0
SCALE
  5
56
102
{ACAD_REACTORS
330
47
102
}
330
47
100
AcDbScale
 70
     0
300
8:1
140
8.0
141
1.0
290
     0
  0
SCALE
  5
57
102
{ACAD_REACTORS
330
47
102
}
330
47
100
AcDbScale
 70
     0
300
10:1
140
10.0
141
1.0
290
     0
  0
SCALE
  5
58
102
{ACAD_REACTORS
330
47
102
}
330
47
100
AcDbScale
 70
     0
300
100:1
140
100.0
141
1.0
290
     0
  0
SCALE
  5
59
102
{ACAD_REACTORS
330
47
102
}
330
47
100
AcDbScale
 70
     0
300
1/128" = 1'-0"
140
0.0078125
141
12.0
290
     0
  0
SCALE
  5
5A
102
{ACAD_REACTORS
330
47
102
}
330
47
100
AcDbScale
 70
     0
300
1/64" = 1'-0"
140
0.015625
141
12.0
290
     0
  0
SCALE
  5
5B
102
{ACAD_REACTORS
330
47
102
}
330
47
100
AcDbScale
 70
     0
300
1/32" = 1'-0"
140
0.03125
141
12.0
290
     0
  0
SCALE
  5
5C
102
{ACAD_REACTORS
330
47
102
}
330
47
100
AcDbScale
 70
     0
300
1/16" = 1'-0"
140
0.0625
141
12.0
290
     0
  0
SCALE
  5
5D
102
{ACAD_REACTORS
330
47
102
}
330
47
100
AcDbScale
 70
     0
300
3/32" = 1'-0"
140
0.09375
141
12.0
290
     0
  0
SCALE
  5
5E
102
{ACAD_REACTORS
330
47
102
}
330
47
100
AcDbScale
 70
     0
300
1/8" = 1'-0"
140
0.125
141
12.0
290
     0
  0
SCALE
  5
5F
102
{ACAD_REACTORS
330
47
102
}
330
47
100
AcDbScale
 70
     0
300
3/16" = 1'-0"
140
0.1875
141
12.0
290
     0
  0
SCALE
  5
60
102
{ACAD_REACTORS
330
47
102
}
330
47
100
AcDbScale
 70
     0
300
1/4" = 1'-0"
140
0.25
141
12.0
290
     0
  0
SCALE
  5
61
102
{ACAD_REACTORS
330
47
102
}
330
47
100
AcDbScale
 70
     0
300
3/8" = 1'-0"
140
0.375
141
12.0
290
     0
  0
SCALE
  5
62
102
{ACAD_REACTORS
330
47
102
}
330
47
100
AcDbScale
 70
     0
300
1/2" = 1'-0"
140
0.5
141
12.0
290
     0
  0
SCALE
  5
63
102
{ACAD_REACTORS
330
47
102
}
330
47
100
AcDbScale
 70
     0
300
3/4" = 1'-0"
140
0.75
141
12.0
290
     0
  0
SCALE
  5
64
102
{ACAD_REACTORS
330
47
102
}
330
47
100
AcDbScale
 70
     0
300
1" = 1'-0"
140
1.0
141
12.0
290
     0
  0
SCALE
  5
65
102
{ACAD_REACTORS
330
47
102
}
330
47
100
AcDbScale
 70
     0
300
1-1/2" = 1'-0"
140
1.5
141
12.0
290
     0
  0
SCALE
  5
66
102
{ACAD_REACTORS
330
47
102
}
330
47
100
AcDbScale
 70
     0
300
3" = 1'-0"
140
3.0
141
12.0
290
     0
  0
SCALE
  5
67
102
{ACAD_REACTORS
330
47
102
}
330
47
100
AcDbScale
 70
     0
300
6" = 1'-0"
140
6.0
141
12.0
290
     0
  0
SCALE
  5
68
102
{ACAD_REACTORS
330
47
102
}
330
47
100
AcDbScale
 70
     0
300
1'-0" = 1'-0"
140
12.0
141
12.0
290
     0
  0
VISUALSTYLE
  5
2F
102
{ACAD_REACTORS
330
2A
102
}
102
{ACAD_XDICTIONARY
360
19D
102
}
330
2A
100
AcDbVisualStyle
  2
2dWireframe
 70
     4
177
     2
291
     0
 71
     0
176
     1
 72
     2
176
     1
 73
     0
176
     1
 90
        0
176
     1
 40
0.6
176
     1
 41
30.0
176
     1
 62
     5
 63
     7
421
 16777215
176
     1
 74
     1
176
     1
 91
        4
176
     1
 64
     7
176
     1
 65
   257
176
     1
 75
     1
176
     1
175
     1
176
     1
 42
1.0
176
     1
 92
        0
176
     1
 66
   257
176
     1
 43
1.0
176
     1
 76
     1
176
     1
 77
     6
176
     1
 78
     2
176
     1
 67
     7
176
     1
 79
     5
176
     1
170
     0
176
     1
171
     0
176
     1
290
     0
176
     1
 93
        1
176
     1
 44
0.0
176
     1
173
     0
176
     1
  0
VISUALSTYLE
  5
32
102
{ACAD_REACTORS
330
2A
102
}
102
{ACAD_XDICTIONARY
360
1A3
102
}
330
2A
100
AcDbVisualStyle
  2
Basic
 70
     7
177
     2
291
     1
 71
     1
176
     1
 72
     0
176
     1
 73
     1
176
     1
 90
        0
176
     1
 40
0.6
176
     1
 41
30.0
176
     1
 62
     5
 63
     7
421
 16777215
176
     1
 74
     0
176
     1
 91
        4
176
     1
 64
     7
176
     1
 65
   257
176
     1
 75
     1
176
     1
175
     1
176
     1
 42
1.0
176
     1
 92
        8
176
     1
 66
     7
176
     1
 43
1.0
176
     1
 76
     1
176
     1
 77
     6
176
     1
 78
     2
176
     1
 67
     7
176
     1
 79
     5
176
     1
170
     0
176
     1
171
     0
176
     1
290
     0
176
     1
 93
        1
176
     1
 44
0.0
176
     1
173
     0
176
     1
  0
VISUALSTYLE
  5
36
102
{ACAD_REACTORS
330
2A
102
}
102
{ACAD_XDICTIONARY
360
1AB
102
}
330
2A
100
AcDbVisualStyle
  2
Brighten
 70
    12
177
     2
291
     1
 71
     2
176
     1
 72
     2
176
     1
 73
     0
176
     1
 90
        0
176
     1
 40
0.6
176
     1
 41
30.0
176
     1
 62
     5
 63
     7
421
 16777215
176
     1
 74
     1
176
     1
 91
        4
176
     1
 64
     7
176
     1
 65
   257
176
     1
 75
     1
176
     1
175
     1
176
     1
 42
1.0
176
     1
 92
        8
176
     1
 66
     7
176
     1
 43
1.0
176
     1
 76
     1
176
     1
 77
     6
176
     1
 78
     2
176
     1
 67
     7
176
     1
 79
     5
176
     1
170
     0
176
     1
171
     0
176
     1
290
     0
176
     1
 93
        1
176
     1
 44
50.0
176
     1
173
     0
176
     1
  0
VISUALSTYLE
  5
3A
102
{ACAD_REACTORS
330
2A
102
}
102
{ACAD_XDICTIONARY
360
1B3
102
}
330
2A
100
AcDbVisualStyle
  2
ColorChange
 70
    16
177
     2
291
     1
 71
     2
176
     1
 72
     2
176
     1
 73
     3
176
     1
 90
        0
176
     1
 40
0.6
176
     1
 41
30.0
176
     1
 62
     5
 63
     8
421
  8421504
176
     1
 74
     1
176
     1
 91
        4
176
     1
 64
     7
176
     1
 65
   257
176
     1
 75
     1
176
     1
175
     1
176
     1
 42
1.0
176
     1
 92
        8
176
     1
 66
     8
424
  8421504
176
     1
 43
1.0
176
     1
 76
     1
176
     1
 77
     6
176
     1
 78
     2
176
     1
 67
     7
176
     1
 79
     5
176
     1
170
     0
176
     1
171
     0
176
     1
290
     0
176
     1
 93
        1
176
     1
 44
0.0
176
     1
173
     0
176
     1
  0
VISUALSTYLE
  5
34
102
{ACAD_REACTORS
330
2A
102
}
102
{ACAD_XDICTIONARY
360
1A7
102
}
330
2A
100
AcDbVisualStyle
  2
Conceptual
 70
     9
177
     2
291
     0
 71
     3
176
     1
 72
     2
176
     1
 73
     0
176
     1
 90
        0
176
     1
 40
0.6
176
     1
 41
30.0
176
     1
 62
     5
 63
     7
421
 16777215
176
     1
 74
     2
176
     1
 91
        2
176
     1
 64
     7
176
     1
 65
   257
176
     1
 75
     1
176
     1
175
     1
176
     1
 42
179.0
176
     1
 92
        8
176
     1
 66
     7
176
     1
 43
1.0
176
     1
 76
     1
176
     1
 77
     6
176
     1
 78
     2
176
     1
 67
     7
176
     1
 79
     3
176
     1
170
     0
176
     1
171
     0
176
     1
290
     0
176
     1
 93
        1
176
     1
 44
0.0
176
     1
173
     0
176
     1
  0
VISUALSTYLE
  5
35
102
{ACAD_REACTORS
330
2A
102
}
102
{ACAD_XDICTIONARY
360
1A9
102
}
330
2A
100
AcDbVisualStyle
  2
Dim
 70
    11
177
     2
291
     1
 71
     2
176
     1
 72
     2
176
     1
 73
     0
176
     1
 90
        0
176
     1
 40
0.6
176
     1
 41
30.0
176
     1
 62
     5
 63
     7
421
 16777215
176
     1
 74
     1
176
     1
 91
        4
176
     1
 64
     7
176
     1
 65
   257
176
     1
 75
     1
176
     1
175
     1
176
     1
 42
1.0
176
     1
 92
        8
176
     1
 66
     7
176
     1
 43
1.0
176
     1
 76
     1
176
     1
 77
     6
176
     1
 78
     2
176
     1
 67
     7
176
     1
 79
     5
176
     1
170
     0
176
     1
171
     0
176
     1
290
     0
176
     1
 93
        1
176
     1
 44
-50.0
176
     1
173
     0
176
     1
  0
VISUALSTYLE
  5
3D
102
{ACAD_REACTORS
330
2A
102
}
102
{ACAD_XDICTIONARY
360
1B9
102
}
330
2A
100
AcDbVisualStyle
  2
EdgeColorOff
 70
    22
177
     2
291
     1
 71
     2
176
     0
 72
     2
176
     0
 73
     0
176
     0
 90
        0
176
     0
 40
0.6
176
     0
 41
30.0
176
     0
 62
     5
 63
     7
421
 16777215
176
     0
 74
     1
176
     0
 91
        4
176
     0
 64
     7
176
     0
 65
   257
176
     0
 75
     1
176
     0
175
     1
176
     0
 42
1.0
176
     0
 92
        8
176
     2
 66
     7
176
     0
 43
1.0
176
     0
 76
     1
176
     0
 77
     6
176
     0
 78
     2
176
     0
 67
     7
176
     0
 79
     5
176
     0
170
     0
176
     0
171
     0
176
     0
290
     0
176
     0
 93
        1
176
     0
 44
0.0
176
     0
173
     0
176
     0
  0
VISUALSTYLE
  5
39
102
{ACAD_REACTORS
330
2A
102
}
102
{ACAD_XDICTIONARY
360
1B1
102
}
330
2A
100
AcDbVisualStyle
  2
Facepattern
 70
    15
177
     2
291
     1
 71
     2
176
     1
 72
     2
176
     1
 73
     0
176
     1
 90
        0
176
     1
 40
0.6
176
     1
 41
30.0
176
     1
 62
     5
 63
     7
421
 16777215
176
     1
 74
     1
176
     1
 91
        4
176
     1
 64
     7
176
     1
 65
   257
176
     1
 75
     1
176
     1
175
     1
176
     1
 42
1.0
176
     1
 92
        8
176
     1
 66
     7
176
     1
 43
1.0
176
     1
 76
     1
176
     1
 77
     6
176
     1
 78
     2
176
     1
 67
     7
176
     1
 79
     5
176
     1
170
     0
176
     1
171
     0
176
     1
290
     0
176
     1
 93
        1
176
     1
 44
0.0
176
     1
173
     0
176
     1
  0
VISUALSTYLE
  5
2B
102
{ACAD_REACTORS
330
2A
102
}
102
{ACAD_XDICTIONARY
360
195
102
}
330
2A
100
AcDbVisualStyle
  2
Flat
 70
     0
177
     2
291
     1
 71
     2
176
     1
 72
     1
176
     1
 73
     1
176
     1
 90
        2
176
     1
 40
0.6
176
     1
 41
30.0
176
     1
 62
     5
 63
     7
421
 16777215
176
     1
 74
     0
176
     1
 91
        0
176
     1
 64
     7
176
     1
 65
   257
176
     1
 75
     1
176
     1
175
     1
176
     1
 42
1.0
176
     1
 92
        8
176
     1
 66
     7
176
     1
 43
1.0
176
     1
 76
     1
176
     1
 77
     6
176
     1
 78
     2
176
     1
 67
     7
176
     1
 79
     5
176
     1
170
     0
176
     1
171
     0
176
     1
290
     0
176
     1
 93
       13
176
     1
 44
0.0
176
     1
173
     0
176
     1
  0
VISUALSTYLE
  5
2C
102
{ACAD_REACTORS
330
2A
102
}
102
{ACAD_XDICTIONARY
360
197
102
}
330
2A
100
AcDbVisualStyle
  2
FlatWithEdges
 70
     1
177
     2
291
     1
 71
     2
176
     1
 72
     1
176
     1
 73
     1
176
     1
 90
        2
176
     1
 40
0.6
176
     1
 41
30.0
176
     1
 62
     5
 63
     7
421
 16777215
176
     1
 74
     1
176
     1
 91
        0
176
     1
 64
     7
176
     1
 65
   257
176
     1
 75
     1
176
     1
175
     1
176
     1
 42
1.0
176
     1
 92
        0
176
     1
 66
   257
176
     1
 43
1.0
176
     1
 76
     1
176
     1
 77
     6
176
     1
 78
     2
176
     1
 67
     7
176
     1
 79
     5
176
     1
170
     0
176
     1
171
     0
176
     1
290
     0
176
     1
 93
       13
176
     1
 44
0.0
176
     1
173
     0
176
     1
  0
VISUALSTYLE
  5
2D
102
{ACAD_REACTORS
330
2A
102
}
102
{ACAD_XDICTIONARY
360
199
102
}
330
2A
100
AcDbVisualStyle
  2
Gouraud
 70
     2
177
     2
291
     1
 71
     2
176
     1
 72
     2
176
     1
 73
     1
176
     1
 90
        2
176
     1
 40
0.6
176
     1
 41
30.0
176
     1
 62
     5
 63
     7
421
 16777215
176
     1
 74
     0
176
     1
 91
        0
176
     1
 64
     7
176
     1
 65
   257
176
     1
 75
     1
176
     1
175
     1
176
     1
 42
1.0
176
     1
 92
        0
176
     1
 66
     7
176
     1
 43
1.0
176
     1
 76
     1
176
     1
 77
     6
176
     1
 78
     2
176
     1
 67
     7
176
     1
 79
     5
176
     1
170
     0
176
     1
171
     0
176
     1
290
     0
176
     1
 93
       13
176
     1
 44
0.0
176
     1
173
     0
176
     1
  0
VISUALSTYLE
  5
2E
102
{ACAD_REACTORS
330
2A
102
}
102
{ACAD_XDICTIONARY
360
19B
102
}
330
2A
100
AcDbVisualStyle
  2
GouraudWithEdges
 70
     3
177
     2
291
     1
 71
     2
176
     1
 72
     2
176
     1
 73
     1
176
     1
 90
        2
176
     1
 40
0.6
176
     1
 41
30.0
176
     1
 62
     5
 63
     7
421
 16777215
176
     1
 74
     1
176
     1
 91
        0
176
     1
 64
     7
176
     1
 65
   257
176
     1
 75
     1
176
     1
175
     1
176
     1
 42
1.0
176
     1
 92
        0
176
     1
 66
   257
176
     1
 43
1.0
176
     1
 76
     1
176
     1
 77
     6
176
     1
 78
     2
176
     1
 67
     7
176
     1
 79
     5
176
     1
170
     0
176
     1
171
     0
176
     1
290
     0
176
     1
 93
       13
176
     1
 44
0.0
176
     1
173
     0
176
     1
  0
VISUALSTYLE
  5
31
102
{ACAD_REACTORS
330
2A
102
}
102
{ACAD_XDICTIONARY
360
1A1
102
}
330
2A
100
AcDbVisualStyle
  2
Hidden
 70
     6
177
     2
291
     0
 71
     1
176
     1
 72
     2
176
     1
 73
     2
176
     1
 90
        0
176
     1
 40
0.6
176
     1
 41
30.0
176
     1
 62
     5
 63
     7
421
 16777215
176
     1
 74
     2
176
     1
 91
        2
176
     1
 64
     7
176
     1
 65
   257
176
     1
 75
     2
176
     1
175
     1
176
     1
 42
40.0
176
     1
 92
        0
176
     1
 66
   257
176
     1
 43
1.0
176
     1
 76
     1
176
     1
 77
     6
176
     1
 78
     2
176
     1
 67
     7
176
     1
 79
     3
176
     1
170
     0
176
     1
171
     0
176
     1
290
     0
176
     1
 93
        1
176
     1
 44
0.0
176
     1
173
     0
176
     1
  0
VISUALSTYLE
  5
3B
102
{ACAD_REACTORS
330
2A
102
}
102
{ACAD_XDICTIONARY
360
1B5
102
}
330
2A
100
AcDbVisualStyle
  2
JitterOff
 70
    20
177
     2
291
     1
 71
     2
176
     0
 72
     2
176
     0
 73
     0
176
     0
 90
        0
176
     0
 40
0.6
176
     0
 41
30.0
176
     0
 62
     5
 63
     7
421
 16777215
176
     0
 74
     1
176
     0
 91
        4
176
     0
 64
     7
176
     0
 65
   257
176
     0
 75
     1
176
     0
175
     1
176
     0
 42
1.0
176
     0
 92
       10
176
     2
 66
     7
176
     0
 43
1.0
176
     0
 76
     1
176
     0
 77
     6
176
     0
 78
     2
176
     0
 67
     7
176
     0
 79
     5
176
     0
170
     0
176
     0
171
     0
176
     0
290
     0
176
     0
 93
        1
176
     0
 44
0.0
176
     0
173
     0
176
     0
  0
VISUALSTYLE
  5
38
102
{ACAD_REACTORS
330
2A
102
}
102
{ACAD_XDICTIONARY
360
1AF
102
}
330
2A
100
AcDbVisualStyle
  2
Linepattern
 70
    14
177
     2
291
     1
 71
     2
176
     1
 72
     2
176
     1
 73
     0
176
     1
 90
        0
176
     1
 40
0.6
176
     1
 41
30.0
176
     1
 62
     5
 63
     7
421
 16777215
176
     1
 74
     1
176
     1
 91
        4
176
     1
 64
     7
176
     1
 65
   257
176
     1
 75
     7
176
     1
175
     7
176
     1
 42
1.0
176
     1
 92
        8
176
     1
 66
     7
176
     1
 43
1.0
176
     1
 76
     1
176
     1
 77
     6
176
     1
 78
     2
176
     1
 67
     7
176
     1
 79
     5
176
     1
170
     0
176
     1
171
     0
176
     1
290
     0
176
     1
 93
        1
176
     1
 44
0.0
176
     1
173
     0
176
     1
  0
VISUALSTYLE
  5
3C
102
{ACAD_REACTORS
330
2A
102
}
102
{ACAD_XDICTIONARY
360
1B7
102
}
330
2A
100
AcDbVisualStyle
  2
OverhangOff
 70
    21
177
     2
291
     1
 71
     2
176
     0
 72
     2
176
     0
 73
     0
176
     0
 90
        0
176
     0
 40
0.6
176
     0
 41
30.0
176
     0
 62
     5
 63
     7
421
 16777215
176
     0
 74
     1
176
     0
 91
        4
176
     0
 64
     7
176
     0
 65
   257
176
     0
 75
     1
176
     0
175
     1
176
     0
 42
1.0
176
     0
 92
        9
176
     2
 66
     7
176
     0
 43
1.0
176
     0
 76
     1
176
     0
 77
     6
176
     0
 78
     2
176
     0
 67
     7
176
     0
 79
     5
176
     0
170
     0
176
     0
171
     0
176
     0
290
     0
176
     0
 93
        1
176
     0
 44
0.0
176
     0
173
     0
176
     0
  0
VISUALSTYLE
  5
33
102
{ACAD_REACTORS
330
2A
102
}
102
{ACAD_XDICTIONARY
360
1A5
102
}
330
2A
100
AcDbVisualStyle
  2
Realistic
 70
     8
177
     2
291
     0
 71
     2
176
     1
 72
     3
176
     1
 73
     0
176
     1
 90
        2
176
     1
 40
0.6
176
     1
 41
30.0
176
     1
 62
     5
 63
     7
421
 16777215
176
     1
 74
     0
176
     1
 91
        0
176
     1
 64
     7
176
     1
 65
   257
176
     1
 75
     1
176
     1
175
     1
176
     1
 42
1.0
176
     1
 92
        8
176
     1
 66
   257
176
     1
 43
1.0
176
     1
 76
     1
176
     1
 77
     6
176
     1
 78
     2
176
     1
 67
     7
176
     1
 79
     3
176
     1
170
     0
176
     1
171
     0
176
     1
290
     0
176
     1
 93
       13
176
     1
 44
0.0
176
     1
173
     0
176
     1
  0
VISUALSTYLE
  5
42
102
{ACAD_REACTORS
330
2A
102
}
102
{ACAD_XDICTIONARY
360
1C3
102
}
330
2A
100
AcDbVisualStyle
  2
Shaded
 70
    27
177
     2
291
     0
 71
     2
176
     1
 72
     2
176
     1
 73
     1
176
     1
 90
        2
176
     1
 40
0.6
176
     1
 41
30.0
176
     1
 62
     5
 63
     7
421
 16777215
176
     1
 74
     0
176
     1
 91
        4
176
     1
 64
     7
176
     1
 65
   257
176
     1
 75
     1
176
     1
175
     1
176
     1
 42
1.0
176
     1
 92
        8
176
     1
 66
   257
176
     1
 43
1.0
176
     1
 76
     1
176
     1
 77
     6
176
     1
 78
     2
176
     1
 67
     8
425
  7895160
176
     1
 79
     3
176
     1
170
     0
176
     1
171
     0
176
     1
290
     0
176
     1
 93
        5
176
     1
 44
0.0
176
     1
173
     0
176
     1
  0
VISUALSTYLE
  5
41
102
{ACAD_REACTORS
330
2A
102
}
102
{ACAD_XDICTIONARY
360
1C1
102
}
330
2A
100
AcDbVisualStyle
  2
Shaded with edges
 70
    26
177
     2
291
     0
 71
     2
176
     1
 72
     2
176
     1
 73
     1
176
     1
 90
        2
176
     1
 40
0.6
176
     1
 41
30.0
176
     1
 62
     5
 63
     7
421
 16777215
176
     1
 74
     1
176
     1
 91
       10
176
     1
 64
     7
176
     1
 65
   257
176
     1
 75
     2
176
     1
175
     1
176
     1
 42
1.0
176
     1
 92
        8
176
     1
 66
   257
176
     1
 43
1.0
176
     1
 76
     1
176
     1
 77
     6
176
     1
 78
     2
176
     1
 67
     7
176
     1
 79
     3
176
     1
170
     0
176
     1
171
     0
176
     1
290
     0
176
     1
 93
        5
176
     1
 44
0.0
176
     1
173
     0
176
     1
  0
VISUALSTYLE
  5
3E
102
{ACAD_REACTORS
330
2A
102
}
102
{ACAD_XDICTIONARY
360
1BB
102
}
330
2A
100
AcDbVisualStyle
  2
Shades of Gray
 70
    23
177
     2
291
     0
 71
     2
176
     1
 72
     2
176
     1
 73
     3
176
     1
 90
        0
176
     1
 40
0.6
176
     1
 41
30.0
176
     1
 62
     5
 63
     7
421
 16777215
176
     1
 74
     2
176
     1
 91
        2
176
     1
 64
     7
176
     1
 65
     7
176
     1
 75
     1
176
     1
175
     1
176
     1
 42
40.0
176
     1
 92
        8
176
     1
 66
     7
176
     1
 43
1.0
176
     1
 76
     1
176
     1
 77
     6
176
     1
 78
     2
176
     1
 67
     7
176
     1
 79
     3
176
     1
170
     0
176
     1
171
     0
176
     1
290
     0
176
     1
 93
        1
176
     1
 44
0.0
176
     1
173
     0
176
     1
  0
VISUALSTYLE
  5
3F
102
{ACAD_REACTORS
330
2A
102
}
102
{ACAD_XDICTIONARY
360
1BD
102
}
330
2A
100
AcDbVisualStyle
  2
Sketchy
 70
    24
177
     2
291
     0
 71
     1
176
     1
 72
     2
176
     1
 73
     2
176
     1
 90
        0
176
     1
 40
0.6
176
     1
 41
30.0
176
     1
 62
     5
 63
     7
421
 16777215
176
     1
 74
     2
176
     1
 91
        2
176
     1
 64
     7
176
     1
 65
     7
176
     1
 75
     1
176
     1
175
     1
176
     1
 42
40.0
176
     1
 92
       11
176
     1
 66
     7
176
     1
 43
1.0
176
     1
 76
     1
176
     1
 77
     6
176
     1
 78
     2
176
     1
 67
     7
176
     1
 79
     6
176
     1
170
     0
176
     1
171
     0
176
     1
290
     0
176
     1
 93
        1
176
     1
 44
0.0
176
     1
173
     0
176
     1
  0
VISUALSTYLE
  5
37
102
{ACAD_REACTORS
330
2A
102
}
102
{ACAD_XDICTIONARY
360
1AD
102
}
330
2A
100
AcDbVisualStyle
  2
Thicken
 70
    13
177
     2
291
     1
 71
     2
176
     1
 72
     2
176
     1
 73
     0
176
     1
 90
        0
176
     1
 40
0.6
176
     1
 41
30.0
176
     1
 62
     5
 63
     7
421
 16777215
176
     1
 74
     1
176
     1
 91
        4
176
     1
 64
     7
176
     1
 65
   257
176
     1
 75
     1
176
     1
175
     1
176
     1
 42
1.0
176
     1
 92
       12
176
     1
 66
     7
176
     1
 43
1.0
176
     1
 76
     1
176
     1
 77
     6
176
     1
 78
     2
176
     1
 67
     7
176
     1
 79
     5
176
     1
170
     0
176
     1
171
     0
176
     1
290
     0
176
     1
 93
        1
176
     1
 44
0.0
176
     1
173
     0
176
     1
  0
VISUALSTYLE
  5
30
102
{ACAD_REACTORS
330
2A
102
}
102
{ACAD_XDICTIONARY
360
19F
102
}
330
2A
100
AcDbVisualStyle
  2
Wireframe
 70
     5
177
     2
291
     0
 71
     0
176
     1
 72
     2
176
     1
 73
     0
176
     1
 90
        0
176
     1
 40
0.6
176
     1
 41
30.0
176
     1
 62
     5
 63
     7
421
 16777215
176
     1
 74
     1
176
     1
 91
        4
176
     1
 64
     7
176
     1
 65
   257
176
     1
 75
     1
176
     1
175
     1
176
     1
 42
1.0
176
     1
 92
        0
176
     1
 66
   257
176
     1
 43
1.0
176
     1
 76
     1
176
     1
 77
     6
176
     1
 78
     2
176
     1
 67
     7
176
     1
 79
     3
176
     1
170
     0
176
     1
171
     0
176
     1
290
     0
176
     1
 93
        1
176
     1
 44
0.0
176
     1
173
     0
176
     1
  0
VISUALSTYLE
  5
40
102
{ACAD_REACTORS
330
2A
102
}
102
{ACAD_XDICTIONARY
360
1BF
102
}
330
2A
100
AcDbVisualStyle
  2
X-Ray
 70
    25
177
     2
291
     0
 71
     2
176
     1
 72
     2
176
     1
 73
     1
176
     1
 90
        1
176
     1
 40
0.5
176
     1
 41
30.0
176
     1
 62
     5
 63
     7
421
 16777215
176
     1
 74
     1
176
     1
 91
        0
176
     1
 64
     7
176
     1
 65
   257
176
     1
 75
     1
176
     1
175
     1
176
     1
 42
1.0
176
     1
 92
        8
176
     1
 66
     7
176
     1
 43
1.0
176
     1
 76
     1
176
     1
 77
     6
176
     1
 78
     2
176
     1
 67
     7
176
     1
 79
     3
176
     1
170
     0
176
     1
171
     0
176
     1
290
     0
176
     1
 93
       13
176
     1
 44
0.0
176
     1
173
     0
176
     1
  0
DICTIONARYVAR
  5
194
102
{ACAD_REACTORS
330
193
102
}
330
193
100
DictionaryVariables
280
     0
  1
1:1
  0
DICTIONARYVAR
  5
1C7
102
{ACAD_REACTORS
330
193
102
}
330
193
100
DictionaryVariables
280
     0
  1
0
  0
XRECORD
  5
192
102
{ACAD_REACTORS
330
191
102
}
330
191
100
AcDbXrecord
280
     1
1000
Diese DWG-Datei wurde mit ARCHICAD(TM)¨ erstellt
  0
DICTIONARY
  5
19D
330
2F
100
AcDbDictionary
280
     1
281
     1
  3
ACAD_XREC_ROUNDTRIP
360
19E
  0
DICTIONARY
  5
1A3
330
32
100
AcDbDictionary
280
     1
281
     1
  3
ACAD_XREC_ROUNDTRIP
360
1A4
  0
DICTIONARY
  5
1AB
330
36
100
AcDbDictionary
280
     1
281
     1
  3
ACAD_XREC_ROUNDTRIP
360
1AC
  0
DICTIONARY
  5
1B3
330
3A
100
AcDbDictionary
280
     1
281
     1
  3
ACAD_XREC_ROUNDTRIP
360
1B4
  0
DICTIONARY
  5
1A7
330
34
100
AcDbDictionary
280
     1
281
     1
  3
ACAD_XREC_ROUNDTRIP
360
1A8
  0
DICTIONARY
  5
1A9
330
35
100
AcDbDictionary
280
     1
281
     1
  3
ACAD_XREC_ROUNDTRIP
360
1AA
  0
DICTIONARY
  5
1B9
330
3D
100
AcDbDictionary
280
     1
281
     1
  3
ACAD_XREC_ROUNDTRIP
360
1BA
  0
DICTIONARY
  5
1B1
330
39
100
AcDbDictionary
280
     1
281
     1
  3
ACAD_XREC_ROUNDTRIP
360
1B2
  0
DICTIONARY
  5
195
330
2B
100
AcDbDictionary
280
     1
281
     1
  3
ACAD_XREC_ROUNDTRIP
360
196
  0
DICTIONARY
  5
197
330
2C
100
AcDbDictionary
280
     1
281
     1
  3
ACAD_XREC_ROUNDTRIP
360
198
  0
DICTIONARY
  5
199
330
2D
100
AcDbDictionary
280
     1
281
     1
  3
ACAD_XREC_ROUNDTRIP
360
19A
  0
DICTIONARY
  5
19B
330
2E
100
AcDbDictionary
280
     1
281
     1
  3
ACAD_XREC_ROUNDTRIP
360
19C
  0
DICTIONARY
  5
1A1
330
31
100
AcDbDictionary
280
     1
281
     1
  3
ACAD_XREC_ROUNDTRIP
360
1A2
  0
DICTIONARY
  5
1B5
330
3B
100
AcDbDictionary
280
     1
281
     1
  3
ACAD_XREC_ROUNDTRIP
360
1B6
  0
DICTIONARY
  5
1AF
330
38
100
AcDbDictionary
280
     1
281
     1
  3
ACAD_XREC_ROUNDTRIP
360
1B0
  0
DICTIONARY
  5
1B7
330
3C
100
AcDbDictionary
280
     1
281
     1
  3
ACAD_XREC_ROUNDTRIP
360
1B8
  0
DICTIONARY
  5
1A5
330
33
100
AcDbDictionary
280
     1
281
     1
  3
ACAD_XREC_ROUNDTRIP
360
1A6
  0
DICTIONARY
  5
1C3
330
42
100
AcDbDictionary
280
     1
281
     1
  3
ACAD_XREC_ROUNDTRIP
360
1C4
  0
DICTIONARY
  5
1C1
330
41
100
AcDbDictionary
280
     1
281
     1
  3
ACAD_XREC_ROUNDTRIP
360
1C2
  0
DICTIONARY
  5
1BB
330
3E
100
AcDbDictionary
280
     1
281
     1
  3
ACAD_XREC_ROUNDTRIP
360
1BC
  0
DICTIONARY
  5
1BD
330
3F
100
AcDbDictionary
280
     1
281
     1
  3
ACAD_XREC_ROUNDTRIP
360
1BE
  0
DICTIONARY
  5
1AD
330
37
100
AcDbDictionary
280
     1
281
     1
  3
ACAD_XREC_ROUNDTRIP
360
1AE
  0
DICTIONARY
  5
19F
330
30
100
AcDbDictionary
280
     1
281
     1
  3
ACAD_XREC_ROUNDTRIP
360
1A0
  0
DICTIONARY
  5
1BF
330
40
100
AcDbDictionary
280
     1
281
     1
  3
ACAD_XREC_ROUNDTRIP
360
1C0
  0
XRECORD
  5
19E
102
{ACAD_REACTORS
330
19D
102
}
330
19D
100
AcDbXrecord
280
     1
102
RTVSPost2010Prop28
280
     1
102
RTVSPost2010PropOp28
 70
     1
102
RTVSPost2010Prop29
280
     1
102
RTVSPost2010PropOp29
 70
     1
102
RTVSPost2010Prop30
280
     0
102
RTVSPost2010PropOp30
 70
     1
102
RTVSPost2010Prop31
280
     0
102
RTVSPost2010PropOp31
 70
     1
102
RTVSPost2010Prop32
280
     0
102
RTVSPost2010PropOp32
 70
     1
102
RTVSPost2010Prop33
280
     0
102
RTVSPost2010PropOp33
 70
     1
102
RTVSPost2010Prop34
280
     0
102
RTVSPost2010PropOp34
 70
     1
102
RTVSPost2010Prop35
280
     0
102
RTVSPost2010PropOp35
 70
     1
102
RTVSPost2010Prop36
280
     0
102
RTVSPost2010PropOp36
 70
     1
102
RTVSPost2010Prop37
 90
       50
102
RTVSPost2010PropOp37
 70
     1
102
RTVSPost2010Prop38
140
0.0
102
RTVSPost2010PropOp38
 70
     1
102
RTVSPost2010Prop39
140
1.0
102
RTVSPost2010PropOp39
 70
     1
102
RTVSPost2010Prop40
 90
        0
102
RTVSPost2010PropOp40
 70
     1
102
RTVSPost2010Prop41ColorIndex
 90
      178
102
RTVSPost2010Prop41ColorRGB
 90
        0
102
RTVSPost2010PropOp41
 70
     1
102
RTVSPost2010Prop42
 90
       50
102
RTVSPost2010PropOp42
 70
     1
102
RTVSPost2010Prop43
 90
        3
102
RTVSPost2010PropOp43
 70
     1
102
RTVSPost2010Prop44ColorIndex
 90
        5
102
RTVSPost2010Prop44ColorRGB
 90
      255
102
RTVSPost2010PropOp44
 70
     1
102
RTVSPost2010Prop45
280
     0
102
RTVSPost2010PropOp45
 70
     1
102
RTVSPost2010Prop46
 90
       50
102
RTVSPost2010PropOp46
 70
     1
102
RTVSPost2010Prop47
 90
       50
102
RTVSPost2010PropOp47
 70
     1
102
RTVSPost2010Prop48
 90
       50
102
RTVSPost2010PropOp48
 70
     1
102
RTVSPost2010Prop49
280
     0
102
RTVSPost2010PropOp49
 70
     1
102
RTVSPost2010Prop50
 90
       50
102
RTVSPost2010PropOp50
 70
     1
102
RTVSPost2010Prop51ColorIndex
 90
      256
102
RTVSPost2010Prop51ColorRGB
 90
-16777216
102
RTVSPost2010PropOp51
 70
     0
102
RTVSPost2010Prop52
140
1.0
102
RTVSPost2010PropOp52
 70
     0
102
RTVSPost2010Prop53
 90
        2
102
RTVSPost2010PropOp53
 70
     1
102
RTVSPost2010Prop54
  1
strokes_ogs.tif
102
RTVSPost2010PropOp54
 70
     1
102
RTVSPost2010Prop55
280
     0
102
RTVSPost2010PropOp55
 70
     1
102
RTVSPost2010Prop56
140
1.0
102
RTVSPost2010PropOp56
 70
     1
102
RTVSPost2010Prop57
140
1.0
102
RTVSPost2010PropOp57
 70
     1
  0
XRECORD
  5
1A4
102
{ACAD_REACTORS
330
1A3
102
}
330
1A3
100
AcDbXrecord
280
     1
102
RTVSPost2010Prop28
280
     0
102
RTVSPost2010PropOp28
 70
     1
102
RTVSPost2010Prop29
280
     1
102
RTVSPost2010PropOp29
 70
     1
102
RTVSPost2010Prop30
280
     1
102
RTVSPost2010PropOp30
 70
     1
102
RTVSPost2010Prop31
280
     0
102
RTVSPost2010PropOp31
 70
     1
102
RTVSPost2010Prop32
280
     0
102
RTVSPost2010PropOp32
 70
     1
102
RTVSPost2010Prop33
280
     0
102
RTVSPost2010PropOp33
 70
     1
102
RTVSPost2010Prop34
280
     0
102
RTVSPost2010PropOp34
 70
     1
102
RTVSPost2010Prop35
280
     0
102
RTVSPost2010PropOp35
 70
     1
102
RTVSPost2010Prop36
280
     0
102
RTVSPost2010PropOp36
 70
     1
102
RTVSPost2010Prop37
 90
       50
102
RTVSPost2010PropOp37
 70
     1
102
RTVSPost2010Prop38
140
0.0
102
RTVSPost2010PropOp38
 70
     1
102
RTVSPost2010Prop39
140
1.0
102
RTVSPost2010PropOp39
 70
     1
102
RTVSPost2010Prop40
 90
        0
102
RTVSPost2010PropOp40
 70
     1
102
RTVSPost2010Prop41ColorIndex
 90
      178
102
RTVSPost2010Prop41ColorRGB
 90
        0
102
RTVSPost2010PropOp41
 70
     1
102
RTVSPost2010Prop42
 90
       50
102
RTVSPost2010PropOp42
 70
     1
102
RTVSPost2010Prop43
 90
        3
102
RTVSPost2010PropOp43
 70
     1
102
RTVSPost2010Prop44ColorIndex
 90
        5
102
RTVSPost2010Prop44ColorRGB
 90
      255
102
RTVSPost2010PropOp44
 70
     1
102
RTVSPost2010Prop45
280
     0
102
RTVSPost2010PropOp45
 70
     1
102
RTVSPost2010Prop46
 90
       50
102
RTVSPost2010PropOp46
 70
     1
102
RTVSPost2010Prop47
 90
       50
102
RTVSPost2010PropOp47
 70
     1
102
RTVSPost2010Prop48
 90
       50
102
RTVSPost2010PropOp48
 70
     1
102
RTVSPost2010Prop49
280
     0
102
RTVSPost2010PropOp49
 70
     1
102
RTVSPost2010Prop50
 90
       50
102
RTVSPost2010PropOp50
 70
     1
102
RTVSPost2010Prop51ColorIndex
 90
      256
102
RTVSPost2010Prop51ColorRGB
 90
-16777216
102
RTVSPost2010PropOp51
 70
     0
102
RTVSPost2010Prop52
140
1.0
102
RTVSPost2010PropOp52
 70
     0
102
RTVSPost2010Prop53
 90
        2
102
RTVSPost2010PropOp53
 70
     1
102
RTVSPost2010Prop54
  1
strokes_ogs.tif
102
RTVSPost2010PropOp54
 70
     1
102
RTVSPost2010Prop55
280
     0
102
RTVSPost2010PropOp55
 70
     1
102
RTVSPost2010Prop56
140
1.0
102
RTVSPost2010PropOp56
 70
     1
102
RTVSPost2010Prop57
140
1.0
102
RTVSPost2010PropOp57
 70
     1
  0
XRECORD
  5
1AC
102
{ACAD_REACTORS
330
1AB
102
}
330
1AB
100
AcDbXrecord
280
     1
102
RTVSPost2010Prop28
280
     0
102
RTVSPost2010PropOp28
 70
     1
102
RTVSPost2010Prop29
280
     1
102
RTVSPost2010PropOp29
 70
     1
102
RTVSPost2010Prop30
280
     1
102
RTVSPost2010PropOp30
 70
     1
102
RTVSPost2010Prop31
280
     0
102
RTVSPost2010PropOp31
 70
     1
102
RTVSPost2010Prop32
280
     0
102
RTVSPost2010PropOp32
 70
     1
102
RTVSPost2010Prop33
280
     0
102
RTVSPost2010PropOp33
 70
     1
102
RTVSPost2010Prop34
280
     0
102
RTVSPost2010PropOp34
 70
     1
102
RTVSPost2010Prop35
280
     0
102
RTVSPost2010PropOp35
 70
     1
102
RTVSPost2010Prop36
280
     0
102
RTVSPost2010PropOp36
 70
     1
102
RTVSPost2010Prop37
 90
       50
102
RTVSPost2010PropOp37
 70
     1
102
RTVSPost2010Prop38
140
0.0
102
RTVSPost2010PropOp38
 70
     1
102
RTVSPost2010Prop39
140
1.0
102
RTVSPost2010PropOp39
 70
     1
102
RTVSPost2010Prop40
 90
        0
102
RTVSPost2010PropOp40
 70
     1
102
RTVSPost2010Prop41ColorIndex
 90
      178
102
RTVSPost2010Prop41ColorRGB
 90
        0
102
RTVSPost2010PropOp41
 70
     1
102
RTVSPost2010Prop42
 90
       50
102
RTVSPost2010PropOp42
 70
     1
102
RTVSPost2010Prop43
 90
        3
102
RTVSPost2010PropOp43
 70
     1
102
RTVSPost2010Prop44ColorIndex
 90
        5
102
RTVSPost2010Prop44ColorRGB
 90
      255
102
RTVSPost2010PropOp44
 70
     1
102
RTVSPost2010Prop45
280
     0
102
RTVSPost2010PropOp45
 70
     1
102
RTVSPost2010Prop46
 90
       50
102
RTVSPost2010PropOp46
 70
     1
102
RTVSPost2010Prop47
 90
       50
102
RTVSPost2010PropOp47
 70
     1
102
RTVSPost2010Prop48
 90
       50
102
RTVSPost2010PropOp48
 70
     1
102
RTVSPost2010Prop49
280
     0
102
RTVSPost2010PropOp49
 70
     1
102
RTVSPost2010Prop50
 90
       50
102
RTVSPost2010PropOp50
 70
     1
102
RTVSPost2010Prop51ColorIndex
 90
      256
102
RTVSPost2010Prop51ColorRGB
 90
-16777216
102
RTVSPost2010PropOp51
 70
     0
102
RTVSPost2010Prop52
140
1.0
102
RTVSPost2010PropOp52
 70
     0
102
RTVSPost2010Prop53
 90
        2
102
RTVSPost2010PropOp53
 70
     1
102
RTVSPost2010Prop54
  1
strokes_ogs.tif
102
RTVSPost2010PropOp54
 70
     1
102
RTVSPost2010Prop55
280
     0
102
RTVSPost2010PropOp55
 70
     1
102
RTVSPost2010Prop56
140
1.0
102
RTVSPost2010PropOp56
 70
     1
102
RTVSPost2010Prop57
140
1.0
102
RTVSPost2010PropOp57
 70
     1
  0
XRECORD
  5
1B4
102
{ACAD_REACTORS
330
1B3
102
}
330
1B3
100
AcDbXrecord
280
     1
102
RTVSPost2010Prop28
280
     0
102
RTVSPost2010PropOp28
 70
     1
102
RTVSPost2010Prop29
280
     1
102
RTVSPost2010PropOp29
 70
     1
102
RTVSPost2010Prop30
280
     1
102
RTVSPost2010PropOp30
 70
     1
102
RTVSPost2010Prop31
280
     0
102
RTVSPost2010PropOp31
 70
     1
102
RTVSPost2010Prop32
280
     0
102
RTVSPost2010PropOp32
 70
     1
102
RTVSPost2010Prop33
280
     0
102
RTVSPost2010PropOp33
 70
     1
102
RTVSPost2010Prop34
280
     0
102
RTVSPost2010PropOp34
 70
     1
102
RTVSPost2010Prop35
280
     0
102
RTVSPost2010PropOp35
 70
     1
102
RTVSPost2010Prop36
280
     0
102
RTVSPost2010PropOp36
 70
     1
102
RTVSPost2010Prop37
 90
       50
102
RTVSPost2010PropOp37
 70
     1
102
RTVSPost2010Prop38
140
0.0
102
RTVSPost2010PropOp38
 70
     1
102
RTVSPost2010Prop39
140
1.0
102
RTVSPost2010PropOp39
 70
     1
102
RTVSPost2010Prop40
 90
        0
102
RTVSPost2010PropOp40
 70
     1
102
RTVSPost2010Prop41ColorIndex
 90
      178
102
RTVSPost2010Prop41ColorRGB
 90
        0
102
RTVSPost2010PropOp41
 70
     1
102
RTVSPost2010Prop42
 90
       50
102
RTVSPost2010PropOp42
 70
     1
102
RTVSPost2010Prop43
 90
        3
102
RTVSPost2010PropOp43
 70
     1
102
RTVSPost2010Prop44ColorIndex
 90
        5
102
RTVSPost2010Prop44ColorRGB
 90
      255
102
RTVSPost2010PropOp44
 70
     1
102
RTVSPost2010Prop45
280
     0
102
RTVSPost2010PropOp45
 70
     1
102
RTVSPost2010Prop46
 90
       50
102
RTVSPost2010PropOp46
 70
     1
102
RTVSPost2010Prop47
 90
       50
102
RTVSPost2010PropOp47
 70
     1
102
RTVSPost2010Prop48
 90
       50
102
RTVSPost2010PropOp48
 70
     1
102
RTVSPost2010Prop49
280
     0
102
RTVSPost2010PropOp49
 70
     1
102
RTVSPost2010Prop50
 90
       50
102
RTVSPost2010PropOp50
 70
     1
102
RTVSPost2010Prop51ColorIndex
 90
      256
102
RTVSPost2010Prop51ColorRGB
 90
-16777216
102
RTVSPost2010PropOp51
 70
     0
102
RTVSPost2010Prop52
140
1.0
102
RTVSPost2010PropOp52
 70
     0
102
RTVSPost2010Prop53
 90
        2
102
RTVSPost2010PropOp53
 70
     1
102
RTVSPost2010Prop54
  1
strokes_ogs.tif
102
RTVSPost2010PropOp54
 70
     1
102
RTVSPost2010Prop55
280
     0
102
RTVSPost2010PropOp55
 70
     1
102
RTVSPost2010Prop56
140
1.0
102
RTVSPost2010PropOp56
 70
     1
102
RTVSPost2010Prop57
140
1.0
102
RTVSPost2010PropOp57
 70
     1
  0
XRECORD
  5
1A8
102
{ACAD_REACTORS
330
1A7
102
}
330
1A7
100
AcDbXrecord
280
     1
102
RTVSPost2010Prop28
280
     0
102
RTVSPost2010PropOp28
 70
     1
102
RTVSPost2010Prop29
280
     1
102
RTVSPost2010PropOp29
 70
     1
102
RTVSPost2010Prop30
280
     1
102
RTVSPost2010PropOp30
 70
     1
102
RTVSPost2010Prop31
280
     0
102
RTVSPost2010PropOp31
 70
     1
102
RTVSPost2010Prop32
280
     0
102
RTVSPost2010PropOp32
 70
     1
102
RTVSPost2010Prop33
280
     0
102
RTVSPost2010PropOp33
 70
     1
102
RTVSPost2010Prop34
280
     0
102
RTVSPost2010PropOp34
 70
     1
102
RTVSPost2010Prop35
280
     0
102
RTVSPost2010PropOp35
 70
     1
102
RTVSPost2010Prop36
280
     0
102
RTVSPost2010PropOp36
 70
     1
102
RTVSPost2010Prop37
 90
       50
102
RTVSPost2010PropOp37
 70
     1
102
RTVSPost2010Prop38
140
0.0
102
RTVSPost2010PropOp38
 70
     1
102
RTVSPost2010Prop39
140
1.0
102
RTVSPost2010PropOp39
 70
     1
102
RTVSPost2010Prop40
 90
        0
102
RTVSPost2010PropOp40
 70
     1
102
RTVSPost2010Prop41ColorIndex
 90
      178
102
RTVSPost2010Prop41ColorRGB
 90
        0
102
RTVSPost2010PropOp41
 70
     1
102
RTVSPost2010Prop42
 90
       50
102
RTVSPost2010PropOp42
 70
     1
102
RTVSPost2010Prop43
 90
        3
102
RTVSPost2010PropOp43
 70
     1
102
RTVSPost2010Prop44ColorIndex
 90
        5
102
RTVSPost2010Prop44ColorRGB
 90
      255
102
RTVSPost2010PropOp44
 70
     1
102
RTVSPost2010Prop45
280
     0
102
RTVSPost2010PropOp45
 70
     1
102
RTVSPost2010Prop46
 90
       50
102
RTVSPost2010PropOp46
 70
     1
102
RTVSPost2010Prop47
 90
       50
102
RTVSPost2010PropOp47
 70
     1
102
RTVSPost2010Prop48
 90
       50
102
RTVSPost2010PropOp48
 70
     1
102
RTVSPost2010Prop49
280
     0
102
RTVSPost2010PropOp49
 70
     1
102
RTVSPost2010Prop50
 90
       50
102
RTVSPost2010PropOp50
 70
     1
102
RTVSPost2010Prop51ColorIndex
 90
      256
102
RTVSPost2010Prop51ColorRGB
 90
-16777216
102
RTVSPost2010PropOp51
 70
     0
102
RTVSPost2010Prop52
140
1.0
102
RTVSPost2010PropOp52
 70
     0
102
RTVSPost2010Prop53
 90
        2
102
RTVSPost2010PropOp53
 70
     1
102
RTVSPost2010Prop54
  1
strokes_ogs.tif
102
RTVSPost2010PropOp54
 70
     1
102
RTVSPost2010Prop55
280
     0
102
RTVSPost2010PropOp55
 70
     1
102
RTVSPost2010Prop56
140
1.0
102
RTVSPost2010PropOp56
 70
     1
102
RTVSPost2010Prop57
140
1.0
102
RTVSPost2010PropOp57
 70
     1
  0
XRECORD
  5
1AA
102
{ACAD_REACTORS
330
1A9
102
}
330
1A9
100
AcDbXrecord
280
     1
102
RTVSPost2010Prop28
280
     0
102
RTVSPost2010PropOp28
 70
     1
102
RTVSPost2010Prop29
280
     1
102
RTVSPost2010PropOp29
 70
     1
102
RTVSPost2010Prop30
280
     1
102
RTVSPost2010PropOp30
 70
     1
102
RTVSPost2010Prop31
280
     0
102
RTVSPost2010PropOp31
 70
     1
102
RTVSPost2010Prop32
280
     0
102
RTVSPost2010PropOp32
 70
     1
102
RTVSPost2010Prop33
280
     0
102
RTVSPost2010PropOp33
 70
     1
102
RTVSPost2010Prop34
280
     0
102
RTVSPost2010PropOp34
 70
     1
102
RTVSPost2010Prop35
280
     0
102
RTVSPost2010PropOp35
 70
     1
102
RTVSPost2010Prop36
280
     0
102
RTVSPost2010PropOp36
 70
     1
102
RTVSPost2010Prop37
 90
       50
102
RTVSPost2010PropOp37
 70
     1
102
RTVSPost2010Prop38
140
0.0
102
RTVSPost2010PropOp38
 70
     1
102
RTVSPost2010Prop39
140
1.0
102
RTVSPost2010PropOp39
 70
     1
102
RTVSPost2010Prop40
 90
        0
102
RTVSPost2010PropOp40
 70
     1
102
RTVSPost2010Prop41ColorIndex
 90
      178
102
RTVSPost2010Prop41ColorRGB
 90
        0
102
RTVSPost2010PropOp41
 70
     1
102
RTVSPost2010Prop42
 90
       50
102
RTVSPost2010PropOp42
 70
     1
102
RTVSPost2010Prop43
 90
        3
102
RTVSPost2010PropOp43
 70
     1
102
RTVSPost2010Prop44ColorIndex
 90
        5
102
RTVSPost2010Prop44ColorRGB
 90
      255
102
RTVSPost2010PropOp44
 70
     1
102
RTVSPost2010Prop45
280
     0
102
RTVSPost2010PropOp45
 70
     1
102
RTVSPost2010Prop46
 90
       50
102
RTVSPost2010PropOp46
 70
     1
102
RTVSPost2010Prop47
 90
       50
102
RTVSPost2010PropOp47
 70
     1
102
RTVSPost2010Prop48
 90
       50
102
RTVSPost2010PropOp48
 70
     1
102
RTVSPost2010Prop49
280
     0
102
RTVSPost2010PropOp49
 70
     1
102
RTVSPost2010Prop50
 90
       50
102
RTVSPost2010PropOp50
 70
     1
102
RTVSPost2010Prop51ColorIndex
 90
      256
102
RTVSPost2010Prop51ColorRGB
 90
-16777216
102
RTVSPost2010PropOp51
 70
     0
102
RTVSPost2010Prop52
140
1.0
102
RTVSPost2010PropOp52
 70
     0
102
RTVSPost2010Prop53
 90
        2
102
RTVSPost2010PropOp53
 70
     1
102
RTVSPost2010Prop54
  1
strokes_ogs.tif
102
RTVSPost2010PropOp54
 70
     1
102
RTVSPost2010Prop55
280
     0
102
RTVSPost2010PropOp55
 70
     1
102
RTVSPost2010Prop56
140
1.0
102
RTVSPost2010PropOp56
 70
     1
102
RTVSPost2010Prop57
140
1.0
102
RTVSPost2010PropOp57
 70
     1
  0
XRECORD
  5
1BA
102
{ACAD_REACTORS
330
1B9
102
}
330
1B9
100
AcDbXrecord
280
     1
102
RTVSPost2010Prop28
280
     0
102
RTVSPost2010PropOp28
 70
     0
102
RTVSPost2010Prop29
280
     1
102
RTVSPost2010PropOp29
 70
     0
102
RTVSPost2010Prop30
280
     1
102
RTVSPost2010PropOp30
 70
     0
102
RTVSPost2010Prop31
280
     0
102
RTVSPost2010PropOp31
 70
     0
102
RTVSPost2010Prop32
280
     0
102
RTVSPost2010PropOp32
 70
     0
102
RTVSPost2010Prop33
280
     0
102
RTVSPost2010PropOp33
 70
     0
102
RTVSPost2010Prop34
280
     0
102
RTVSPost2010PropOp34
 70
     0
102
RTVSPost2010Prop35
280
     0
102
RTVSPost2010PropOp35
 70
     0
102
RTVSPost2010Prop36
280
     0
102
RTVSPost2010PropOp36
 70
     0
102
RTVSPost2010Prop37
 90
       50
102
RTVSPost2010PropOp37
 70
     0
102
RTVSPost2010Prop38
140
0.0
102
RTVSPost2010PropOp38
 70
     0
102
RTVSPost2010Prop39
140
1.0
102
RTVSPost2010PropOp39
 70
     0
102
RTVSPost2010Prop40
 90
        0
102
RTVSPost2010PropOp40
 70
     0
102
RTVSPost2010Prop41ColorIndex
 90
      178
102
RTVSPost2010Prop41ColorRGB
 90
        0
102
RTVSPost2010PropOp41
 70
     0
102
RTVSPost2010Prop42
 90
       50
102
RTVSPost2010PropOp42
 70
     0
102
RTVSPost2010Prop43
 90
        3
102
RTVSPost2010PropOp43
 70
     0
102
RTVSPost2010Prop44ColorIndex
 90
        5
102
RTVSPost2010Prop44ColorRGB
 90
      255
102
RTVSPost2010PropOp44
 70
     0
102
RTVSPost2010Prop45
280
     0
102
RTVSPost2010PropOp45
 70
     0
102
RTVSPost2010Prop46
 90
       50
102
RTVSPost2010PropOp46
 70
     0
102
RTVSPost2010Prop47
 90
       50
102
RTVSPost2010PropOp47
 70
     0
102
RTVSPost2010Prop48
 90
       50
102
RTVSPost2010PropOp48
 70
     0
102
RTVSPost2010Prop49
280
     0
102
RTVSPost2010PropOp49
 70
     0
102
RTVSPost2010Prop50
 90
       50
102
RTVSPost2010PropOp50
 70
     0
102
RTVSPost2010Prop51ColorIndex
 90
      256
102
RTVSPost2010Prop51ColorRGB
 90
-16777216
102
RTVSPost2010PropOp51
 70
     0
102
RTVSPost2010Prop52
140
1.0
102
RTVSPost2010PropOp52
 70
     0
102
RTVSPost2010Prop53
 90
        2
102
RTVSPost2010PropOp53
 70
     0
102
RTVSPost2010Prop54
  1
strokes_ogs.tif
102
RTVSPost2010PropOp54
 70
     0
102
RTVSPost2010Prop55
280
     0
102
RTVSPost2010PropOp55
 70
     0
102
RTVSPost2010Prop56
140
1.0
102
RTVSPost2010PropOp56
 70
     0
102
RTVSPost2010Prop57
140
1.0
102
RTVSPost2010PropOp57
 70
     0
  0
XRECORD
  5
1B2
102
{ACAD_REACTORS
330
1B1
102
}
330
1B1
100
AcDbXrecord
280
     1
102
RTVSPost2010Prop28
280
     0
102
RTVSPost2010PropOp28
 70
     1
102
RTVSPost2010Prop29
280
     1
102
RTVSPost2010PropOp29
 70
     1
102
RTVSPost2010Prop30
280
     1
102
RTVSPost2010PropOp30
 70
     1
102
RTVSPost2010Prop31
280
     0
102
RTVSPost2010PropOp31
 70
     1
102
RTVSPost2010Prop32
280
     0
102
RTVSPost2010PropOp32
 70
     1
102
RTVSPost2010Prop33
280
     0
102
RTVSPost2010PropOp33
 70
     1
102
RTVSPost2010Prop34
280
     0
102
RTVSPost2010PropOp34
 70
     1
102
RTVSPost2010Prop35
280
     0
102
RTVSPost2010PropOp35
 70
     1
102
RTVSPost2010Prop36
280
     0
102
RTVSPost2010PropOp36
 70
     1
102
RTVSPost2010Prop37
 90
       50
102
RTVSPost2010PropOp37
 70
     1
102
RTVSPost2010Prop38
140
0.0
102
RTVSPost2010PropOp38
 70
     1
102
RTVSPost2010Prop39
140
1.0
102
RTVSPost2010PropOp39
 70
     1
102
RTVSPost2010Prop40
 90
        0
102
RTVSPost2010PropOp40
 70
     1
102
RTVSPost2010Prop41ColorIndex
 90
      178
102
RTVSPost2010Prop41ColorRGB
 90
        0
102
RTVSPost2010PropOp41
 70
     1
102
RTVSPost2010Prop42
 90
       50
102
RTVSPost2010PropOp42
 70
     1
102
RTVSPost2010Prop43
 90
        3
102
RTVSPost2010PropOp43
 70
     1
102
RTVSPost2010Prop44ColorIndex
 90
        5
102
RTVSPost2010Prop44ColorRGB
 90
      255
102
RTVSPost2010PropOp44
 70
     1
102
RTVSPost2010Prop45
280
     0
102
RTVSPost2010PropOp45
 70
     1
102
RTVSPost2010Prop46
 90
       50
102
RTVSPost2010PropOp46
 70
     1
102
RTVSPost2010Prop47
 90
       50
102
RTVSPost2010PropOp47
 70
     1
102
RTVSPost2010Prop48
 90
       50
102
RTVSPost2010PropOp48
 70
     1
102
RTVSPost2010Prop49
280
     0
102
RTVSPost2010PropOp49
 70
     1
102
RTVSPost2010Prop50
 90
       50
102
RTVSPost2010PropOp50
 70
     1
102
RTVSPost2010Prop51ColorIndex
 90
      256
102
RTVSPost2010Prop51ColorRGB
 90
-16777216
102
RTVSPost2010PropOp51
 70
     0
102
RTVSPost2010Prop52
140
1.0
102
RTVSPost2010PropOp52
 70
     0
102
RTVSPost2010Prop53
 90
        2
102
RTVSPost2010PropOp53
 70
     1
102
RTVSPost2010Prop54
  1
strokes_ogs.tif
102
RTVSPost2010PropOp54
 70
     1
102
RTVSPost2010Prop55
280
     0
102
RTVSPost2010PropOp55
 70
     1
102
RTVSPost2010Prop56
140
1.0
102
RTVSPost2010PropOp56
 70
     1
102
RTVSPost2010Prop57
140
1.0
102
RTVSPost2010PropOp57
 70
     1
  0
XRECORD
  5
196
102
{ACAD_REACTORS
330
195
102
}
330
195
100
AcDbXrecord
280
     1
102
RTVSPost2010Prop28
280
     0
102
RTVSPost2010PropOp28
 70
     1
102
RTVSPost2010Prop29
280
     1
102
RTVSPost2010PropOp29
 70
     1
102
RTVSPost2010Prop30
280
     1
102
RTVSPost2010PropOp30
 70
     1
102
RTVSPost2010Prop31
280
     0
102
RTVSPost2010PropOp31
 70
     1
102
RTVSPost2010Prop32
280
     0
102
RTVSPost2010PropOp32
 70
     1
102
RTVSPost2010Prop33
280
     0
102
RTVSPost2010PropOp33
 70
     1
102
RTVSPost2010Prop34
280
     0
102
RTVSPost2010PropOp34
 70
     1
102
RTVSPost2010Prop35
280
     0
102
RTVSPost2010PropOp35
 70
     1
102
RTVSPost2010Prop36
280
     0
102
RTVSPost2010PropOp36
 70
     1
102
RTVSPost2010Prop37
 90
       50
102
RTVSPost2010PropOp37
 70
     1
102
RTVSPost2010Prop38
140
0.0
102
RTVSPost2010PropOp38
 70
     1
102
RTVSPost2010Prop39
140
1.0
102
RTVSPost2010PropOp39
 70
     1
102
RTVSPost2010Prop40
 90
        0
102
RTVSPost2010PropOp40
 70
     1
102
RTVSPost2010Prop41ColorIndex
 90
      178
102
RTVSPost2010Prop41ColorRGB
 90
        0
102
RTVSPost2010PropOp41
 70
     1
102
RTVSPost2010Prop42
 90
       50
102
RTVSPost2010PropOp42
 70
     1
102
RTVSPost2010Prop43
 90
        3
102
RTVSPost2010PropOp43
 70
     1
102
RTVSPost2010Prop44ColorIndex
 90
        5
102
RTVSPost2010Prop44ColorRGB
 90
      255
102
RTVSPost2010PropOp44
 70
     1
102
RTVSPost2010Prop45
280
     0
102
RTVSPost2010PropOp45
 70
     1
102
RTVSPost2010Prop46
 90
       50
102
RTVSPost2010PropOp46
 70
     1
102
RTVSPost2010Prop47
 90
       50
102
RTVSPost2010PropOp47
 70
     1
102
RTVSPost2010Prop48
 90
       50
102
RTVSPost2010PropOp48
 70
     1
102
RTVSPost2010Prop49
280
     0
102
RTVSPost2010PropOp49
 70
     1
102
RTVSPost2010Prop50
 90
       50
102
RTVSPost2010PropOp50
 70
     1
102
RTVSPost2010Prop51ColorIndex
 90
      256
102
RTVSPost2010Prop51ColorRGB
 90
-16777216
102
RTVSPost2010PropOp51
 70
     0
102
RTVSPost2010Prop52
140
1.0
102
RTVSPost2010PropOp52
 70
     0
102
RTVSPost2010Prop53
 90
        2
102
RTVSPost2010PropOp53
 70
     1
102
RTVSPost2010Prop54
  1
strokes_ogs.tif
102
RTVSPost2010PropOp54
 70
     1
102
RTVSPost2010Prop55
280
     0
102
RTVSPost2010PropOp55
 70
     1
102
RTVSPost2010Prop56
140
1.0
102
RTVSPost2010PropOp56
 70
     1
102
RTVSPost2010Prop57
140
1.0
102
RTVSPost2010PropOp57
 70
     1
  0
XRECORD
  5
198
102
{ACAD_REACTORS
330
197
102
}
330
197
100
AcDbXrecord
280
     1
102
RTVSPost2010Prop28
280
     0
102
RTVSPost2010PropOp28
 70
     1
102
RTVSPost2010Prop29
280
     1
102
RTVSPost2010PropOp29
 70
     1
102
RTVSPost2010Prop30
280
     1
102
RTVSPost2010PropOp30
 70
     1
102
RTVSPost2010Prop31
280
     0
102
RTVSPost2010PropOp31
 70
     1
102
RTVSPost2010Prop32
280
     0
102
RTVSPost2010PropOp32
 70
     1
102
RTVSPost2010Prop33
280
     0
102
RTVSPost2010PropOp33
 70
     1
102
RTVSPost2010Prop34
280
     0
102
RTVSPost2010PropOp34
 70
     1
102
RTVSPost2010Prop35
280
     0
102
RTVSPost2010PropOp35
 70
     1
102
RTVSPost2010Prop36
280
     0
102
RTVSPost2010PropOp36
 70
     1
102
RTVSPost2010Prop37
 90
       50
102
RTVSPost2010PropOp37
 70
     1
102
RTVSPost2010Prop38
140
0.0
102
RTVSPost2010PropOp38
 70
     1
102
RTVSPost2010Prop39
140
1.0
102
RTVSPost2010PropOp39
 70
     1
102
RTVSPost2010Prop40
 90
        0
102
RTVSPost2010PropOp40
 70
     1
102
RTVSPost2010Prop41ColorIndex
 90
      178
102
RTVSPost2010Prop41ColorRGB
 90
        0
102
RTVSPost2010PropOp41
 70
     1
102
RTVSPost2010Prop42
 90
       50
102
RTVSPost2010PropOp42
 70
     1
102
RTVSPost2010Prop43
 90
        3
102
RTVSPost2010PropOp43
 70
     1
102
RTVSPost2010Prop44ColorIndex
 90
        5
102
RTVSPost2010Prop44ColorRGB
 90
      255
102
RTVSPost2010PropOp44
 70
     1
102
RTVSPost2010Prop45
280
     0
102
RTVSPost2010PropOp45
 70
     1
102
RTVSPost2010Prop46
 90
       50
102
RTVSPost2010PropOp46
 70
     1
102
RTVSPost2010Prop47
 90
       50
102
RTVSPost2010PropOp47
 70
     1
102
RTVSPost2010Prop48
 90
       50
102
RTVSPost2010PropOp48
 70
     1
102
RTVSPost2010Prop49
280
     0
102
RTVSPost2010PropOp49
 70
     1
102
RTVSPost2010Prop50
 90
       50
102
RTVSPost2010PropOp50
 70
     1
102
RTVSPost2010Prop51ColorIndex
 90
      256
102
RTVSPost2010Prop51ColorRGB
 90
-16777216
102
RTVSPost2010PropOp51
 70
     0
102
RTVSPost2010Prop52
140
1.0
102
RTVSPost2010PropOp52
 70
     0
102
RTVSPost2010Prop53
 90
        2
102
RTVSPost2010PropOp53
 70
     1
102
RTVSPost2010Prop54
  1
strokes_ogs.tif
102
RTVSPost2010PropOp54
 70
     1
102
RTVSPost2010Prop55
280
     0
102
RTVSPost2010PropOp55
 70
     1
102
RTVSPost2010Prop56
140
1.0
102
RTVSPost2010PropOp56
 70
     1
102
RTVSPost2010Prop57
140
1.0
102
RTVSPost2010PropOp57
 70
     1
  0
XRECORD
  5
19A
102
{ACAD_REACTORS
330
199
102
}
330
199
100
AcDbXrecord
280
     1
102
RTVSPost2010Prop28
280
     0
102
RTVSPost2010PropOp28
 70
     1
102
RTVSPost2010Prop29
280
     1
102
RTVSPost2010PropOp29
 70
     1
102
RTVSPost2010Prop30
280
     1
102
RTVSPost2010PropOp30
 70
     1
102
RTVSPost2010Prop31
280
     0
102
RTVSPost2010PropOp31
 70
     1
102
RTVSPost2010Prop32
280
     0
102
RTVSPost2010PropOp32
 70
     1
102
RTVSPost2010Prop33
280
     0
102
RTVSPost2010PropOp33
 70
     1
102
RTVSPost2010Prop34
280
     0
102
RTVSPost2010PropOp34
 70
     1
102
RTVSPost2010Prop35
280
     0
102
RTVSPost2010PropOp35
 70
     1
102
RTVSPost2010Prop36
280
     0
102
RTVSPost2010PropOp36
 70
     1
102
RTVSPost2010Prop37
 90
       50
102
RTVSPost2010PropOp37
 70
     1
102
RTVSPost2010Prop38
140
0.0
102
RTVSPost2010PropOp38
 70
     1
102
RTVSPost2010Prop39
140
1.0
102
RTVSPost2010PropOp39
 70
     1
102
RTVSPost2010Prop40
 90
        0
102
RTVSPost2010PropOp40
 70
     1
102
RTVSPost2010Prop41ColorIndex
 90
      178
102
RTVSPost2010Prop41ColorRGB
 90
        0
102
RTVSPost2010PropOp41
 70
     1
102
RTVSPost2010Prop42
 90
       50
102
RTVSPost2010PropOp42
 70
     1
102
RTVSPost2010Prop43
 90
        3
102
RTVSPost2010PropOp43
 70
     1
102
RTVSPost2010Prop44ColorIndex
 90
        5
102
RTVSPost2010Prop44ColorRGB
 90
      255
102
RTVSPost2010PropOp44
 70
     1
102
RTVSPost2010Prop45
280
     0
102
RTVSPost2010PropOp45
 70
     1
102
RTVSPost2010Prop46
 90
       50
102
RTVSPost2010PropOp46
 70
     1
102
RTVSPost2010Prop47
 90
       50
102
RTVSPost2010PropOp47
 70
     1
102
RTVSPost2010Prop48
 90
       50
102
RTVSPost2010PropOp48
 70
     1
102
RTVSPost2010Prop49
280
     0
102
RTVSPost2010PropOp49
 70
     1
102
RTVSPost2010Prop50
 90
       50
102
RTVSPost2010PropOp50
 70
     1
102
RTVSPost2010Prop51ColorIndex
 90
      256
102
RTVSPost2010Prop51ColorRGB
 90
-16777216
102
RTVSPost2010PropOp51
 70
     0
102
RTVSPost2010Prop52
140
1.0
102
RTVSPost2010PropOp52
 70
     0
102
RTVSPost2010Prop53
 90
        2
102
RTVSPost2010PropOp53
 70
     1
102
RTVSPost2010Prop54
  1
strokes_ogs.tif
102
RTVSPost2010PropOp54
 70
     1
102
RTVSPost2010Prop55
280
     0
102
RTVSPost2010PropOp55
 70
     1
102
RTVSPost2010Prop56
140
1.0
102
RTVSPost2010PropOp56
 70
     1
102
RTVSPost2010Prop57
140
1.0
102
RTVSPost2010PropOp57
 70
     1
  0
XRECORD
  5
19C
102
{ACAD_REACTORS
330
19B
102
}
330
19B
100
AcDbXrecord
280
     1
102
RTVSPost2010Prop28
280
     0
102
RTVSPost2010PropOp28
 70
     1
102
RTVSPost2010Prop29
280
     1
102
RTVSPost2010PropOp29
 70
     1
102
RTVSPost2010Prop30
280
     1
102
RTVSPost2010PropOp30
 70
     1
102
RTVSPost2010Prop31
280
     0
102
RTVSPost2010PropOp31
 70
     1
102
RTVSPost2010Prop32
280
     0
102
RTVSPost2010PropOp32
 70
     1
102
RTVSPost2010Prop33
280
     0
102
RTVSPost2010PropOp33
 70
     1
102
RTVSPost2010Prop34
280
     0
102
RTVSPost2010PropOp34
 70
     1
102
RTVSPost2010Prop35
280
     0
102
RTVSPost2010PropOp35
 70
     1
102
RTVSPost2010Prop36
280
     0
102
RTVSPost2010PropOp36
 70
     1
102
RTVSPost2010Prop37
 90
       50
102
RTVSPost2010PropOp37
 70
     1
102
RTVSPost2010Prop38
140
0.0
102
RTVSPost2010PropOp38
 70
     1
102
RTVSPost2010Prop39
140
1.0
102
RTVSPost2010PropOp39
 70
     1
102
RTVSPost2010Prop40
 90
        0
102
RTVSPost2010PropOp40
 70
     1
102
RTVSPost2010Prop41ColorIndex
 90
      178
102
RTVSPost2010Prop41ColorRGB
 90
        0
102
RTVSPost2010PropOp41
 70
     1
102
RTVSPost2010Prop42
 90
       50
102
RTVSPost2010PropOp42
 70
     1
102
RTVSPost2010Prop43
 90
        3
102
RTVSPost2010PropOp43
 70
     1
102
RTVSPost2010Prop44ColorIndex
 90
        5
102
RTVSPost2010Prop44ColorRGB
 90
      255
102
RTVSPost2010PropOp44
 70
     1
102
RTVSPost2010Prop45
280
     0
102
RTVSPost2010PropOp45
 70
     1
102
RTVSPost2010Prop46
 90
       50
102
RTVSPost2010PropOp46
 70
     1
102
RTVSPost2010Prop47
 90
       50
102
RTVSPost2010PropOp47
 70
     1
102
RTVSPost2010Prop48
 90
       50
102
RTVSPost2010PropOp48
 70
     1
102
RTVSPost2010Prop49
280
     0
102
RTVSPost2010PropOp49
 70
     1
102
RTVSPost2010Prop50
 90
       50
102
RTVSPost2010PropOp50
 70
     1
102
RTVSPost2010Prop51ColorIndex
 90
      256
102
RTVSPost2010Prop51ColorRGB
 90
-16777216
102
RTVSPost2010PropOp51
 70
     0
102
RTVSPost2010Prop52
140
1.0
102
RTVSPost2010PropOp52
 70
     0
102
RTVSPost2010Prop53
 90
        2
102
RTVSPost2010PropOp53
 70
     1
102
RTVSPost2010Prop54
  1
strokes_ogs.tif
102
RTVSPost2010PropOp54
 70
     1
102
RTVSPost2010Prop55
280
     0
102
RTVSPost2010PropOp55
 70
     1
102
RTVSPost2010Prop56
140
1.0
102
RTVSPost2010PropOp56
 70
     1
102
RTVSPost2010Prop57
140
1.0
102
RTVSPost2010PropOp57
 70
     1
  0
XRECORD
  5
1A2
102
{ACAD_REACTORS
330
1A1
102
}
330
1A1
100
AcDbXrecord
280
     1
102
RTVSPost2010Prop28
280
     0
102
RTVSPost2010PropOp28
 70
     1
102
RTVSPost2010Prop29
280
     1
102
RTVSPost2010PropOp29
 70
     1
102
RTVSPost2010Prop30
280
     1
102
RTVSPost2010PropOp30
 70
     1
102
RTVSPost2010Prop31
280
     0
102
RTVSPost2010PropOp31
 70
     1
102
RTVSPost2010Prop32
280
     0
102
RTVSPost2010PropOp32
 70
     1
102
RTVSPost2010Prop33
280
     0
102
RTVSPost2010PropOp33
 70
     1
102
RTVSPost2010Prop34
280
     0
102
RTVSPost2010PropOp34
 70
     1
102
RTVSPost2010Prop35
280
     0
102
RTVSPost2010PropOp35
 70
     1
102
RTVSPost2010Prop36
280
     0
102
RTVSPost2010PropOp36
 70
     1
102
RTVSPost2010Prop37
 90
       50
102
RTVSPost2010PropOp37
 70
     1
102
RTVSPost2010Prop38
140
0.0
102
RTVSPost2010PropOp38
 70
     1
102
RTVSPost2010Prop39
140
1.0
102
RTVSPost2010PropOp39
 70
     1
102
RTVSPost2010Prop40
 90
        0
102
RTVSPost2010PropOp40
 70
     1
102
RTVSPost2010Prop41ColorIndex
 90
      178
102
RTVSPost2010Prop41ColorRGB
 90
        0
102
RTVSPost2010PropOp41
 70
     1
102
RTVSPost2010Prop42
 90
       50
102
RTVSPost2010PropOp42
 70
     1
102
RTVSPost2010Prop43
 90
        3
102
RTVSPost2010PropOp43
 70
     1
102
RTVSPost2010Prop44ColorIndex
 90
        5
102
RTVSPost2010Prop44ColorRGB
 90
      255
102
RTVSPost2010PropOp44
 70
     1
102
RTVSPost2010Prop45
280
     0
102
RTVSPost2010PropOp45
 70
     1
102
RTVSPost2010Prop46
 90
       50
102
RTVSPost2010PropOp46
 70
     1
102
RTVSPost2010Prop47
 90
       50
102
RTVSPost2010PropOp47
 70
     1
102
RTVSPost2010Prop48
 90
       50
102
RTVSPost2010PropOp48
 70
     1
102
RTVSPost2010Prop49
280
     0
102
RTVSPost2010PropOp49
 70
     1
102
RTVSPost2010Prop50
 90
       50
102
RTVSPost2010PropOp50
 70
     1
102
RTVSPost2010Prop51ColorIndex
 90
      256
102
RTVSPost2010Prop51ColorRGB
 90
-16777216
102
RTVSPost2010PropOp51
 70
     0
102
RTVSPost2010Prop52
140
1.0
102
RTVSPost2010PropOp52
 70
     0
102
RTVSPost2010Prop53
 90
        2
102
RTVSPost2010PropOp53
 70
     1
102
RTVSPost2010Prop54
  1
strokes_ogs.tif
102
RTVSPost2010PropOp54
 70
     1
102
RTVSPost2010Prop55
280
     0
102
RTVSPost2010PropOp55
 70
     1
102
RTVSPost2010Prop56
140
1.0
102
RTVSPost2010PropOp56
 70
     1
102
RTVSPost2010Prop57
140
1.0
102
RTVSPost2010PropOp57
 70
     1
  0
XRECORD
  5
1B6
102
{ACAD_REACTORS
330
1B5
102
}
330
1B5
100
AcDbXrecord
280
     1
102
RTVSPost2010Prop28
280
     0
102
RTVSPost2010PropOp28
 70
     0
102
RTVSPost2010Prop29
280
     1
102
RTVSPost2010PropOp29
 70
     0
102
RTVSPost2010Prop30
280
     1
102
RTVSPost2010PropOp30
 70
     0
102
RTVSPost2010Prop31
280
     0
102
RTVSPost2010PropOp31
 70
     0
102
RTVSPost2010Prop32
280
     0
102
RTVSPost2010PropOp32
 70
     0
102
RTVSPost2010Prop33
280
     0
102
RTVSPost2010PropOp33
 70
     0
102
RTVSPost2010Prop34
280
     0
102
RTVSPost2010PropOp34
 70
     0
102
RTVSPost2010Prop35
280
     0
102
RTVSPost2010PropOp35
 70
     0
102
RTVSPost2010Prop36
280
     0
102
RTVSPost2010PropOp36
 70
     0
102
RTVSPost2010Prop37
 90
       50
102
RTVSPost2010PropOp37
 70
     0
102
RTVSPost2010Prop38
140
0.0
102
RTVSPost2010PropOp38
 70
     0
102
RTVSPost2010Prop39
140
1.0
102
RTVSPost2010PropOp39
 70
     0
102
RTVSPost2010Prop40
 90
        0
102
RTVSPost2010PropOp40
 70
     0
102
RTVSPost2010Prop41ColorIndex
 90
      178
102
RTVSPost2010Prop41ColorRGB
 90
        0
102
RTVSPost2010PropOp41
 70
     0
102
RTVSPost2010Prop42
 90
       50
102
RTVSPost2010PropOp42
 70
     0
102
RTVSPost2010Prop43
 90
        3
102
RTVSPost2010PropOp43
 70
     0
102
RTVSPost2010Prop44ColorIndex
 90
        5
102
RTVSPost2010Prop44ColorRGB
 90
      255
102
RTVSPost2010PropOp44
 70
     0
102
RTVSPost2010Prop45
280
     0
102
RTVSPost2010PropOp45
 70
     0
102
RTVSPost2010Prop46
 90
       50
102
RTVSPost2010PropOp46
 70
     0
102
RTVSPost2010Prop47
 90
       50
102
RTVSPost2010PropOp47
 70
     0
102
RTVSPost2010Prop48
 90
       50
102
RTVSPost2010PropOp48
 70
     0
102
RTVSPost2010Prop49
280
     0
102
RTVSPost2010PropOp49
 70
     0
102
RTVSPost2010Prop50
 90
       50
102
RTVSPost2010PropOp50
 70
     0
102
RTVSPost2010Prop51ColorIndex
 90
      256
102
RTVSPost2010Prop51ColorRGB
 90
-16777216
102
RTVSPost2010PropOp51
 70
     0
102
RTVSPost2010Prop52
140
1.0
102
RTVSPost2010PropOp52
 70
     0
102
RTVSPost2010Prop53
 90
        2
102
RTVSPost2010PropOp53
 70
     0
102
RTVSPost2010Prop54
  1
strokes_ogs.tif
102
RTVSPost2010PropOp54
 70
     0
102
RTVSPost2010Prop55
280
     0
102
RTVSPost2010PropOp55
 70
     0
102
RTVSPost2010Prop56
140
1.0
102
RTVSPost2010PropOp56
 70
     0
102
RTVSPost2010Prop57
140
1.0
102
RTVSPost2010PropOp57
 70
     0
  0
XRECORD
  5
1B0
102
{ACAD_REACTORS
330
1AF
102
}
330
1AF
100
AcDbXrecord
280
     1
102
RTVSPost2010Prop28
280
     0
102
RTVSPost2010PropOp28
 70
     1
102
RTVSPost2010Prop29
280
     1
102
RTVSPost2010PropOp29
 70
     1
102
RTVSPost2010Prop30
280
     1
102
RTVSPost2010PropOp30
 70
     1
102
RTVSPost2010Prop31
280
     0
102
RTVSPost2010PropOp31
 70
     1
102
RTVSPost2010Prop32
280
     0
102
RTVSPost2010PropOp32
 70
     1
102
RTVSPost2010Prop33
280
     0
102
RTVSPost2010PropOp33
 70
     1
102
RTVSPost2010Prop34
280
     0
102
RTVSPost2010PropOp34
 70
     1
102
RTVSPost2010Prop35
280
     0
102
RTVSPost2010PropOp35
 70
     1
102
RTVSPost2010Prop36
280
     0
102
RTVSPost2010PropOp36
 70
     1
102
RTVSPost2010Prop37
 90
       50
102
RTVSPost2010PropOp37
 70
     1
102
RTVSPost2010Prop38
140
0.0
102
RTVSPost2010PropOp38
 70
     1
102
RTVSPost2010Prop39
140
1.0
102
RTVSPost2010PropOp39
 70
     1
102
RTVSPost2010Prop40
 90
        0
102
RTVSPost2010PropOp40
 70
     1
102
RTVSPost2010Prop41ColorIndex
 90
      178
102
RTVSPost2010Prop41ColorRGB
 90
        0
102
RTVSPost2010PropOp41
 70
     1
102
RTVSPost2010Prop42
 90
       50
102
RTVSPost2010PropOp42
 70
     1
102
RTVSPost2010Prop43
 90
        3
102
RTVSPost2010PropOp43
 70
     1
102
RTVSPost2010Prop44ColorIndex
 90
        5
102
RTVSPost2010Prop44ColorRGB
 90
      255
102
RTVSPost2010PropOp44
 70
     1
102
RTVSPost2010Prop45
280
     0
102
RTVSPost2010PropOp45
 70
     1
102
RTVSPost2010Prop46
 90
       50
102
RTVSPost2010PropOp46
 70
     1
102
RTVSPost2010Prop47
 90
       50
102
RTVSPost2010PropOp47
 70
     1
102
RTVSPost2010Prop48
 90
       50
102
RTVSPost2010PropOp48
 70
     1
102
RTVSPost2010Prop49
280
     0
102
RTVSPost2010PropOp49
 70
     1
102
RTVSPost2010Prop50
 90
       50
102
RTVSPost2010PropOp50
 70
     1
102
RTVSPost2010Prop51ColorIndex
 90
      256
102
RTVSPost2010Prop51ColorRGB
 90
-16777216
102
RTVSPost2010PropOp51
 70
     0
102
RTVSPost2010Prop52
140
1.0
102
RTVSPost2010PropOp52
 70
     0
102
RTVSPost2010Prop53
 90
        2
102
RTVSPost2010PropOp53
 70
     1
102
RTVSPost2010Prop54
  1
strokes_ogs.tif
102
RTVSPost2010PropOp54
 70
     1
102
RTVSPost2010Prop55
280
     0
102
RTVSPost2010PropOp55
 70
     1
102
RTVSPost2010Prop56
140
1.0
102
RTVSPost2010PropOp56
 70
     1
102
RTVSPost2010Prop57
140
1.0
102
RTVSPost2010PropOp57
 70
     1
  0
XRECORD
  5
1B8
102
{ACAD_REACTORS
330
1B7
102
}
330
1B7
100
AcDbXrecord
280
     1
102
RTVSPost2010Prop28
280
     0
102
RTVSPost2010PropOp28
 70
     0
102
RTVSPost2010Prop29
280
     1
102
RTVSPost2010PropOp29
 70
     0
102
RTVSPost2010Prop30
280
     1
102
RTVSPost2010PropOp30
 70
     0
102
RTVSPost2010Prop31
280
     0
102
RTVSPost2010PropOp31
 70
     0
102
RTVSPost2010Prop32
280
     0
102
RTVSPost2010PropOp32
 70
     0
102
RTVSPost2010Prop33
280
     0
102
RTVSPost2010PropOp33
 70
     0
102
RTVSPost2010Prop34
280
     0
102
RTVSPost2010PropOp34
 70
     0
102
RTVSPost2010Prop35
280
     0
102
RTVSPost2010PropOp35
 70
     0
102
RTVSPost2010Prop36
280
     0
102
RTVSPost2010PropOp36
 70
     0
102
RTVSPost2010Prop37
 90
       50
102
RTVSPost2010PropOp37
 70
     0
102
RTVSPost2010Prop38
140
0.0
102
RTVSPost2010PropOp38
 70
     0
102
RTVSPost2010Prop39
140
1.0
102
RTVSPost2010PropOp39
 70
     0
102
RTVSPost2010Prop40
 90
        0
102
RTVSPost2010PropOp40
 70
     0
102
RTVSPost2010Prop41ColorIndex
 90
      178
102
RTVSPost2010Prop41ColorRGB
 90
        0
102
RTVSPost2010PropOp41
 70
     0
102
RTVSPost2010Prop42
 90
       50
102
RTVSPost2010PropOp42
 70
     0
102
RTVSPost2010Prop43
 90
        3
102
RTVSPost2010PropOp43
 70
     0
102
RTVSPost2010Prop44ColorIndex
 90
        5
102
RTVSPost2010Prop44ColorRGB
 90
      255
102
RTVSPost2010PropOp44
 70
     0
102
RTVSPost2010Prop45
280
     0
102
RTVSPost2010PropOp45
 70
     0
102
RTVSPost2010Prop46
 90
       50
102
RTVSPost2010PropOp46
 70
     0
102
RTVSPost2010Prop47
 90
       50
102
RTVSPost2010PropOp47
 70
     0
102
RTVSPost2010Prop48
 90
       50
102
RTVSPost2010PropOp48
 70
     0
102
RTVSPost2010Prop49
280
     0
102
RTVSPost2010PropOp49
 70
     0
102
RTVSPost2010Prop50
 90
       50
102
RTVSPost2010PropOp50
 70
     0
102
RTVSPost2010Prop51ColorIndex
 90
      256
102
RTVSPost2010Prop51ColorRGB
 90
-16777216
102
RTVSPost2010PropOp51
 70
     0
102
RTVSPost2010Prop52
140
1.0
102
RTVSPost2010PropOp52
 70
     0
102
RTVSPost2010Prop53
 90
        2
102
RTVSPost2010PropOp53
 70
     0
102
RTVSPost2010Prop54
  1
strokes_ogs.tif
102
RTVSPost2010PropOp54
 70
     0
102
RTVSPost2010Prop55
280
     0
102
RTVSPost2010PropOp55
 70
     0
102
RTVSPost2010Prop56
140
1.0
102
RTVSPost2010PropOp56
 70
     0
102
RTVSPost2010Prop57
140
1.0
102
RTVSPost2010PropOp57
 70
     0
  0
XRECORD
  5
1A6
102
{ACAD_REACTORS
330
1A5
102
}
330
1A5
100
AcDbXrecord
280
     1
102
RTVSPost2010Prop28
280
     0
102
RTVSPost2010PropOp28
 70
     1
102
RTVSPost2010Prop29
280
     1
102
RTVSPost2010PropOp29
 70
     1
102
RTVSPost2010Prop30
280
     1
102
RTVSPost2010PropOp30
 70
     1
102
RTVSPost2010Prop31
280
     0
102
RTVSPost2010PropOp31
 70
     1
102
RTVSPost2010Prop32
280
     0
102
RTVSPost2010PropOp32
 70
     1
102
RTVSPost2010Prop33
280
     0
102
RTVSPost2010PropOp33
 70
     1
102
RTVSPost2010Prop34
280
     0
102
RTVSPost2010PropOp34
 70
     1
102
RTVSPost2010Prop35
280
     0
102
RTVSPost2010PropOp35
 70
     1
102
RTVSPost2010Prop36
280
     0
102
RTVSPost2010PropOp36
 70
     1
102
RTVSPost2010Prop37
 90
       50
102
RTVSPost2010PropOp37
 70
     1
102
RTVSPost2010Prop38
140
0.0
102
RTVSPost2010PropOp38
 70
     1
102
RTVSPost2010Prop39
140
1.0
102
RTVSPost2010PropOp39
 70
     1
102
RTVSPost2010Prop40
 90
        0
102
RTVSPost2010PropOp40
 70
     1
102
RTVSPost2010Prop41ColorIndex
 90
      178
102
RTVSPost2010Prop41ColorRGB
 90
        0
102
RTVSPost2010PropOp41
 70
     1
102
RTVSPost2010Prop42
 90
       50
102
RTVSPost2010PropOp42
 70
     1
102
RTVSPost2010Prop43
 90
        3
102
RTVSPost2010PropOp43
 70
     1
102
RTVSPost2010Prop44ColorIndex
 90
        5
102
RTVSPost2010Prop44ColorRGB
 90
      255
102
RTVSPost2010PropOp44
 70
     1
102
RTVSPost2010Prop45
280
     0
102
RTVSPost2010PropOp45
 70
     1
102
RTVSPost2010Prop46
 90
       50
102
RTVSPost2010PropOp46
 70
     1
102
RTVSPost2010Prop47
 90
       50
102
RTVSPost2010PropOp47
 70
     1
102
RTVSPost2010Prop48
 90
       50
102
RTVSPost2010PropOp48
 70
     1
102
RTVSPost2010Prop49
280
     0
102
RTVSPost2010PropOp49
 70
     1
102
RTVSPost2010Prop50
 90
       50
102
RTVSPost2010PropOp50
 70
     1
102
RTVSPost2010Prop51ColorIndex
 90
      256
102
RTVSPost2010Prop51ColorRGB
 90
-16777216
102
RTVSPost2010PropOp51
 70
     0
102
RTVSPost2010Prop52
140
1.0
102
RTVSPost2010PropOp52
 70
     0
102
RTVSPost2010Prop53
 90
        2
102
RTVSPost2010PropOp53
 70
     1
102
RTVSPost2010Prop54
  1
strokes_ogs.tif
102
RTVSPost2010PropOp54
 70
     1
102
RTVSPost2010Prop55
280
     0
102
RTVSPost2010PropOp55
 70
     1
102
RTVSPost2010Prop56
140
1.0
102
RTVSPost2010PropOp56
 70
     1
102
RTVSPost2010Prop57
140
1.0
102
RTVSPost2010PropOp57
 70
     1
  0
XRECORD
  5
1C4
102
{ACAD_REACTORS
330
1C3
102
}
330
1C3
100
AcDbXrecord
280
     1
102
RTVSPost2010Prop28
280
     0
102
RTVSPost2010PropOp28
 70
     1
102
RTVSPost2010Prop29
280
     1
102
RTVSPost2010PropOp29
 70
     1
102
RTVSPost2010Prop30
280
     1
102
RTVSPost2010PropOp30
 70
     1
102
RTVSPost2010Prop31
280
     0
102
RTVSPost2010PropOp31
 70
     1
102
RTVSPost2010Prop32
280
     0
102
RTVSPost2010PropOp32
 70
     1
102
RTVSPost2010Prop33
280
     0
102
RTVSPost2010PropOp33
 70
     1
102
RTVSPost2010Prop34
280
     0
102
RTVSPost2010PropOp34
 70
     1
102
RTVSPost2010Prop35
280
     0
102
RTVSPost2010PropOp35
 70
     1
102
RTVSPost2010Prop36
280
     0
102
RTVSPost2010PropOp36
 70
     1
102
RTVSPost2010Prop37
 90
       50
102
RTVSPost2010PropOp37
 70
     1
102
RTVSPost2010Prop38
140
0.0
102
RTVSPost2010PropOp38
 70
     1
102
RTVSPost2010Prop39
140
1.0
102
RTVSPost2010PropOp39
 70
     1
102
RTVSPost2010Prop40
 90
        0
102
RTVSPost2010PropOp40
 70
     1
102
RTVSPost2010Prop41ColorIndex
 90
      178
102
RTVSPost2010Prop41ColorRGB
 90
        0
102
RTVSPost2010PropOp41
 70
     1
102
RTVSPost2010Prop42
 90
       50
102
RTVSPost2010PropOp42
 70
     1
102
RTVSPost2010Prop43
 90
        3
102
RTVSPost2010PropOp43
 70
     1
102
RTVSPost2010Prop44ColorIndex
 90
        5
102
RTVSPost2010Prop44ColorRGB
 90
      255
102
RTVSPost2010PropOp44
 70
     1
102
RTVSPost2010Prop45
280
     0
102
RTVSPost2010PropOp45
 70
     1
102
RTVSPost2010Prop46
 90
       50
102
RTVSPost2010PropOp46
 70
     1
102
RTVSPost2010Prop47
 90
       50
102
RTVSPost2010PropOp47
 70
     1
102
RTVSPost2010Prop48
 90
       50
102
RTVSPost2010PropOp48
 70
     1
102
RTVSPost2010Prop49
280
     0
102
RTVSPost2010PropOp49
 70
     1
102
RTVSPost2010Prop50
 90
       50
102
RTVSPost2010PropOp50
 70
     1
102
RTVSPost2010Prop51ColorIndex
 90
      256
102
RTVSPost2010Prop51ColorRGB
 90
-16777216
102
RTVSPost2010PropOp51
 70
     0
102
RTVSPost2010Prop52
140
1.0
102
RTVSPost2010PropOp52
 70
     0
102
RTVSPost2010Prop53
 90
        2
102
RTVSPost2010PropOp53
 70
     1
102
RTVSPost2010Prop54
  1
strokes_ogs.tif
102
RTVSPost2010PropOp54
 70
     1
102
RTVSPost2010Prop55
280
     0
102
RTVSPost2010PropOp55
 70
     1
102
RTVSPost2010Prop56
140
1.0
102
RTVSPost2010PropOp56
 70
     1
102
RTVSPost2010Prop57
140
1.0
102
RTVSPost2010PropOp57
 70
     1
  0
XRECORD
  5
1C2
102
{ACAD_REACTORS
330
1C1
102
}
330
1C1
100
AcDbXrecord
280
     1
102
RTVSPost2010Prop28
280
     0
102
RTVSPost2010PropOp28
 70
     1
102
RTVSPost2010Prop29
280
     1
102
RTVSPost2010PropOp29
 70
     1
102
RTVSPost2010Prop30
280
     1
102
RTVSPost2010PropOp30
 70
     1
102
RTVSPost2010Prop31
280
     0
102
RTVSPost2010PropOp31
 70
     1
102
RTVSPost2010Prop32
280
     0
102
RTVSPost2010PropOp32
 70
     1
102
RTVSPost2010Prop33
280
     0
102
RTVSPost2010PropOp33
 70
     1
102
RTVSPost2010Prop34
280
     0
102
RTVSPost2010PropOp34
 70
     1
102
RTVSPost2010Prop35
280
     0
102
RTVSPost2010PropOp35
 70
     1
102
RTVSPost2010Prop36
280
     0
102
RTVSPost2010PropOp36
 70
     1
102
RTVSPost2010Prop37
 90
       50
102
RTVSPost2010PropOp37
 70
     1
102
RTVSPost2010Prop38
140
0.0
102
RTVSPost2010PropOp38
 70
     1
102
RTVSPost2010Prop39
140
1.0
102
RTVSPost2010PropOp39
 70
     1
102
RTVSPost2010Prop40
 90
        0
102
RTVSPost2010PropOp40
 70
     1
102
RTVSPost2010Prop41ColorIndex
 90
      178
102
RTVSPost2010Prop41ColorRGB
 90
        0
102
RTVSPost2010PropOp41
 70
     1
102
RTVSPost2010Prop42
 90
       50
102
RTVSPost2010PropOp42
 70
     1
102
RTVSPost2010Prop43
 90
        3
102
RTVSPost2010PropOp43
 70
     1
102
RTVSPost2010Prop44ColorIndex
 90
        5
102
RTVSPost2010Prop44ColorRGB
 90
      255
102
RTVSPost2010PropOp44
 70
     1
102
RTVSPost2010Prop45
280
     0
102
RTVSPost2010PropOp45
 70
     1
102
RTVSPost2010Prop46
 90
       50
102
RTVSPost2010PropOp46
 70
     1
102
RTVSPost2010Prop47
 90
       50
102
RTVSPost2010PropOp47
 70
     1
102
RTVSPost2010Prop48
 90
       50
102
RTVSPost2010PropOp48
 70
     1
102
RTVSPost2010Prop49
280
     0
102
RTVSPost2010PropOp49
 70
     1
102
RTVSPost2010Prop50
 90
       50
102
RTVSPost2010PropOp50
 70
     1
102
RTVSPost2010Prop51ColorIndex
 90
      256
102
RTVSPost2010Prop51ColorRGB
 90
-16777216
102
RTVSPost2010PropOp51
 70
     0
102
RTVSPost2010Prop52
140
1.0
102
RTVSPost2010PropOp52
 70
     0
102
RTVSPost2010Prop53
 90
        2
102
RTVSPost2010PropOp53
 70
     1
102
RTVSPost2010Prop54
  1
strokes_ogs.tif
102
RTVSPost2010PropOp54
 70
     1
102
RTVSPost2010Prop55
280
     0
102
RTVSPost2010PropOp55
 70
     1
102
RTVSPost2010Prop56
140
1.0
102
RTVSPost2010PropOp56
 70
     1
102
RTVSPost2010Prop57
140
1.0
102
RTVSPost2010PropOp57
 70
     1
  0
XRECORD
  5
1BC
102
{ACAD_REACTORS
330
1BB
102
}
330
1BB
100
AcDbXrecord
280
     1
102
RTVSPost2010Prop28
280
     0
102
RTVSPost2010PropOp28
 70
     1
102
RTVSPost2010Prop29
280
     1
102
RTVSPost2010PropOp29
 70
     1
102
RTVSPost2010Prop30
280
     1
102
RTVSPost2010PropOp30
 70
     1
102
RTVSPost2010Prop31
280
     0
102
RTVSPost2010PropOp31
 70
     1
102
RTVSPost2010Prop32
280
     0
102
RTVSPost2010PropOp32
 70
     1
102
RTVSPost2010Prop33
280
     0
102
RTVSPost2010PropOp33
 70
     1
102
RTVSPost2010Prop34
280
     0
102
RTVSPost2010PropOp34
 70
     1
102
RTVSPost2010Prop35
280
     0
102
RTVSPost2010PropOp35
 70
     1
102
RTVSPost2010Prop36
280
     0
102
RTVSPost2010PropOp36
 70
     1
102
RTVSPost2010Prop37
 90
       50
102
RTVSPost2010PropOp37
 70
     1
102
RTVSPost2010Prop38
140
0.0
102
RTVSPost2010PropOp38
 70
     1
102
RTVSPost2010Prop39
140
1.0
102
RTVSPost2010PropOp39
 70
     1
102
RTVSPost2010Prop40
 90
        0
102
RTVSPost2010PropOp40
 70
     1
102
RTVSPost2010Prop41ColorIndex
 90
      178
102
RTVSPost2010Prop41ColorRGB
 90
        0
102
RTVSPost2010PropOp41
 70
     1
102
RTVSPost2010Prop42
 90
       50
102
RTVSPost2010PropOp42
 70
     1
102
RTVSPost2010Prop43
 90
        3
102
RTVSPost2010PropOp43
 70
     1
102
RTVSPost2010Prop44ColorIndex
 90
        5
102
RTVSPost2010Prop44ColorRGB
 90
      255
102
RTVSPost2010PropOp44
 70
     1
102
RTVSPost2010Prop45
280
     0
102
RTVSPost2010PropOp45
 70
     1
102
RTVSPost2010Prop46
 90
       50
102
RTVSPost2010PropOp46
 70
     1
102
RTVSPost2010Prop47
 90
       50
102
RTVSPost2010PropOp47
 70
     1
102
RTVSPost2010Prop48
 90
       50
102
RTVSPost2010PropOp48
 70
     1
102
RTVSPost2010Prop49
280
     0
102
RTVSPost2010PropOp49
 70
     1
102
RTVSPost2010Prop50
 90
       50
102
RTVSPost2010PropOp50
 70
     1
102
RTVSPost2010Prop51ColorIndex
 90
      256
102
RTVSPost2010Prop51ColorRGB
 90
-16777216
102
RTVSPost2010PropOp51
 70
     0
102
RTVSPost2010Prop52
140
1.0
102
RTVSPost2010PropOp52
 70
     0
102
RTVSPost2010Prop53
 90
        2
102
RTVSPost2010PropOp53
 70
     1
102
RTVSPost2010Prop54
  1
strokes_ogs.tif
102
RTVSPost2010PropOp54
 70
     1
102
RTVSPost2010Prop55
280
     0
102
RTVSPost2010PropOp55
 70
     1
102
RTVSPost2010Prop56
140
1.0
102
RTVSPost2010PropOp56
 70
     1
102
RTVSPost2010Prop57
140
1.0
102
RTVSPost2010PropOp57
 70
     1
  0
XRECORD
  5
1BE
102
{ACAD_REACTORS
330
1BD
102
}
330
1BD
100
AcDbXrecord
280
     1
102
RTVSPost2010Prop28
280
     0
102
RTVSPost2010PropOp28
 70
     1
102
RTVSPost2010Prop29
280
     1
102
RTVSPost2010PropOp29
 70
     1
102
RTVSPost2010Prop30
280
     1
102
RTVSPost2010PropOp30
 70
     1
102
RTVSPost2010Prop31
280
     0
102
RTVSPost2010PropOp31
 70
     1
102
RTVSPost2010Prop32
280
     0
102
RTVSPost2010PropOp32
 70
     1
102
RTVSPost2010Prop33
280
     0
102
RTVSPost2010PropOp33
 70
     1
102
RTVSPost2010Prop34
280
     0
102
RTVSPost2010PropOp34
 70
     1
102
RTVSPost2010Prop35
280
     0
102
RTVSPost2010PropOp35
 70
     1
102
RTVSPost2010Prop36
280
     0
102
RTVSPost2010PropOp36
 70
     1
102
RTVSPost2010Prop37
 90
       50
102
RTVSPost2010PropOp37
 70
     1
102
RTVSPost2010Prop38
140
0.0
102
RTVSPost2010PropOp38
 70
     1
102
RTVSPost2010Prop39
140
1.0
102
RTVSPost2010PropOp39
 70
     1
102
RTVSPost2010Prop40
 90
        0
102
RTVSPost2010PropOp40
 70
     1
102
RTVSPost2010Prop41ColorIndex
 90
      178
102
RTVSPost2010Prop41ColorRGB
 90
        0
102
RTVSPost2010PropOp41
 70
     1
102
RTVSPost2010Prop42
 90
       50
102
RTVSPost2010PropOp42
 70
     1
102
RTVSPost2010Prop43
 90
        3
102
RTVSPost2010PropOp43
 70
     1
102
RTVSPost2010Prop44ColorIndex
 90
        5
102
RTVSPost2010Prop44ColorRGB
 90
      255
102
RTVSPost2010PropOp44
 70
     1
102
RTVSPost2010Prop45
280
     0
102
RTVSPost2010PropOp45
 70
     1
102
RTVSPost2010Prop46
 90
       50
102
RTVSPost2010PropOp46
 70
     1
102
RTVSPost2010Prop47
 90
       50
102
RTVSPost2010PropOp47
 70
     1
102
RTVSPost2010Prop48
 90
       50
102
RTVSPost2010PropOp48
 70
     1
102
RTVSPost2010Prop49
280
     0
102
RTVSPost2010PropOp49
 70
     1
102
RTVSPost2010Prop50
 90
       50
102
RTVSPost2010PropOp50
 70
     1
102
RTVSPost2010Prop51ColorIndex
 90
      256
102
RTVSPost2010Prop51ColorRGB
 90
-16777216
102
RTVSPost2010PropOp51
 70
     0
102
RTVSPost2010Prop52
140
1.0
102
RTVSPost2010PropOp52
 70
     0
102
RTVSPost2010Prop53
 90
        2
102
RTVSPost2010PropOp53
 70
     1
102
RTVSPost2010Prop54
  1
strokes_ogs.tif
102
RTVSPost2010PropOp54
 70
     1
102
RTVSPost2010Prop55
280
     0
102
RTVSPost2010PropOp55
 70
     1
102
RTVSPost2010Prop56
140
1.0
102
RTVSPost2010PropOp56
 70
     1
102
RTVSPost2010Prop57
140
1.0
102
RTVSPost2010PropOp57
 70
     1
  0
XRECORD
  5
1AE
102
{ACAD_REACTORS
330
1AD
102
}
330
1AD
100
AcDbXrecord
280
     1
102
RTVSPost2010Prop28
280
     0
102
RTVSPost2010PropOp28
 70
     1
102
RTVSPost2010Prop29
280
     1
102
RTVSPost2010PropOp29
 70
     1
102
RTVSPost2010Prop30
280
     1
102
RTVSPost2010PropOp30
 70
     1
102
RTVSPost2010Prop31
280
     0
102
RTVSPost2010PropOp31
 70
     1
102
RTVSPost2010Prop32
280
     0
102
RTVSPost2010PropOp32
 70
     1
102
RTVSPost2010Prop33
280
     0
102
RTVSPost2010PropOp33
 70
     1
102
RTVSPost2010Prop34
280
     0
102
RTVSPost2010PropOp34
 70
     1
102
RTVSPost2010Prop35
280
     0
102
RTVSPost2010PropOp35
 70
     1
102
RTVSPost2010Prop36
280
     0
102
RTVSPost2010PropOp36
 70
     1
102
RTVSPost2010Prop37
 90
       50
102
RTVSPost2010PropOp37
 70
     1
102
RTVSPost2010Prop38
140
0.0
102
RTVSPost2010PropOp38
 70
     1
102
RTVSPost2010Prop39
140
1.0
102
RTVSPost2010PropOp39
 70
     1
102
RTVSPost2010Prop40
 90
        0
102
RTVSPost2010PropOp40
 70
     1
102
RTVSPost2010Prop41ColorIndex
 90
      178
102
RTVSPost2010Prop41ColorRGB
 90
        0
102
RTVSPost2010PropOp41
 70
     1
102
RTVSPost2010Prop42
 90
       50
102
RTVSPost2010PropOp42
 70
     1
102
RTVSPost2010Prop43
 90
        3
102
RTVSPost2010PropOp43
 70
     1
102
RTVSPost2010Prop44ColorIndex
 90
        5
102
RTVSPost2010Prop44ColorRGB
 90
      255
102
RTVSPost2010PropOp44
 70
     1
102
RTVSPost2010Prop45
280
     0
102
RTVSPost2010PropOp45
 70
     1
102
RTVSPost2010Prop46
 90
       50
102
RTVSPost2010PropOp46
 70
     1
102
RTVSPost2010Prop47
 90
       50
102
RTVSPost2010PropOp47
 70
     1
102
RTVSPost2010Prop48
 90
       50
102
RTVSPost2010PropOp48
 70
     1
102
RTVSPost2010Prop49
280
     0
102
RTVSPost2010PropOp49
 70
     1
102
RTVSPost2010Prop50
 90
       50
102
RTVSPost2010PropOp50
 70
     1
102
RTVSPost2010Prop51ColorIndex
 90
      256
102
RTVSPost2010Prop51ColorRGB
 90
-16777216
102
RTVSPost2010PropOp51
 70
     0
102
RTVSPost2010Prop52
140
1.0
102
RTVSPost2010PropOp52
 70
     0
102
RTVSPost2010Prop53
 90
        2
102
RTVSPost2010PropOp53
 70
     1
102
RTVSPost2010Prop54
  1
strokes_ogs.tif
102
RTVSPost2010PropOp54
 70
     1
102
RTVSPost2010Prop55
280
     0
102
RTVSPost2010PropOp55
 70
     1
102
RTVSPost2010Prop56
140
1.0
102
RTVSPost2010PropOp56
 70
     1
102
RTVSPost2010Prop57
140
1.0
102
RTVSPost2010PropOp57
 70
     1
  0
XRECORD
  5
1A0
102
{ACAD_REACTORS
330
19F
102
}
330
19F
100
AcDbXrecord
280
     1
102
RTVSPost2010Prop28
280
     0
102
RTVSPost2010PropOp28
 70
     1
102
RTVSPost2010Prop29
280
     1
102
RTVSPost2010PropOp29
 70
     1
102
RTVSPost2010Prop30
280
     1
102
RTVSPost2010PropOp30
 70
     1
102
RTVSPost2010Prop31
280
     0
102
RTVSPost2010PropOp31
 70
     1
102
RTVSPost2010Prop32
280
     0
102
RTVSPost2010PropOp32
 70
     1
102
RTVSPost2010Prop33
280
     0
102
RTVSPost2010PropOp33
 70
     1
102
RTVSPost2010Prop34
280
     0
102
RTVSPost2010PropOp34
 70
     1
102
RTVSPost2010Prop35
280
     0
102
RTVSPost2010PropOp35
 70
     1
102
RTVSPost2010Prop36
280
     0
102
RTVSPost2010PropOp36
 70
     1
102
RTVSPost2010Prop37
 90
       50
102
RTVSPost2010PropOp37
 70
     1
102
RTVSPost2010Prop38
140
0.0
102
RTVSPost2010PropOp38
 70
     1
102
RTVSPost2010Prop39
140
1.0
102
RTVSPost2010PropOp39
 70
     1
102
RTVSPost2010Prop40
 90
        0
102
RTVSPost2010PropOp40
 70
     1
102
RTVSPost2010Prop41ColorIndex
 90
      178
102
RTVSPost2010Prop41ColorRGB
 90
        0
102
RTVSPost2010PropOp41
 70
     1
102
RTVSPost2010Prop42
 90
       50
102
RTVSPost2010PropOp42
 70
     1
102
RTVSPost2010Prop43
 90
        3
102
RTVSPost2010PropOp43
 70
     1
102
RTVSPost2010Prop44ColorIndex
 90
        5
102
RTVSPost2010Prop44ColorRGB
 90
      255
102
RTVSPost2010PropOp44
 70
     1
102
RTVSPost2010Prop45
280
     0
102
RTVSPost2010PropOp45
 70
     1
102
RTVSPost2010Prop46
 90
       50
102
RTVSPost2010PropOp46
 70
     1
102
RTVSPost2010Prop47
 90
       50
102
RTVSPost2010PropOp47
 70
     1
102
RTVSPost2010Prop48
 90
       50
102
RTVSPost2010PropOp48
 70
     1
102
RTVSPost2010Prop49
280
     0
102
RTVSPost2010PropOp49
 70
     1
102
RTVSPost2010Prop50
 90
       50
102
RTVSPost2010PropOp50
 70
     1
102
RTVSPost2010Prop51ColorIndex
 90
      256
102
RTVSPost2010Prop51ColorRGB
 90
-16777216
102
RTVSPost2010PropOp51
 70
     0
102
RTVSPost2010Prop52
140
1.0
102
RTVSPost2010PropOp52
 70
     0
102
RTVSPost2010Prop53
 90
        2
102
RTVSPost2010PropOp53
 70
     1
102
RTVSPost2010Prop54
  1
strokes_ogs.tif
102
RTVSPost2010PropOp54
 70
     1
102
RTVSPost2010Prop55
280
     0
102
RTVSPost2010PropOp55
 70
     1
102
RTVSPost2010Prop56
140
1.0
102
RTVSPost2010PropOp56
 70
     1
102
RTVSPost2010Prop57
140
1.0
102
RTVSPost2010PropOp57
 70
     1
  0
XRECORD
  5
1C0
102
{ACAD_REACTORS
330
1BF
102
}
330
1BF
100
AcDbXrecord
280
     1
102
RTVSPost2010Prop28
280
     0
102
RTVSPost2010PropOp28
 70
     1
102
RTVSPost2010Prop29
280
     1
102
RTVSPost2010PropOp29
 70
     1
102
RTVSPost2010Prop30
280
     1
102
RTVSPost2010PropOp30
 70
     1
102
RTVSPost2010Prop31
280
     0
102
RTVSPost2010PropOp31
 70
     1
102
RTVSPost2010Prop32
280
     0
102
RTVSPost2010PropOp32
 70
     1
102
RTVSPost2010Prop33
280
     0
102
RTVSPost2010PropOp33
 70
     1
102
RTVSPost2010Prop34
280
     0
102
RTVSPost2010PropOp34
 70
     1
102
RTVSPost2010Prop35
280
     0
102
RTVSPost2010PropOp35
 70
     1
102
RTVSPost2010Prop36
280
     0
102
RTVSPost2010PropOp36
 70
     1
102
RTVSPost2010Prop37
 90
       50
102
RTVSPost2010PropOp37
 70
     1
102
RTVSPost2010Prop38
140
0.0
102
RTVSPost2010PropOp38
 70
     1
102
RTVSPost2010Prop39
140
1.0
102
RTVSPost2010PropOp39
 70
     1
102
RTVSPost2010Prop40
 90
        0
102
RTVSPost2010PropOp40
 70
     1
102
RTVSPost2010Prop41ColorIndex
 90
      178
102
RTVSPost2010Prop41ColorRGB
 90
        0
102
RTVSPost2010PropOp41
 70
     1
102
RTVSPost2010Prop42
 90
       50
102
RTVSPost2010PropOp42
 70
     1
102
RTVSPost2010Prop43
 90
        3
102
RTVSPost2010PropOp43
 70
     1
102
RTVSPost2010Prop44ColorIndex
 90
        5
102
RTVSPost2010Prop44ColorRGB
 90
      255
102
RTVSPost2010PropOp44
 70
     1
102
RTVSPost2010Prop45
280
     0
102
RTVSPost2010PropOp45
 70
     1
102
RTVSPost2010Prop46
 90
       50
102
RTVSPost2010PropOp46
 70
     1
102
RTVSPost2010Prop47
 90
       50
102
RTVSPost2010PropOp47
 70
     1
102
RTVSPost2010Prop48
 90
       50
102
RTVSPost2010PropOp48
 70
     1
102
RTVSPost2010Prop49
280
     0
102
RTVSPost2010PropOp49
 70
     1
102
RTVSPost2010Prop50
 90
       50
102
RTVSPost2010PropOp50
 70
     1
102
RTVSPost2010Prop51ColorIndex
 90
      256
102
RTVSPost2010Prop51ColorRGB
 90
-16777216
102
RTVSPost2010PropOp51
 70
     0
102
RTVSPost2010Prop52
140
1.0
102
RTVSPost2010PropOp52
 70
     0
102
RTVSPost2010Prop53
 90
        2
102
RTVSPost2010PropOp53
 70
     1
102
RTVSPost2010Prop54
  1
strokes_ogs.tif
102
RTVSPost2010PropOp54
 70
     1
102
RTVSPost2010Prop55
280
     0
102
RTVSPost2010PropOp55
 70
     1
102
RTVSPost2010Prop56
140
1.0
102
RTVSPost2010PropOp56
 70
     1
102
RTVSPost2010Prop57
140
1.0
102
RTVSPost2010PropOp57
 70
     1
  0
ENDSEC
  0
EOF
