  0
SECTION
  2
HEADER
  9
$ACADVER
  1
AC1015
  9
$ACADMAINTVER
 70
     6
  9
$DWGCODEPAGE
  3
ANSI_1252
  9
$INSBASE
 10
0.0
 20
0.0
 30
0.0
  9
$EXTMIN
 10
1.000000000000000E+20
 20
1.000000000000000E+20
 30
1.000000000000000E+20
  9
$EXTMAX
 10
-1.000000000000000E+20
 20
-1.000000000000000E+20
 30
-1.000000000000000E+20
  9
$LIMMIN
 10
0.0
 20
0.0
  9
$LIMMAX
 10
12.0
 20
9.0
  9
$ORTHOMODE
 70
     0
  9
$REGENMODE
 70
     1
  9
$FILLMODE
 70
     1
  9
$QTEXTMODE
 70
     0
  9
$MIRRTEXT
 70
     1
  9
$LTSCALE
 40
1.0
  9
$ATTMODE
 70
     1
  9
$TEXTSIZE
 40
0.2
  9
$TRACEWID
 40
0.05
  9
$TEXTSTYLE
  7
Standard
  9
$CLAYER
  8
0
  9
$CELTYPE
  6
ByLayer
  9
$CECOLOR
 62
   256
  9
$CELTSCALE
 40
1.0
  9
$DISPSILH
 70
     0
  9
$DIMSCALE
 40
1.0
  9
$DIMASZ
 40
0.18
  9
$DIMEXO
 40
0.0625
  9
$DIMDLI
 40
0.38
  9
$DIMRND
 40
0.0
  9
$DIMDLE
 40
0.0
  9
$DIMEXE
 40
0.18
  9
$DIMTP
 40
0.0
  9
$DIMTM
 40
0.0
  9
$DIMTXT
 40
0.18
  9
$DIMCEN
 40
0.09
  9
$DIMTSZ
 40
0.0
  9
$DIMTOL
 70
     0
  9
$DIMLIM
 70
     0
  9
$DIMTIH
 70
     1
  9
$DIMTOH
 70
     1
  9
$DIMSE1
 70
     0
  9
$DIMSE2
 70
     0
  9
$DIMTAD
 70
     0
  9
$DIMZIN
 70
     0
  9
$DIMBLK
  1

  9
$DIMASO
 70
     1
  9
$DIMSHO
 70
     1
  9
$DIMPOST
  1

  9
$DIMAPOST
  1

  9
$DIMALT
 70
     0
  9
$DIMALTD
 70
     2
  9
$DIMALTF
 40
25.4
  9
$DIMLFAC
 40
1.0
  9
$DIMTOFL
 70
     0
  9
$DIMTVP
 40
0.0
  9
$DIMTIX
 70
     0
  9
$DIMSOXD
 70
     0
  9
$DIMSAH
 70
     0
  9
$DIMBLK1
  1

  9
$DIMBLK2
  1

  9
$DIMSTYLE
  2
Standard
  9
$DIMCLRD
 70
     0
  9
$DIMCLRE
 70
     0
  9
$DIMCLRT
 70
     0
  9
$DIMTFAC
 40
1.0
  9
$DIMGAP
 40
0.09
  9
$DIMJUST
 70
     0
  9
$DIMSD1
 70
     0
  9
$DIMSD2
 70
     0
  9
$DIMTOLJ
 70
     1
  9
$DIMTZIN
 70
     0
  9
$DIMALTZ
 70
     0
  9
$DIMALTTZ
 70
     0
  9
$DIMUPT
 70
     0
  9
$DIMDEC
 70
     4
  9
$DIMTDEC
 70
     4
  9
$DIMALTU
 70
     2
  9
$DIMALTTD
 70
     2
  9
$DIMTXSTY
  7
Standard
  9
$DIMAUNIT
 70
     0
  9
$DIMADEC
 70
     0
  9
$DIMALTRND
 40
0.0
  9
$DIMAZIN
 70
     0
  9
$DIMDSEP
 70
    46
  9
$DIMATFIT
 70
     3
  9
$DIMFRAC
 70
     0
  9
$DIMLDRBLK
  1

  9
$DIMLUNIT
 70
     2
  9
$DIMLWD
 70
    -2
  9
$DIMLWE
 70
    -2
  9
$DIMTMOVE
 70
     0
  9
$LUNITS
 70
     2
  9
$LUPREC
 70
     4
  9
$SKETCHINC
 40
0.1
  9
$FILLETRAD
 40
0.5
  9
$AUNITS
 70
     0
  9
$AUPREC
 70
     0
  9
$MENU
  1
.
  9
$ELEVATION
 40
0.0
  9
$PELEVATION
 40
0.0
  9
$THICKNESS
 40
0.0
  9
$LIMCHECK
 70
     0
  9
$CHAMFERA
 40
0.0
  9
$CHAMFERB
 40
0.0
  9
$CHAMFERC
 40
0.0
  9
$CHAMFERD
 40
0.0
  9
$SKPOLY
 70
     0
  9
$TDCREATE
 40
2459275.435668739
  9
$TDUCREATE
 40
2459275.394002072
  9
$TDUPDATE
 40
2459275.435669583
  9
$TDUUPDATE
 40
2459275.394002917
  9
$TDINDWG
 40
0.0000000116
  9
$TDUSRTIMER
 40
0.0000000116
  9
$USRTIMER
 70
     1
  9
$ANGBASE
 50
0.0
  9
$ANGDIR
 70
     0
  9
$PDMODE
 70
     0
  9
$PDSIZE
 40
0.0
  9
$PLINEWID
 40
0.0
  9
$SPLFRAME
 70
     0
  9
$SPLINETYPE
 70
     6
  9
$SPLINESEGS
 70
     8
  9
$HANDSEED
  5
327
  9
$SURFTAB1
 70
     6
  9
$SURFTAB2
 70
     6
  9
$SURFTYPE
 70
     6
  9
$SURFU
 70
     6
  9
$SURFV
 70
     6
  9
$UCSBASE
  2

  9
$UCSNAME
  2

  9
$UCSORG
 10
0.0
 20
0.0
 30
0.0
  9
$UCSXDIR
 10
1.0
 20
0.0
 30
0.0
  9
$UCSYDIR
 10
0.0
 20
1.0
 30
0.0
  9
$UCSORTHOREF
  2

  9
$UCSORTHOVIEW
 70
     0
  9
$UCSORGTOP
 10
0.0
 20
0.0
 30
0.0
  9
$UCSORGBOTTOM
 10
0.0
 20
0.0
 30
0.0
  9
$UCSORGLEFT
 10
0.0
 20
0.0
 30
0.0
  9
$UCSORGRIGHT
 10
0.0
 20
0.0
 30
0.0
  9
$UCSORGFRONT
 10
0.0
 20
0.0
 30
0.0
  9
$UCSORGBACK
 10
0.0
 20
0.0
 30
0.0
  9
$PUCSBASE
  2

  9
$PUCSNAME
  2

  9
$PUCSORG
 10
0.0
 20
0.0
 30
0.0
  9
$PUCSXDIR
 10
1.0
 20
0.0
 30
0.0
  9
$PUCSYDIR
 10
0.0
 20
1.0
 30
0.0
  9
$PUCSORTHOREF
  2

  9
$PUCSORTHOVIEW
 70
     0
  9
$PUCSORGTOP
 10
0.0
 20
0.0
 30
0.0
  9
$PUCSORGBOTTOM
 10
0.0
 20
0.0
 30
0.0
  9
$PUCSORGLEFT
 10
0.0
 20
0.0
 30
0.0
  9
$PUCSORGRIGHT
 10
0.0
 20
0.0
 30
0.0
  9
$PUCSORGFRONT
 10
0.0
 20
0.0
 30
0.0
  9
$PUCSORGBACK
 10
0.0
 20
0.0
 30
0.0
  9
$USERI1
 70
     0
  9
$USERI2
 70
     0
  9
$USERI3
 70
     0
  9
$USERI4
 70
     0
  9
$USERI5
 70
     0
  9
$USERR1
 40
0.0
  9
$USERR2
 40
0.0
  9
$USERR3
 40
0.0
  9
$USERR4
 40
0.0
  9
$USERR5
 40
0.0
  9
$WORLDVIEW
 70
     1
  9
$SHADEDGE
 70
     3
  9
$SHADEDIF
 70
    70
  9
$TILEMODE
 70
     0
  9
$MAXACTVP
 70
    64
  9
$PINSBASE
 10
0.0
 20
0.0
 30
0.0
  9
$PLIMCHECK
 70
     0
  9
$PEXTMIN
 10
1.000000000000000E+20
 20
1.000000000000000E+20
 30
1.000000000000000E+20
  9
$PEXTMAX
 10
-1.000000000000000E+20
 20
-1.000000000000000E+20
 30
-1.000000000000000E+20
  9
$PLIMMIN
 10
0.0
 20
0.0
  9
$PLIMMAX
 10
12.0
 20
9.0
  9
$UNITMODE
 70
     0
  9
$VISRETAIN
 70
     1
  9
$PLINEGEN
 70
     0
  9
$PSLTSCALE
 70
     0
  9
$TREEDEPTH
 70
  3020
  9
$CMLSTYLE
  2
Standard
  9
$CMLJUST
 70
     0
  9
$CMLSCALE
 40
1.0
  9
$PROXYGRAPHICS
 70
     1
  9
$MEASUREMENT
 70
     0
  9
$CELWEIGHT
370
    -1
  9
$ENDCAPS
280
     0
  9
$JOINSTYLE
280
     0
  9
$LWDISPLAY
290
     1
  9
$INSUNITS
 70
     6
  9
$HYPERLINKBASE
  1

  9
$STYLESHEET
  1

  9
$XEDIT
290
     1
  9
$CEPSNTYPE
380
     0
  9
$PSTYLEMODE
290
     1
  9
$FINGERPRINTGUID
  2
{b2b4e681-605f-864a-8f16-b7fc67cfab92}
  9
$VERSIONGUID
  2
{FAEB1C32-E019-11D5-929B-00C0DF256EC4}
  9
$EXTNAMES
290
     1
  9
$PSVPSCALE
 40
0.0
  9
$OLESTARTUP
290
     0
  0
ENDSEC
  0
SECTION
  2
CLASSES
  0
CLASS
  1
ACDBDICTIONARYWDFLT
  2
AcDbDictionaryWithDefault
  3
ObjectDBX Classes
 90
        0
280
     0
281
     0
  0
CLASS
  1
VISUALSTYLE
  2
AcDbVisualStyle
  3
ObjectDBX Classes
 90
     4095
280
     0
281
     0
  0
CLASS
  1
MATERIAL
  2
AcDbMaterial
  3
ObjectDBX Classes
 90
     1153
280
     0
281
     0
  0
CLASS
  1
SCALE
  2
AcDbScale
  3
ObjectDBX Classes
 90
     1153
280
     0
281
     0
  0
CLASS
  1
TABLESTYLE
  2
AcDbTableStyle
  3
ObjectDBX Classes
 90
     4095
280
     0
281
     0
  0
CLASS
  1
MLEADERSTYLE
  2
AcDbMLeaderStyle
  3
ACDB_MLEADERSTYLE_CLASS
 90
     4095
280
     0
281
     0
  0
CLASS
  1
SUN
  2
AcDbSun
  3
SCENEOE
 90
     1153
280
     0
281
     0
  0
CLASS
  1
WIPEOUT
  2
AcDbWipeout
  3
WipeOut|AutoCAD Express Tool|expresstools@autodesk.com
 90
      127
280
     0
281
     1
  0
CLASS
  1
SPATIAL_FILTER
  2
AcDbSpatialFilter
  3
ObjectDBX Classes
 90
        0
280
     0
281
     0
  0
CLASS
  1
DICTIONARYVAR
  2
AcDbDictionaryVar
  3
ObjectDBX Classes
 90
        0
280
     0
281
     0
  0
CLASS
  1
ACDBPLACEHOLDER
  2
AcDbPlaceHolder
  3
ObjectDBX Classes
 90
        0
280
     0
281
     0
  0
CLASS
  1
LAYOUT
  2
AcDbLayout
  3
ObjectDBX Classes
 90
        0
280
     0
281
     0
  0
ENDSEC
  0
SECTION
  2
TABLES
  0
TABLE
  2
VPORT
  5
8
102
{ACAD_XDICTIONARY
360
2E9
102
}
330
0
100
AcDbSymbolTable
 70
     1
  0
VPORT
  5
29
330
8
100
AcDbSymbolTableRecord
100
AcDbViewportTableRecord
  2
*Active
 70
     0
 10
0.0
 20
0.0
 11
1.0
 21
1.0
 12
10.42990654205607
 22
4.5
 13
0.0
 23
0.0
 14
0.5
 24
0.5
 15
0.5
 25
0.5
 16
0.0
 26
0.0
 36
1.0
 17
0.0
 27
0.0
 37
0.0
 40
9.0
 41
1.972972972850329
 42
50.0
 43
0.0
 44
0.0
 50
0.0
 51
0.0
 71
     0
 72
   100
 73
     1
 74
     3
 75
     0
 76
     0
 77
     0
 78
     0
281
     0
 65
     1
110
0.0
120
0.0
130
0.0
111
1.0
121
0.0
131
0.0
112
0.0
122
1.0
132
0.0
 79
     0
146
0.0
  0
ENDTAB
  0
TABLE
  2
LTYPE
  5
5
330
0
100
AcDbSymbolTable
 70
     6
  0
LTYPE
  5
14
330
5
100
AcDbSymbolTableRecord
100
AcDbLinetypeTableRecord
  2
ByBlock
 70
     0
  3

 72
    65
 73
     0
 40
0.0
  0
LTYPE
  5
15
330
5
100
AcDbSymbolTableRecord
100
AcDbLinetypeTableRecord
  2
ByLayer
 70
     0
  3

 72
    65
 73
     0
 40
0.0
  0
LTYPE
  5
16
330
5
100
AcDbSymbolTableRecord
100
AcDbLinetypeTableRecord
  2
Continuous
 70
     0
  3
Solid line
 72
    65
 73
     0
 40
0.0
  0
LTYPE
  5
90
330
5
100
AcDbSymbolTableRecord
100
AcDbLinetypeTableRecord
  2
STRICHLINIE_S4
 70
     0
  3
- - - - - 
 72
    65
 73
     2
 40
0.01
 49
0.005
 74
     0
 49
-0.005
 74
     0
  0
LTYPE
  5
E9
330
5
100
AcDbSymbolTableRecord
100
AcDbLinetypeTableRecord
  2
STRICHPUNKT2_S5
 70
     0
  3
- - - - - 
 72
    65
 73
     4
 40
0.011
 49
0.005
 74
     0
 49
-0.003
 74
     0
 49
0.0
 74
     0
 49
-0.003
 74
     0
  0
LTYPE
  5
181
330
5
100
AcDbSymbolTableRecord
100
AcDbLinetypeTableRecord
  2
LINIE_34
 70
     0
  3
- - - - - 
 72
    65
 73
     2
 40
0.02
 49
0.0125
 74
     0
 49
-0.0075
 74
     0
  0
LTYPE
  5
1F4
330
5
100
AcDbSymbolTableRecord
100
AcDbLinetypeTableRecord
  2
GETRENNT2_S6
 70
     0
  3
- - - - - 
 72
    65
 73
     4
 40
0.0135
 49
0.0075
 74
     0
 49
-0.003
 74
     0
 49
0.0
 74
     0
 49
-0.003
 74
     0
  0
LTYPE
  5
260
330
5
100
AcDbSymbolTableRecord
100
AcDbLinetypeTableRecord
  2
Wipeout_Contour
 70
     0
  3
- - - - - 
 72
    65
 73
     2
 40
1.0
 49
0.0
 74
     0
 49
-1.0
 74
     0
  0
ENDTAB
  0
TABLE
  2
LAYER
  5
2
330
0
100
AcDbSymbolTable
 70
     6
  0
LAYER
  5
10
330
2
100
AcDbSymbolTableRecord
100
AcDbLayerTableRecord
  2
0
 70
     0
 62
     7
  6
Continuous
370
    -3
390
F
  0
LAYER
  5
70
330
2
100
AcDbSymbolTableRecord
100
AcDbLayerTableRecord
  2
FORMAT
 70
     1
 62
    -7
  6
Continuous
370
    -3
390
F
  0
LAYER
  5
78
330
2
100
AcDbSymbolTableRecord
100
AcDbLayerTableRecord
  2
A1------H2_______Schraffur_Filling_1_5
 70
     0
 62
     7
  6
Continuous
370
    -3
390
F
  0
LAYER
  5
92
330
2
100
AcDbSymbolTableRecord
100
AcDbLayerTableRecord
  2
A1E-----M5_______Rohbau
 70
     0
 62
     7
  6
Continuous
370
    -3
390
F
  0
LAYER
  5
9E
330
2
100
AcDbSymbolTableRecord
100
AcDbLayerTableRecord
  2
A1-----1H2_______Schraffur_1_5
 70
     0
 62
     7
  6
Continuous
370
    -3
390
F
  0
LAYER
  5
1AC
330
2
100
AcDbSymbolTableRecord
100
AcDbLayerTableRecord
  2
A1------T2_______Text_1_5
 70
     0
 62
     7
  6
Continuous
370
    -3
390
F
  0
ENDTAB
  0
TABLE
  2
STYLE
  5
3
330
0
100
AcDbSymbolTable
 70
     2
  0
STYLE
  5
11
330
3
100
AcDbSymbolTableRecord
100
AcDbTextStyleTableRecord
  2
Standard
 70
     0
 40
0.0
 41
1.0
 50
0.0
 71
     0
 42
0.2
  3
txt
  4

  0
STYLE
  5
23B
330
3
100
AcDbSymbolTableRecord
100
AcDbTextStyleTableRecord
  2
ERSTELLTER_STIL_1
 70
     0
 40
0.0
 41
1.0
 50
0.0
 71
     0
 42
0.2
  3

  4

1001
ACAD
1000
Arial
1071
       34
  0
ENDTAB
  0
TABLE
  2
VIEW
  5
6
330
0
100
AcDbSymbolTable
 70
     0
  0
ENDTAB
  0
TABLE
  2
UCS
  5
7
330
0
100
AcDbSymbolTable
 70
     0
  0
ENDTAB
  0
TABLE
  2
APPID
  5
9
330
0
100
AcDbSymbolTable
 70
     2
  0
APPID
  5
12
330
9
100
AcDbSymbolTableRecord
100
AcDbRegAppTableRecord
  2
ACAD
 70
     0
  0
APPID
  5
323
330
9
100
AcDbSymbolTableRecord
100
AcDbRegAppTableRecord
  2
ACAD_MLEADERVER
 70
     0
  0
ENDTAB
  0
TABLE
  2
DIMSTYLE
  5
A
330
0
100
AcDbSymbolTable
 70
     1
100
AcDbDimStyleTable
  0
DIMSTYLE
105
27
330
A
100
AcDbSymbolTableRecord
100
AcDbDimStyleTableRecord
  2
Standard
 70
     0
178
     0
340
11
  0
ENDTAB
  0
TABLE
  2
BLOCK_RECORD
  5
1
330
0
100
AcDbSymbolTable
 70
     2
  0
BLOCK_RECORD
  5
1F
330
1
100
AcDbSymbolTableRecord
100
AcDbBlockTableRecord
  2
*Model_Space
340
22
  0
BLOCK_RECORD
  5
1B
330
1
100
AcDbSymbolTableRecord
100
AcDbBlockTableRecord
  2
*Paper_Space
340
1E
  0
BLOCK_RECORD
  5
74
330
1
100
AcDbSymbolTableRecord
100
AcDbBlockTableRecord
  2
Zeichnung_1_1
340
0
102
{BLKREFS
331
287
102
}
  0
BLOCK_RECORD
  5
28B
330
1
100
AcDbSymbolTableRecord
100
AcDbBlockTableRecord
  2
02.21 27. Detail E.6_STORY_MARKER
340
0
  0
ENDTAB
  0
ENDSEC
  0
SECTION
  2
BLOCKS
  0
BLOCK
  5
20
330
1F
100
AcDbEntity
  8
0
100
AcDbBlockBegin
  2
*Model_Space
 70
     0
 10
0.0
 20
0.0
 30
0.0
  3
*Model_Space
  1

  0
ENDBLK
  5
21
330
1F
100
AcDbEntity
  8
0
100
AcDbBlockEnd
  0
BLOCK
  5
1C
330
1B
100
AcDbEntity
 67
     1
  8
0
100
AcDbBlockBegin
  2
*Paper_Space
 70
     0
 10
0.0
 20
0.0
 30
0.0
  3
*Paper_Space
  1

  0
ENDBLK
  5
1D
330
1B
100
AcDbEntity
 67
     1
  8
0
100
AcDbBlockEnd
  0
BLOCK
  5
75
330
74
100
AcDbEntity
  8
0
100
AcDbBlockBegin
  2
Zeichnung_1_1
 70
     0
 10
1693.024586529066
 20
1652.125871091721
 30
0.0
  3
Zeichnung_1_1
  1

  0
HATCH
  5
77
330
74
100
AcDbEntity
  8
A1------H2_______Schraffur_Filling_1_5
  6
Continuous
 62
   254
370
    35
100
AcDbHatch
 10
0.0
 20
0.0
 30
0.0
210
0.0
220
0.0
230
1.0
  2
SOLID
 70
     1
 71
     0
 91
        1
 92
        3
 72
     1
 73
     1
 93
        4
 10
170.3343519859644
 20
126.5029616460018
 42
0.0532456978833304
 10
177.0226262656129
 20
128.1192697746769
 42
0.0
 10
177.0226262656129
 20
142.6978347139989
 42
0.0
 10
170.3343519859644
 20
142.6978347139989
 42
0.0
 97
        0
 75
     0
 76
     1
 98
        0
  0
HATCH
  5
79
330
74
100
AcDbEntity
  8
A1------H2_______Schraffur_Filling_1_5
  6
Continuous
 62
     8
370
     0
100
AcDbHatch
 10
0.0
 20
0.0
 30
0.0
210
0.0
220
0.0
230
1.0
  2
SOLID
 70
     1
 71
     0
 91
        1
 92
        3
 72
     0
 73
     1
 93
        6
 10
53.74784460953519
 20
140.8763287390491
 10
53.34784460953546
 20
140.8763287390491
 10
53.34784460953546
 20
90.89794167692511
 10
30.59256681950484
 20
90.89794167692511
 10
30.59256681950484
 20
90.49794167692538
 10
53.74784460953519
 20
90.49794167692538
 97
        0
 75
     0
 76
     1
 98
        0
  0
HATCH
  5
7A
330
74
100
AcDbEntity
  8
A1------H2_______Schraffur_Filling_1_5
  6
Continuous
 62
   254
370
    35
100
AcDbHatch
 10
0.0
 20
0.0
 30
0.0
210
0.0
220
0.0
230
1.0
  2
SOLID
 70
     1
 71
     0
 91
        1
 92
        3
 72
     0
 73
     1
 93
       17
 10
55.32939373833656
 20
67.99794167692563
 10
85.9478446095352
 20
67.99794167692563
 10
85.90192570404231
 20
129.1311446837182
 10
65.42124822176731
 20
129.1311446837182
 10
64.37145688393598
 20
128.3812937281241
 10
59.04784460953505
 20
128.3812937281241
 10
59.04784460953505
 20
123.8290114708331
 10
57.87858127683365
 20
123.8290114708331
 10
57.87858127683365
 20
136.4314159348383
 10
59.04784460953505
 20
136.4314159348383
 10
59.04784460953505
 20
131.8791336775473
 10
64.37145688393598
 20
131.8791336775473
 10
65.42124822176731
 20
131.1292827219532
 10
85.9478446095352
 20
131.1292827219532
 10
85.9478446095352
 20
155.7610157023113
 10
55.32939373833656
 20
155.7610157023113
 10
55.32939373833656
 20
106.430965083826
 97
        0
 75
     0
 76
     1
 98
        0
  0
HATCH
  5
7B
330
74
100
AcDbEntity
  8
A1------H2_______Schraffur_Filling_1_5
  6
Continuous
 62
     7
370
    13
100
AcDbHatch
 10
0.0
 20
0.0
 30
0.0
210
0.0
220
0.0
230
1.0
  2
Dämmstoff__allgemein_hor_0A
 70
     0
 71
     0
 91
        1
 92
        3
 72
     0
 73
     1
 93
        4
 10
55.32939373833656
 20
156.5611291333262
 10
85.9478446095352
 20
156.5611291333262
 10
85.9478446095352
 20
215.0580211015443
 10
55.32939373833656
 20
215.0580211015443
 97
        0
 75
     0
 76
     2
 52
0.0
 41
1.0
 77
     0
 78
     1
 53
0.0
 43
1693.024586529066
 44
1652.125871091721
 45
0.0
 46
4.0
 79
     0
 98
        0
  0
HATCH
  5
7C
330
74
100
AcDbEntity
  8
A1------H2_______Schraffur_Filling_1_5
  6
Continuous
 62
   255
370
     5
100
AcDbHatch
 10
0.0
 20
0.0
 30
0.0
210
0.0
220
0.0
230
1.0
  2
SOLID
 70
     1
 71
     0
 91
        1
 92
        3
 72
     0
 73
     1
 93
       78
 10
51.68181920575088
 20
133.1763288219672
 10
51.78181913489621
 20
133.0031236582923
 10
52.60143441335741
 20
133.4763288353946
 10
53.34784468328046
 20
133.4763288353946
 10
53.34784468328046
 20
141.8763287593769
 10
53.74784462585281
 20
142.2763287019495
 10
53.74784462585281
 20
135.1101064408866
 10
53.74784460953519
 20
133.9756750619903
 10
53.94784471013492
 20
133.9756750619903
 10
53.94784471013492
 20
135.1636962821003
 10
53.94784471013492
 20
148.1691490620769
 10
53.74784462585281
 20
148.1691490620769
 10
53.74784462585281
 20
142.5591714327452
 10
53.14784459899791
 20
141.9591714058905
 10
53.14784459899791
 20
137.6420142321228
 10
53.12691031867689
 20
137.6414659764897
 10
53.10603321423124
 20
137.6398230175233
 10
53.08527091352144
 20
137.6370894230725
 10
53.06467991444741
 20
137.6332731028433
 10
53.04431694090295
 20
137.6283844524497
 10
53.02423781281384
 20
137.6224368053964
 10
53.00449744614077
 20
137.6154464330788
 10
52.98514985287595
 20
137.6074323187917
 10
52.96624836703878
 20
137.5984168357038
 10
52.94784451471579
 20
137.5884243909091
 10
52.92998891802614
 20
137.5774823293912
 10
52.91273061714708
 20
137.5656209340248
 10
52.89611639234226
 20
137.5528725216102
 10
52.88019234589747
 20
137.5392721208459
 10
52.86500186820242
 20
137.5248567943548
 10
52.85058676770294
 20
137.5096663166591
 10
52.83698614094612
 20
137.4937422702149
 10
52.82423772853195
 20
137.4771282714011
 10
52.81237633316604
 20
137.4598697445306
 10
52.80143449763952
 20
137.442014147841
 10
52.79144205284436
 20
137.4236102955175
 10
52.78242634376551
 20
137.4047088096808
 10
52.77441245546966
 20
137.3853614424081
 10
52.76742208315177
 20
137.3656208497429
 10
52.7614742101068
 20
137.345541721654
 10
52.75658555971341
 20
137.3251787481091
 10
52.75276923948446
 20
137.3045879750272
 10
52.75003587102511
 20
137.2838254483255
 10
52.74839268606723
 20
137.2629485698715
 10
52.74784465642557
 20
137.2420140635586
 10
52.74839268606723
 20
137.2210797832374
 10
52.75003587102511
 20
137.2002026787922
 10
52.75276923948446
 20
137.1794403780817
 10
52.75658555971341
 20
137.1588493790081
 10
52.7614742101068
 20
137.1384866314554
 10
52.76742208315177
 20
137.1184072773748
 10
52.77441245546966
 20
137.098666910701
 10
52.78242634376551
 20
137.0793195434281
 10
52.79144205284436
 20
137.0604180575914
 10
52.80143449763952
 20
137.0420142052684
 10
52.81237633316604
 20
137.0241586085783
 10
52.82423772853195
 20
137.0069000817078
 10
52.83698614094612
 20
136.9902860828944
 10
52.85058676770294
 20
136.9743618104582
 10
52.86500186820242
 20
136.9591715587546
 10
52.88019234589747
 20
136.9447562322634
 10
52.89611639234226
 20
136.9311558314987
 10
52.91273061714708
 20
136.9184074190841
 10
52.92998891802614
 20
136.906546023718
 10
52.94784451471579
 20
136.8956039621998
 10
52.96624836703878
 20
136.8856115174051
 10
52.98514985287595
 20
136.8765960343175
 10
53.00449744614077
 20
136.8685819200304
 10
53.02423781281384
 20
136.8615915477125
 10
53.04431694090295
 20
136.8556439006592
 10
53.06467991444741
 20
136.8507550242739
 10
53.08527091352144
 20
136.8469389300364
 10
53.10603321423124
 20
136.8442053355856
 10
53.12691031867689
 20
136.8425623766192
 10
53.14784459899791
 20
136.8420141209861
 10
53.14784459899791
 20
135.5591714207629
 10
52.54784457214367
 20
134.9591713939085
 10
52.54784457214367
 20
133.6763286936851
 97
        0
 75
     0
 76
     1
 98
        0
  0
HATCH
  5
7D
330
74
100
AcDbEntity
  8
A1------H2_______Schraffur_Filling_1_5
  6
Continuous
 62
   252
370
     0
100
AcDbHatch
 10
0.0
 20
0.0
 30
0.0
210
0.0
220
0.0
230
1.0
  2
SOLID
 70
     1
 71
     0
 91
        2
 92
        3
 72
     0
 73
     1
 93
       78
 10
162.7767146259409
 20
134.0689589899216
 10
163.0404119398272
 20
133.6122213021773
 10
165.2017169447182
 20
134.8600515275145
 10
167.1699821716859
 20
134.8600515275145
 10
167.1699821716859
 20
157.010641388249
 10
168.2247720231649
 20
158.0654312397283
 10
168.2247720231649
 20
139.1682822406579
 10
168.2247719801364
 20
136.7622127518449
 10
168.7521672468719
 20
136.7622127518449
 10
168.7521672468717
 20
139.3095973125835
 10
168.7521672468717
 20
173.604651251803
 10
168.2247720231649
 20
173.604651251803
 10
168.2247720231649
 20
158.8112804518291
 10
166.6425869479789
 20
157.2290953766433
 10
166.6425869479789
 20
145.844859806898
 10
166.5873837739762
 20
145.8434140704958
 10
166.5323313713292
 20
145.8390816287631
 10
166.4775817032629
 20
145.8318732085164
 10
166.4232837533304
 20
145.8218096674524
 10
166.3695871010196
 20
145.8089184185449
 10
166.3166389420807
 20
145.7932346219131
 10
166.2645840885277
 20
145.7748011848199
 10
166.2135649686383
 20
145.753668165739
 10
166.1637222228862
 20
145.7298945621583
 10
166.1151917242725
 20
145.7035447349724
 10
166.0681069620607
 20
145.6746907922213
 10
166.0225972539751
 20
145.6434125890893
 10
165.9787859583983
 20
145.6097953441695
 10
165.9367946459096
 20
145.5739314272644
 10
165.896737735878
 20
145.5359185715852
 10
165.858725476133
 20
145.4958616615538
 10
165.8228609632941
 20
145.4538703490651
 10
165.7892437183739
 20
145.4100596494225
 10
165.7579655152419
 20
145.364549345403
 10
165.729112168425
 20
145.3174645831912
 10
165.702762341239
 20
145.2689340845772
 10
165.678988141724
 20
145.2190913388249
 10
165.6578557185779
 20
145.1680728148699
 10
165.6394222814848
 20
145.1160173653829
 10
165.6237378889185
 20
145.0630692064439
 10
165.610846640011
 20
145.0093725541328
 10
165.6007830989472
 20
144.9550752001347
 10
165.5935752746342
 20
144.900324936134
 10
165.5892422369676
 20
144.8452731294214
 10
165.5877970964999
 20
144.7900693594841
 10
165.5892422369676
 20
144.7348661854815
 10
165.5935752746342
 20
144.6798137828345
 10
165.6007830989472
 20
144.6250641147682
 10
165.610846640011
 20
144.5707661648359
 10
165.6237378889185
 20
144.5170701084588
 10
165.6394222814848
 20
144.464121353586
 10
165.6578557185779
 20
144.4120665000332
 10
165.678988141724
 20
144.3610479760777
 10
165.702762341239
 20
144.3112052303255
 10
165.729112168425
 20
144.2626747317119
 10
165.7579655152419
 20
144.2155899695001
 10
165.7892437183739
 20
144.1700796654803
 10
165.8228609632941
 20
144.1262689658376
 10
165.858725476133
 20
144.0842770574149
 10
165.896737735878
 20
144.0442207433175
 10
165.9367946459096
 20
144.0062078876383
 10
165.9787859583983
 20
143.9703439707334
 10
166.0225972539751
 20
143.9367267258134
 10
166.0681069620607
 20
143.9054485226816
 10
166.1151917242725
 20
143.8765945799303
 10
166.1637222228862
 20
143.8502447527443
 10
166.2135649686383
 20
143.8264711491637
 10
166.2645840885277
 20
143.8053381300832
 10
166.3166389420807
 20
143.78690469299
 10
166.3695871010196
 20
143.7712208963582
 10
166.4232837533304
 20
143.7583290515163
 10
166.4775817032629
 20
143.7482661063867
 10
166.5323313713292
 20
143.7410576861395
 10
166.5873837739762
 20
143.7367252444073
 10
166.6425869479789
 20
143.7352795080051
 10
166.6425869479789
 20
140.3524553692388
 10
165.060401872793
 20
138.770270294053
 10
165.060401872793
 20
135.3874461552869
 97
        0
 92
        2
 72
     0
 73
     1
 93
        4
 10
166.6425869479789
 20
135.3874461552869
 10
165.5877970964999
 20
135.3874461552869
 10
165.5877970964999
 20
138.5518163056587
 10
166.6425869479789
 20
139.6066061571381
 97
        0
 75
     0
 76
     1
 98
        0
  0
HATCH
  5
7E
330
74
100
AcDbEntity
  8
A1------H2_______Schraffur_Filling_1_5
  6
Continuous
 62
     8
370
     0
100
AcDbHatch
 10
0.0
 20
0.0
 30
0.0
210
0.0
220
0.0
230
1.0
  2
SOLID
 70
     1
 71
     0
 91
        1
 92
        3
 72
     0
 73
     1
 93
        5
 10
167.1699819772228
 20
154.3736663273605
 10
167.1699819772228
 20
126.4808044278432
 10
167.6973769786796
 20
126.4669941036991
 10
168.2247719801364
 20
126.4808044278432
 10
168.2247719801364
 20
154.3736663273605
 97
        0
 75
     0
 76
     1
 98
        0
  0
HATCH
  5
7F
330
74
100
AcDbEntity
  8
A1------H2_______Schraffur_Filling_1_5
  6
Continuous
 62
    21
370
    20
100
AcDbHatch
 10
0.0
 20
0.0
 30
0.0
210
0.0
220
0.0
230
1.0
  2
SOLID
 70
     1
 71
     0
 91
        1
 92
        3
 72
     0
 73
     1
 93
       38
 10
52.74784460953552
 20
135.1591714515237
 10
52.74784460953552
 20
215.0580211015443
 10
52.03143835953505
 20
215.0580211015443
 10
51.9918658087033
 20
214.7644247521912
 10
51.95409460953582
 20
214.6131968827942
 10
51.95409460953582
 20
214.4841929765442
 10
52.00565710953553
 20
190.4469223254252
 10
52.00565710953553
 20
188.3823715441752
 10
51.97987585953534
 20
187.0404770129255
 10
51.90253210953522
 20
186.0340317004254
 10
51.90253210953522
 20
184.7179184191756
 10
51.87655554703552
 20
183.5050277941754
 10
51.87655554703552
 20
182.1631332629254
 10
51.85077429703533
 20
180.8470199816752
 10
51.85077429703533
 20
179.9695785754252
 10
51.7992117970354
 20
178.8341293566755
 10
51.7992117970354
 20
176.4341293566754
 10
51.8249930470358
 20
175.5051254504256
 10
51.85077429703533
 20
174.6277817004256
 10
51.85077429703533
 20
172.3310043566755
 10
51.90253210953522
 20
171.0406723254254
 10
51.92831335953541
 20
169.7504379504251
 10
51.95352427770561
 20
168.4381332629254
 10
52.00565710953553
 20
167.2214340441756
 10
52.01669226578542
 20
165.6157279846602
 10
51.95409460953582
 20
164.4583061096603
 10
51.95409460953582
 20
162.0025443909103
 10
51.98534460953574
 20
161.0014701721603
 10
52.01669226578542
 20
159.7502006409104
 10
51.96971960953545
 20
158.2798881409104
 10
51.90712195328495
 20
157.0911186096602
 10
51.8446219532851
 20
155.7302787659103
 10
51.81327429703542
 20
154.5258842346602
 10
51.81327429703542
 20
134.2438617294113
 10
51.83357801544042
 20
133.797644250701
 10
51.96633572277887
 20
133.3405944267441
 10
52.5478446095351
 20
133.676328739049
 10
52.5478446095351
 20
134.9591714515237
 97
        0
 75
     0
 76
     1
 98
        0
  0
HATCH
  5
80
330
74
100
AcDbEntity
  8
A1------H2_______Schraffur_Filling_1_5
  6
Continuous
 62
   254
370
    35
100
AcDbHatch
 10
0.0
 20
0.0
 30
0.0
210
0.0
220
0.0
230
1.0
  2
SOLID
 70
     1
 71
     0
 91
        1
 92
        3
 72
     0
 73
     1
 93
       22
 10
52.74784460953552
 20
135.1591714515237
 10
53.14784461449418
 20
135.5591714564823
 10
53.14784461449418
 20
136.8420141574873
 10
52.96624842192399
 20
136.8856115407986
 10
52.94784461201485
 20
136.8956040002349
 10
52.9299889971564
 20
136.9065459512568
 10
52.91273050241641
 20
136.9184073667598
 10
52.89611644977188
 20
136.9311557841748
 10
52.88019237313968
 20
136.9447562438135
 10
52.86500189505738
 20
136.9591714430096
 10
52.85058666503306
 20
136.9743619210915
 10
52.83016851114475
 20
136.9982708338269
 10
52.81237637247593
 20
137.0241585451082
 10
52.80143445228269
 20
137.0420141599666
 10
52.7914419928468
 20
137.0604179698758
 10
52.78242643166586
 20
137.0793195083364
 10
52.77441243166003
 20
137.098666983217
 10
52.76391863672059
 20
137.1283050614056
 10
52.7565855799319
 20
137.1588495018989
 10
52.75276927054296
 20
137.1794403887121
 10
52.75003584830706
 20
137.2002027753043
 10
52.74784460953552
 20
137.2280451462988
 97
        0
 75
     0
 76
     1
 98
        0
  0
HATCH
  5
81
330
74
100
AcDbEntity
  8
A1------H2_______Schraffur_Filling_1_5
  6
Continuous
 62
   254
370
    35
100
AcDbHatch
 10
0.0
 20
0.0
 30
0.0
210
0.0
220
0.0
230
1.0
  2
SOLID
 70
     1
 71
     0
 91
        1
 92
        3
 72
     0
 73
     1
 93
       30
 10
165.5892425258918
 20
144.7348661809029
 10
165.5877969728512
 20
139.2976654474403
 10
166.6425869757651
 20
140.3524554503541
 10
166.6425869757651
 20
143.7352796214271
 10
166.5873835323195
 20
143.7367251744679
 10
166.5323313976768
 20
143.7410578714291
 10
166.4775814659203
 20
143.7482658366882
 10
166.4232838027955
 20
143.7583293137141
 10
166.3695872344288
 20
143.7712207192146
 10
166.3166389393778
 20
143.7869047187437
 10
166.2645840452266
 20
143.8053383235529
 10
166.2135652308312
 20
143.8264710084116
 10
166.1637223352257
 20
143.850244850094
 10
166.1151919743102
 20
143.8765946861587
 10
166.0681071664418
 20
143.9054482935294
 10
166.0225969677886
 20
143.9367265864855
 10
165.9787861186559
 20
143.9703438333915
 10
165.9367947015367
 20
144.0062078917079
 10
165.8967378119831
 20
144.044220460547
 10
165.8587252431369
 20
144.084277350107
 10
165.8228611848156
 20
144.1262687672318
 10
165.7892439379121
 20
144.1700796163612
 10
165.7579656449597
 20
144.2155898150086
 10
165.729112037585
 20
144.2626746228826
 10
165.7027622015221
 20
144.3112049837942
 10
165.6789883598369
 20
144.3610478794046
 10
165.6578556749848
 20
144.4120666937834
 10
165.6394220701725
 20
144.4641215879385
 10
165.6237380706391
 20
144.5170698830032
 10
165.6108466651374
 20
144.5707664513764
 97
        0
 75
     0
 76
     1
 98
        0
  0
HATCH
  5
82
330
74
100
AcDbEntity
  8
A1------H2_______Schraffur_Filling_1_5
  6
Continuous
 62
   254
370
    35
100
AcDbHatch
 10
0.0
 20
0.0
 30
0.0
210
0.0
220
0.0
230
1.0
  2
SOLID
 70
     1
 71
     0
 91
        1
 92
        3
 72
     0
 73
     1
 93
       41
 10
165.5877969728512
 20
180.667770257062
 10
165.5877969728512
 20
173.604651251803
 10
165.5892425258918
 20
144.8452730677801
 10
165.5935752228523
 20
144.9003252024224
 10
165.6007831881114
 20
144.9550751341795
 10
165.6108466651369
 20
145.0093727973041
 10
165.6237380706387
 20
145.0630693656774
 10
165.6394220701698
 20
145.1160176607345
 10
165.6578556749751
 20
145.1680725548736
 10
165.6789883598358
 20
145.219091369275
 10
165.7027622015184
 20
145.2689342648805
 10
165.7291120375814
 20
145.3174646257935
 10
165.7579656449568
 20
145.3645494336691
 10
165.7892439379098
 20
145.4100596323176
 10
165.8228611848129
 20
145.453870481447
 10
165.8587252431323
 20
145.4958618985696
 10
165.8967378119678
 20
145.53591878812
 10
165.9367947015313
 20
145.5739313569693
 10
165.9787861186559
 20
145.6097954152906
 10
166.0225969677847
 20
145.6434126621935
 10
166.0681071664325
 20
145.6746909551465
 10
166.1151919743067
 20
145.7035445625212
 10
166.1637223352186
 20
145.7298943985841
 10
166.2135652308287
 20
145.7536682402693
 10
166.2645840452077
 20
145.7748009251214
 10
166.3166389393647
 20
145.793234529934
 10
166.3695872344258
 20
145.8089185294664
 10
166.4232838028019
 20
145.8218099349693
 10
166.477581465927
 20
145.8318734119948
 10
166.5323313976836
 20
145.8390813772539
 10
166.5873835323195
 20
145.8434140742142
 10
166.6425869757622
 20
145.844859627255
 10
166.6425869757651
 20
157.2290954969766
 10
168.2247719801362
 20
158.8112805013473
 10
168.2247719801362
 20
173.604651251803
 10
170.3343519859641
 20
173.604651251803
 10
170.3343519859641
 20
177.2407665539231
 10
170.3343519859641
 20
180.6169412887098
 10
169.1178503086315
 20
180.7126820470717
 10
167.6973769786796
 20
180.7498784502808
 10
166.2769036487277
 20
180.7126820470717
 97
        0
 75
     0
 76
     1
 98
        0
  0
HATCH
  5
83
330
74
100
AcDbEntity
  8
A1------H2_______Schraffur_Filling_1_5
  6
Continuous
 62
     7
370
    13
100
AcDbHatch
 10
0.0
 20
0.0
 30
0.0
210
0.0
220
0.0
230
1.0
  2
Dichtungsmasse_0001
 70
     0
 71
     0
 91
        1
 92
        3
 72
     0
 73
     1
 93
        3
 10
52.79144159532301
 20
137.4236100373429
 10
52.7478446095333
 20
148.3030055138284
 10
52.7478446095333
 20
137.2637988292846
 97
        0
 75
     0
 76
     2
 52
0.0
 41
1.0
 77
     0
 78
     2
 53
53.13010235415595
 43
1693.024586529066
 44
1656.125871091721
 45
-0.9545941546018389
 46
1.272792206135786
 79
     4
 49
0.0
 49
-1.060660171779821
 49
0.0
 49
-1.590990257669732
 53
105.2684716313825
 43
1696.024586529066
 44
1656.125871091721
 45
1.268585038060977
 46
0.6156362579861996
 79
     4
 49
0.0
 49
-0.857186052537228
 49
0.0
 49
-1.480594090746121
 98
        0
  0
HATCH
  5
84
330
74
100
AcDbEntity
  8
A1------H2_______Schraffur_Filling_1_5
  6
Continuous
 62
     7
370
    13
100
AcDbHatch
 10
0.0
 20
0.0
 30
0.0
210
0.0
220
0.0
230
1.0
  2
Beton_0001
 70
     0
 71
     0
 91
        1
 92
        3
 72
     0
 73
     1
 93
        4
 10
19.99999999999913
 20
25.01317338111342
 10
131.1755329784139
 20
25.01317338111342
 10
131.1755329784139
 20
66.79794167692555
 10
19.99999999999913
 20
66.79794167692555
 97
        0
 75
     0
 76
     2
 52
0.0
 41
1.0
 77
     0
 78
     2
 53
44.99999999999998
 43
1693.024586529066
 44
1652.125871091721
 45
-5.656854249492378
 46
5.656854249492382
 79
     0
 53
135.0000000000002
 43
1693.024586529066
 44
1652.125871091721
 45
5.656854249492363
 46
5.656854249492397
 79
     0
 98
        0
  0
HATCH
  5
85
330
74
100
AcDbEntity
  8
A1------H2_______Schraffur_Filling_1_5
  6
Continuous
 62
     7
370
    13
100
AcDbHatch
 10
0.0
 20
0.0
 30
0.0
210
0.0
220
0.0
230
1.0
  2
Zementstein_0001
 70
     0
 71
     0
 91
        1
 92
        3
 72
     0
 73
     1
 93
        4
 10
49.96857211865113
 20
98.13021370283614
 10
49.96857211865113
 20
106.1302137028359
 10
19.99999999999913
 20
106.1302137028359
 10
19.99999999999913
 20
98.13021370283614
 97
        0
 75
     0
 76
     2
 52
0.0
 41
1.0
 77
     0
 78
     2
 53
315.0
 43
1693.024586529066
 44
1652.125871091721
 45
4.242640687119284
 46
4.242640687119287
 79
     0
 53
315.0
 43
1694.438800091439
 44
1653.540084654094
 45
4.242640687119284
 46
4.242640687119287
 79
     0
 98
        0
  0
HATCH
  5
86
330
74
100
AcDbEntity
  8
A1------H2_______Schraffur_Filling_1_5
  6
Continuous
 62
     7
370
    13
100
AcDbHatch
 10
0.0
 20
0.0
 30
0.0
210
0.0
220
0.0
230
1.0
  2
Dichtungsmasse_0001
 70
     0
 71
     0
 91
        1
 92
        3
 72
     1
 73
     1
 93
       94
 10
162.9945919695805
 20
152.2929344278723
 42
0.0
 10
163.0432510410651
 20
151.9006485855443
 42
0.0
 10
163.0555841627443
 20
151.0373300679921
 42
0.0
 10
163.0351685678377
 20
150.1532061071116
 42
0.0
 10
163.0470639398278
 20
149.7368680874587
 42
0.0
 10
163.0742776094529
 20
149.3219358281064
 42
0.0
 10
163.1141231721886
 20
149.0036723442638
 42
0.0
 10
163.1344363453533
 20
148.8210860094736
 42
0.0
 10
163.0700819604438
 20
148.394470600183
 42
0.0
 10
163.1377441615614
 20
147.838847448992
 42
0.0
 10
163.1274056359449
 20
147.7304300699946
 42
0.0
 10
163.1141231721886
 20
147.5314070520126
 42
0.0
 10
163.0875619017422
 20
147.2264278604592
 42
0.0
 10
163.0875619017422
 20
146.8151962729882
 42
0.0
 10
163.0742776094529
 20
146.4836539824555
 42
0.0
 10
163.0742776094529
 20
144.9318968748303
 42
0.0
 10
163.0614815354763
 20
144.6634499442059
 42
0.0
 10
163.1375923933218
 20
144.0533855061852
 42
0.0
 10
163.1133423885951
 20
143.7604325762132
 42
0.0
 10
163.0918589543064
 20
143.2246888622251
 42
0.0
 10
163.0918589543064
 20
141.9602363461161
 42
0.0
 10
163.1133423885951
 20
141.4030091978395
 42
0.0
 10
163.1559216081748
 20
140.8029120932348
 42
0.0
 10
163.1575435169514
 20
140.7640521097895
 42
0.0
 10
163.1602131572221
 20
136.0740551165951
 42
0.0
 10
163.526977570503
 20
134.502123284274
 42
0.0
 10
165.0604019713944
 20
135.3874462749101
 42
0.0
 10
165.0604019713944
 20
138.7702704459832
 42
0.0
 10
165.5877969728512
 20
139.2976654474403
 42
0.0
 10
165.5877969728512
 20
180.667770257062
 42
0.0221803636943266
 10
163.1988884767521
 20
180.3744872454107
 42
0.0
 10
163.1988884767521
 20
179.4105086134796
 42
0.0
 10
163.1774032139304
 20
178.8962519908461
 42
0.0
 10
163.1774032139304
 20
178.0175413121034
 42
0.0
 10
163.1344363453533
 20
177.5030890364384
 42
0.0
 10
163.1743221358153
 20
176.5951785141213
 42
0.0
 10
163.1586918356791
 20
175.4697109632723
 42
0.0
 10
163.0918589543064
 20
174.8027937770262
 42
0.0
 10
163.1559216081748
 20
174.309923676432
 42
0.0
 10
163.1559216081748
 20
173.8384400978772
 42
0.0
 10
163.1988884767521
 20
173.2812129496006
 42
0.0
 10
163.2203719110408
 20
172.7882459367571
 42
0.0
 10
163.2203719110408
 20
172.0381469555308
 42
0.0
 10
163.1988884767521
 20
171.3952731497819
 42
0.0
 10
163.1774032139304
 20
170.8165643957498
 42
0.0
 10
163.1559216081748
 20
170.2593372474732
 42
0.0
 10
163.1559216081748
 20
169.0806283010859
 42
0.0
 10
163.1344363453533
 20
168.6306263282864
 42
0.0
 10
163.1133423885951
 20
168.3091427978203
 42
0.0
 10
163.1133423885951
 20
167.9233991319209
 42
0.0
 10
163.0918589543064
 20
167.6019174299879
 42
0.0
 10
163.0703736914849
 20
167.3232069436002
 42
0.0
 10
163.0703736914849
 20
166.5517196118018
 42
0.0
 10
163.1344363453533
 20
166.1017194675354
 42
0.0
 10
163.1344363453533
 20
165.7587506742477
 42
0.0
 10
163.1559216081748
 20
165.2230087887927
 42
0.0
 10
163.1774032139304
 20
164.8586553019986
 42
0.0
 10
163.1774032139304
 20
164.601523333616
 42
0.0
 10
163.1559216081748
 20
164.1514299341662
 42
0.0
 10
163.1344363453533
 20
163.9585562726838
 42
0.0
 10
163.1133423885951
 20
163.6370709136845
 42
0.0
 10
163.0918589543064
 20
163.2084591199903
 42
0.0
 10
163.0918589543064
 20
163.03697380908
 42
0.0
 10
163.0703736914849
 20
162.7155890193963
 42
0.0
 10
163.0874995409568
 20
162.2432044258224
 42
0.0
 10
163.1046288766225
 20
161.8406650376782
 42
0.0
 10
163.0703702052909
 20
161.0869742683867
 42
0.0
 10
163.0874995409568
 20
160.6244822054124
 42
0.0
 10
163.1046288766225
 20
160.2647661564325
 42
0.0
 10
163.1474522157868
 20
159.8879207717865
 42
0.0
 10
163.1988884767521
 20
159.4579696994585
 42
0.0
 10
163.1988884767521
 20
158.8578762519199
 42
0.0
 10
163.1344363453533
 20
158.5792608492487
 42
0.0
 10
163.1232198010506
 20
158.1295843326196
 42
0.0
 10
163.1645231760162
 20
157.7888314891536
 42
0.0
 10
163.1229664736837
 20
157.2343033910917
 42
0.0
 10
163.1098099879367
 20
157.0036516386801
 42
0.0
 10
163.1133423885951
 20
156.8004511411909
 42
0.0
 10
163.1344363453533
 20
156.6933228779628
 42
0.0
 10
163.1344363453533
 20
156.5647093519134
 42
0.0
 10
163.1141231721886
 20
156.3382455391087
 42
0.0
 10
163.1141231721886
 20
156.232091883973
 42
0.0
 10
163.1406862711682
 20
156.0861914068838
 42
0.0
 10
163.1672475416146
 20
155.9270121231047
 42
0.0
 10
163.1672475416146
 20
155.1802301007514
 42
0.0
 10
163.1559216081748
 20
155.0332818742499
 42
0.0
 10
163.1453618300649
 20
154.8542483790902
 42
0.0
 10
163.1141231721886
 20
154.6670523125917
 42
0.0
 10
163.0875619017422
 20
154.4814068420821
 42
0.0
 10
163.0875619017422
 20
153.6231409908804
 42
0.0
 10
163.0703736914849
 20
153.2973457795859
 42
0.0
 10
163.0703736914849
 20
152.9724575206623
 42
0.0
 10
163.0609969742296
 20
152.9162721869843
 42
0.0
 10
163.0344357037832
 20
152.6510361603184
 42
0.0
 97
        0
 75
     0
 76
     2
 52
0.0
 41
1.0
 77
     0
 78
     2
 53
53.13010235415595
 43
1693.024586529066
 44
1656.125871091721
 45
-0.9545941546018389
 46
1.272792206135786
 79
     4
 49
0.0
 49
-1.060660171779821
 49
0.0
 49
-1.590990257669732
 53
105.2684716313825
 43
1696.024586529066
 44
1656.125871091721
 45
1.268585038060977
 46
0.6156362579861996
 79
     4
 49
0.0
 49
-0.857186052537228
 49
0.0
 49
-1.480594090746121
 98
        0
  0
LWPOLYLINE
  5
87
330
74
100
AcDbEntity
  8
A1------H2_______Schraffur_Filling_1_5
  6
Continuous
 62
     7
 48
1000.0
370
    25
100
AcDbPolyline
 90
       94
 70
   129
 43
0.0
 10
162.9945919695805
 20
152.2929344278723
 10
163.0432510410651
 20
151.9006485855443
 10
163.0555841627443
 20
151.0373300679921
 10
163.0351685678377
 20
150.1532061071116
 10
163.0470639398278
 20
149.7368680874587
 10
163.0742776094529
 20
149.3219358281064
 10
163.1141231721886
 20
149.0036723442638
 10
163.1344363453533
 20
148.8210860094736
 10
163.0700819604438
 20
148.394470600183
 10
163.1377441615614
 20
147.838847448992
 10
163.1274056359449
 20
147.7304300699946
 10
163.1141231721886
 20
147.5314070520126
 10
163.0875619017422
 20
147.2264278604592
 10
163.0875619017422
 20
146.8151962729882
 10
163.0742776094529
 20
146.4836539824555
 10
163.0742776094529
 20
144.9318968748303
 10
163.0614815354763
 20
144.6634499442059
 10
163.1375923933218
 20
144.0533855061852
 10
163.1133423885951
 20
143.7604325762132
 10
163.0918589543064
 20
143.2246888622251
 10
163.0918589543064
 20
141.9602363461161
 10
163.1133423885951
 20
141.4030091978395
 10
163.1559216081748
 20
140.8029120932348
 10
163.1575435169514
 20
140.7640521097895
 10
163.1602131572221
 20
136.0740551165951
 10
163.526977570503
 20
134.502123284274
 10
165.0604019713944
 20
135.3874462749101
 10
165.0604019713944
 20
138.7702704459832
 10
165.5877969728512
 20
139.2976654474403
 10
165.5877969728512
 20
180.667770257062
 42
0.0221803636943266
 10
163.1988884767521
 20
180.3744872454107
 10
163.1988884767521
 20
179.4105086134796
 10
163.1774032139304
 20
178.8962519908461
 10
163.1774032139304
 20
178.0175413121034
 10
163.1344363453533
 20
177.5030890364384
 10
163.1743221358153
 20
176.5951785141213
 10
163.1586918356791
 20
175.4697109632723
 10
163.0918589543064
 20
174.8027937770262
 10
163.1559216081748
 20
174.309923676432
 10
163.1559216081748
 20
173.8384400978772
 10
163.1988884767521
 20
173.2812129496006
 10
163.2203719110408
 20
172.7882459367571
 10
163.2203719110408
 20
172.0381469555308
 10
163.1988884767521
 20
171.3952731497819
 10
163.1774032139304
 20
170.8165643957498
 10
163.1559216081748
 20
170.2593372474732
 10
163.1559216081748
 20
169.0806283010859
 10
163.1344363453533
 20
168.6306263282864
 10
163.1133423885951
 20
168.3091427978203
 10
163.1133423885951
 20
167.9233991319209
 10
163.0918589543064
 20
167.6019174299879
 10
163.0703736914849
 20
167.3232069436002
 10
163.0703736914849
 20
166.5517196118018
 10
163.1344363453533
 20
166.1017194675354
 10
163.1344363453533
 20
165.7587506742477
 10
163.1559216081748
 20
165.2230087887927
 10
163.1774032139304
 20
164.8586553019986
 10
163.1774032139304
 20
164.601523333616
 10
163.1559216081748
 20
164.1514299341662
 10
163.1344363453533
 20
163.9585562726838
 10
163.1133423885951
 20
163.6370709136845
 10
163.0918589543064
 20
163.2084591199903
 10
163.0918589543064
 20
163.03697380908
 10
163.0703736914849
 20
162.7155890193963
 10
163.0874995409568
 20
162.2432044258224
 10
163.1046288766225
 20
161.8406650376782
 10
163.0703702052909
 20
161.0869742683867
 10
163.0874995409568
 20
160.6244822054124
 10
163.1046288766225
 20
160.2647661564325
 10
163.1474522157868
 20
159.8879207717865
 10
163.1988884767521
 20
159.4579696994585
 10
163.1988884767521
 20
158.8578762519199
 10
163.1344363453533
 20
158.5792608492487
 10
163.1232198010506
 20
158.1295843326196
 10
163.1645231760162
 20
157.7888314891536
 10
163.1229664736837
 20
157.2343033910917
 10
163.1098099879367
 20
157.0036516386801
 10
163.1133423885951
 20
156.8004511411909
 10
163.1344363453533
 20
156.6933228779628
 10
163.1344363453533
 20
156.5647093519134
 10
163.1141231721886
 20
156.3382455391087
 10
163.1141231721886
 20
156.232091883973
 10
163.1406862711682
 20
156.0861914068838
 10
163.1672475416146
 20
155.9270121231047
 10
163.1672475416146
 20
155.1802301007514
 10
163.1559216081748
 20
155.0332818742499
 10
163.1453618300649
 20
154.8542483790902
 10
163.1141231721886
 20
154.6670523125917
 10
163.0875619017422
 20
154.4814068420821
 10
163.0875619017422
 20
153.6231409908804
 10
163.0703736914849
 20
153.2973457795859
 10
163.0703736914849
 20
152.9724575206623
 10
163.0609969742296
 20
152.9162721869843
 10
163.0344357037832
 20
152.6510361603184
  0
HATCH
  5
88
330
74
100
AcDbEntity
  8
A1------H2_______Schraffur_Filling_1_5
  6
Continuous
 62
     7
370
    13
100
AcDbHatch
 10
0.0
 20
0.0
 30
0.0
210
0.0
220
0.0
230
1.0
  2
Diagonal_0_5mm_0001
 70
     0
 71
     0
 91
        1
 92
        3
 72
     1
 73
     1
 93
       11
 10
122.7478446095354
 20
215.0580211015443
 42
0.0
 10
87.74784460953522
 20
215.0580211015443
 42
0.0
 10
87.74784460953522
 20
131.1292827219532
 42
0.0
 10
92.44794226578468
 20
131.1292827219537
 42
-0.0842210690212914
 10
100.8721093875469
 20
131.1103615403957
 42
0.0
 10
101.362617613469
 20
130.130213702836
 42
0.0
 10
100.8721093875469
 20
129.150065865276
 42
-0.0842210690221653
 10
92.44794226570075
 20
129.1311446837178
 42
0.0
 10
87.74784460953522
 20
129.1311446837182
 42
0.0
 10
87.74784460953522
 20
66.79794167692555
 42
0.0
 10
122.7478446095354
 20
66.79794167692555
 42
0.0
 97
        0
 75
     0
 76
     2
 52
0.0
 41
1.0
 77
     0
 78
     1
 53
44.99999999999997
 43
1693.024586529066
 44
1652.125871091721
 45
-3.535533905932736
 46
3.535533905932739
 79
     0
 98
        0
  0
HATCH
  5
89
330
74
100
AcDbEntity
  8
A1------H2_______Schraffur_Filling_1_5
  6
Continuous
 62
   254
370
    35
100
AcDbHatch
 10
0.0
 20
0.0
 30
0.0
210
0.0
220
0.0
230
1.0
  2
SOLID
 70
     1
 71
     0
 91
        1
 92
        3
 72
     0
 73
     1
 93
        6
 10
168.7521670648802
 20
136.7622130538673
 10
168.2247722188703
 20
136.7622130538673
 10
168.2247722188703
 20
126.7316624044377
 10
170.3343523042833
 20
126.7316624044377
 10
170.3343523042833
 20
173.604651029537
 10
168.7521670648802
 20
173.604651029537
 97
        0
 75
     0
 76
     1
 98
        0
  0
HATCH
  5
8A
330
74
100
AcDbEntity
  8
A1------H2_______Schraffur_Filling_1_5
  6
Continuous
 62
   254
370
    35
100
AcDbHatch
 10
0.0
 20
0.0
 30
0.0
210
0.0
220
0.0
230
1.0
  2
SOLID
 70
     1
 71
     0
 91
        1
 92
        3
 72
     1
 73
     1
 93
       29
 10
20.69284690463169
 20
98.13021370283614
 42
0.0
 10
19.99999999999913
 20
89.69794167692524
 42
0.0
 10
54.54784460953555
 20
89.69794167692524
 42
0.0
 10
54.54784468072438
 20
106.1302137028359
 42
0.0
 10
55.04784460953505
 20
106.1302137028359
 42
0.0
 10
55.04784460953505
 20
215.0580211015443
 42
0.0
 10
52.7478446095333
 20
215.0580211015443
 42
0.0
 10
52.7478446095333
 20
148.3030055138284
 42
0.0
 10
52.79144159532301
 20
137.4236100373429
 42
0.0
 10
53.14784460953526
 20
137.6420141639987
 42
0.0
 10
53.14784460953526
 20
141.9591714515238
 42
0.0
 10
53.74784427686596
 20
142.5591714515238
 42
0.0
 10
53.74784427686596
 20
148.1691490620769
 42
0.0
 10
53.94784460953539
 20
148.1691490620769
 42
0.0
 10
53.94784460953539
 20
133.9756750619903
 42
0.0
 10
53.74784460953519
 20
133.9756750619903
 42
0.0
 10
53.74784460953519
 20
90.49794167692538
 42
0.0
 10
30.59256681950484
 20
90.49794167692538
 42
0.0
 10
30.59256681950484
 20
90.89794167692511
 42
0.0
 10
31.02223461770248
 20
90.89794167692511
 42
-0.3319668270158103
 10
31.41236311211237
 20
90.89794167741472
 42
0.0
 10
46.02223521374893
 20
90.89794167692511
 42
-0.3319668254527555
 10
46.41236370666779
 20
90.89794167852716
 42
0.0
 10
53.34784460953546
 20
90.89794167692511
 42
0.0
 10
53.34784460953546
 20
97.04245212440044
 42
-0.8045369600668361
 10
53.34784460953546
 20
97.6993995479063
 42
0.0
 10
53.34784460953546
 20
104.8010696742512
 42
0.0
 10
49.96857211865113
 20
104.8010696742512
 42
0.0
 10
49.96857211865113
 20
98.13021370283614
 42
0.0
 97
        0
 75
     0
 76
     1
 98
        0
  0
HATCH
  5
8B
330
74
100
AcDbEntity
  8
A1------H2_______Schraffur_Filling_1_5
  6
Continuous
 62
   254
370
    35
100
AcDbHatch
 10
0.0
 20
0.0
 30
0.0
210
0.0
220
0.0
230
1.0
  2
SOLID
 70
     1
 71
     0
 91
        1
 92
        3
 72
     0
 73
     1
 93
        4
 10
53.34784460953546
 20
141.8763287390488
 10
53.34784460953546
 20
140.8763287390491
 10
53.74784460953519
 20
140.8763287390491
 10
53.74784460953519
 20
142.2763287390492
 97
        0
 75
     0
 76
     1
 98
        0
  0
HATCH
  5
8C
330
74
100
AcDbEntity
  8
A1------H2_______Schraffur_Filling_1_5
  6
Continuous
 62
   254
370
    35
100
AcDbHatch
 10
0.0
 20
0.0
 30
0.0
210
0.0
220
0.0
230
1.0
  2
SOLID
 70
     1
 71
     0
 91
        1
 92
        3
 72
     0
 73
     1
 93
        4
 10
86.34784502030213
 20
156.130213702836
 10
87.74784466967778
 20
156.130213702836
 10
87.74784466967778
 20
215.0580211015443
 10
86.34784502030213
 20
215.0580211015443
 97
        0
 75
     0
 76
     1
 98
        0
  0
HATCH
  5
8D
330
74
100
AcDbEntity
  8
A1------H2_______Schraffur_Filling_1_5
  6
Continuous
 62
   254
370
    13
100
AcDbHatch
 10
0.0
 20
0.0
 30
0.0
210
0.0
220
0.0
230
1.0
  2
SOLID
 70
     1
 71
     0
 91
        1
 92
        3
 72
     1
 73
     1
 93
       31
 10
65.32510870574471
 20
130.8292827219533
 42
0.0
 10
64.27531736791315
 20
131.5791336775474
 42
0.0
 10
58.74784460953486
 20
131.5791336775474
 42
0.0
 10
58.74784460953486
 20
136.1314159348383
 42
0.0
 10
58.42647991428041
 20
136.1314159348383
 42
0.0327068564135274
 10
57.87858127683365
 20
130.1302137028357
 42
0.0298797681321596
 10
58.42647991428041
 20
124.1290114708333
 42
0.0
 10
58.74784460953486
 20
124.1290114708333
 42
0.0
 10
58.74784460953486
 20
128.6812937281241
 42
0.0
 10
64.27531736791315
 20
128.6812937281241
 42
0.0
 10
65.32510870574471
 20
129.4311446837182
 42
0.0
 10
92.44794226570141
 20
129.4311446837182
 42
0.0
 10
93.62862083807988
 20
129.2601600651631
 42
0.0
 10
94.81613675514855
 20
129.1459515813924
 42
0.0
 10
96.00776137342515
 20
129.088781657718
 42
0.0
 10
97.20075660855665
 20
129.088781657718
 42
0.0
 10
98.39238122683614
 20
129.1459515813924
 42
0.0
 10
99.57989714390658
 20
129.2601600651631
 42
0.0
 10
100.7605757162853
 20
129.4311446837182
 42
0.0
 10
100.7605757162837
 20
130.0293663165644
 42
0.0
 10
100.935928098415
 20
130.0293663165644
 42
0.0
 10
100.935928098415
 20
130.2310610891071
 42
0.0
 10
100.7605757162831
 20
130.2310610891071
 42
0.0
 10
100.7605757162813
 20
130.8292827219539
 42
0.0
 10
99.57989714390392
 20
131.0002673405089
 42
0.0
 10
98.39238122683614
 20
131.1144758242791
 42
0.0
 10
97.20075660856264
 20
131.1716457479535
 42
0.0
 10
96.00776137342515
 20
131.1716457479535
 42
0.0
 10
94.81613675514633
 20
131.1144758242791
 42
0.0
 10
93.6286208380821
 20
131.0002673405089
 42
0.0
 10
92.44794226570075
 20
130.8292827219533
 42
0.0
 97
        0
 75
     0
 76
     1
 98
        0
  0
HATCH
  5
8E
330
74
100
AcDbEntity
  8
A1------H2_______Schraffur_Filling_1_5
  6
Continuous
 62
   254
370
    35
100
AcDbHatch
 10
0.0
 20
0.0
 30
0.0
210
0.0
220
0.0
230
1.0
  2
SOLID
 70
     1
 71
     0
 91
        1
 92
        3
 72
     0
 73
     1
 93
        4
 10
55.04784460953505
 20
123.8290114708331
 10
57.87858127683365
 20
123.8290114708331
 10
57.87858127683365
 20
136.4314159348383
 10
55.04784460953505
 20
136.4314159348383
 97
        0
 75
     0
 76
     1
 98
        0
  0
HATCH
  5
8F
330
74
100
AcDbEntity
  8
A1------H2_______Schraffur_Filling_1_5
  6
Continuous
 62
   254
370
    13
100
AcDbHatch
 10
0.0
 20
0.0
 30
0.0
210
0.0
220
0.0
230
1.0
  2
SOLID
 70
     1
 71
     0
 91
        1
 92
        3
 72
     1
 73
     1
 93
        6
 10
178.3171643295105
 20
128.6308863597299
 42
0.0499534388040115
 10
183.0598691901644
 20
131.2331884281246
 42
0.0
 10
179.0764632252675
 20
131.2331884281246
 42
0.0
 10
179.0764632252675
 20
141.9890148837854
 42
0.0
 10
178.3171643295105
 20
141.9890148837848
 42
0.0389697158898187
 10
177.1816190425537
 20
128.1780010522453
 42
0.0112621170681305
 97
        0
 75
     0
 76
     1
 98
        0
  0
LINE
  5
91
330
74
100
AcDbEntity
  8
A1E-----M5_______Rohbau
  6
STRICHLINIE_S4
 62
     7
 48
1000.0
370
    13
100
AcDbLine
 10
54.14784460953581
 20
90.0979416769252
 30
0.0
 11
54.14784460953581
 21
106.1302137028359
 31
0.0
  0
LINE
  5
93
330
74
100
AcDbEntity
  8
A1E-----M5_______Rohbau
  6
Continuous
 62
     7
 48
1000.0
370
    25
100
AcDbLine
 10
55.04784460953505
 20
67.59794167692546
 30
0.0
 11
55.04784460953505
 21
106.1302137028359
 31
0.0
  0
LINE
  5
94
330
74
100
AcDbEntity
  8
A1E-----M5_______Rohbau
  6
Continuous
 62
     7
 48
1000.0
370
    25
100
AcDbLine
 10
55.04784460953505
 20
89.19794167692552
 30
0.0
 11
19.99999999999913
 21
89.19794167692552
 31
0.0
  0
LINE
  5
95
330
74
100
AcDbEntity
  8
A1E-----M5_______Rohbau
  6
Continuous
 62
     7
 48
1000.0
370
    25
100
AcDbLine
 10
54.54784460953555
 20
89.69794167692524
 30
0.0
 11
54.54784460953555
 21
106.1302137028359
 31
0.0
  0
LINE
  5
96
330
74
100
AcDbEntity
  8
A1E-----M5_______Rohbau
  6
Continuous
 62
     7
 48
1000.0
370
    25
100
AcDbLine
 10
30.59256681950484
 20
90.49794167692538
 30
0.0
 11
53.74784460953519
 21
90.49794167692538
 31
0.0
  0
LINE
  5
97
330
74
100
AcDbEntity
  8
A1E-----M5_______Rohbau
  6
Continuous
 62
     7
 48
1000.0
370
    25
100
AcDbLine
 10
30.59256681950484
 20
90.89794167692511
 30
0.0
 11
53.34784460953546
 21
90.89794167692511
 31
0.0
  0
LINE
  5
98
330
74
100
AcDbEntity
  8
A1E-----M5_______Rohbau
  6
Continuous
 62
     7
 48
1000.0
370
    25
100
AcDbLine
 10
30.59256681950484
 20
90.49794167692538
 30
0.0
 11
30.59256681950484
 21
90.89794167692511
 31
0.0
  0
LINE
  5
99
330
74
100
AcDbEntity
  8
A1E-----M5_______Rohbau
  6
Continuous
 62
     7
 48
1000.0
370
    13
100
AcDbLine
 10
49.96857211865113
 20
106.1302137028359
 30
0.0
 11
49.96857211865113
 21
98.13021370283614
 31
0.0
  0
LINE
  5
9A
330
74
100
AcDbEntity
  8
A1E-----M5_______Rohbau
  6
Continuous
 62
     7
 48
1000.0
370
    13
100
AcDbLine
 10
49.96857211865113
 20
98.13021370283614
 30
0.0
 11
19.99999999999913
 21
98.13021370283614
 31
0.0
  0
LINE
  5
9B
330
74
100
AcDbEntity
  8
A1E-----M5_______Rohbau
  6
Continuous
 62
     7
 48
1000.0
370
    13
100
AcDbLine
 10
49.96857211865113
 20
104.8010696742512
 30
0.0
 11
53.34784460953546
 21
104.8010696742512
 31
0.0
  0
LINE
  5
9C
330
74
100
AcDbEntity
  8
A1E-----M5_______Rohbau
  6
Continuous
 62
     7
 48
1000.0
370
    30
100
AcDbLine
 10
86.34784460953493
 20
156.130213702836
 30
0.0
 11
86.34784460953493
 21
131.1292827219532
 31
0.0
  0
LINE
  5
9D
330
74
100
AcDbEntity
  8
A1-----1H2_______Schraffur_1_5
  6
Continuous
 62
     7
 48
1000.0
370
    13
100
AcDbLine
 10
85.90192570404231
 20
80.73891022641199
 30
0.0
 11
55.32939373833657
 21
80.73891022641199
 31
0.0
  0
LINE
  5
9F
330
74
100
AcDbEntity
  8
A1-----1H2_______Schraffur_1_5
  6
Continuous
 62
     7
 48
1000.0
370
    13
100
AcDbLine
 10
85.90192570404231
 20
101.7389110608771
 30
0.0
 11
55.32939373833657
 21
101.7389110608771
 31
0.0
  0
LINE
  5
A0
330
74
100
AcDbEntity
  8
A1-----1H2_______Schraffur_1_5
  6
Continuous
 62
     7
 48
1000.0
370
    13
100
AcDbLine
 10
85.90192570404231
 20
122.7389118953421
 30
0.0
 11
55.32939373833657
 21
122.7389118953421
 31
0.0
  0
LINE
  5
A1
330
74
100
AcDbEntity
  8
A1-----1H2_______Schraffur_1_5
  6
Continuous
 62
     7
 48
1000.0
370
    13
100
AcDbLine
 10
85.90192570404231
 20
143.7389127298072
 30
0.0
 11
55.32939373833657
 21
143.7389127298072
 31
0.0
  0
LINE
  5
A2
330
74
100
AcDbEntity
  8
A1-----1H2_______Schraffur_1_5
  6
Continuous
 62
     7
 48
1000.0
370
    13
100
AcDbLine
 10
55.32939373833657
 20
82.83891030985858
 30
0.0
 11
85.90192570404231
 21
82.83891030985858
 31
0.0
  0
LINE
  5
A3
330
74
100
AcDbEntity
  8
A1-----1H2_______Schraffur_1_5
  6
Continuous
 62
     7
 48
1000.0
370
    13
100
AcDbLine
 10
55.32939373833657
 20
103.8389111443239
 30
0.0
 11
85.90192570404231
 21
103.838911144323
 31
0.0
  0
LINE
  5
A4
330
74
100
AcDbEntity
  8
A1-----1H2_______Schraffur_1_5
  6
Continuous
 62
     7
 48
1000.0
370
    13
100
AcDbLine
 10
59.04784460953505
 20
124.8389119787887
 30
0.0
 11
85.90192570404231
 21
124.8389119787887
 31
0.0
  0
LINE
  5
A5
330
74
100
AcDbEntity
  8
A1-----1H2_______Schraffur_1_5
  6
Continuous
 62
     7
 48
1000.0
370
    13
100
AcDbLine
 10
55.32939373833657
 20
145.8389128132538
 30
0.0
 11
85.90192570404231
 21
145.8389128132538
 31
0.0
  0
LINE
  5
A6
330
74
100
AcDbEntity
  8
A1-----1H2_______Schraffur_1_5
  6
Continuous
 62
     7
 48
1000.0
370
    13
100
AcDbLine
 10
55.32939373833657
 20
84.93891039330515
 30
0.0
 11
85.90192570404231
 21
84.93891039330515
 31
0.0
  0
LINE
  5
A7
330
74
100
AcDbEntity
  8
A1-----1H2_______Schraffur_1_5
  6
Continuous
 62
     7
 48
1000.0
370
    13
100
AcDbLine
 10
55.32939373833657
 20
105.9389112277702
 30
0.0
 11
85.90192570404231
 21
105.9389112277702
 31
0.0
  0
LINE
  5
A8
330
74
100
AcDbEntity
  8
A1-----1H2_______Schraffur_1_5
  6
Continuous
 62
     7
 48
1000.0
370
    13
100
AcDbLine
 10
59.04784460953505
 20
126.9389120622353
 30
0.0
 11
85.90192570404231
 21
126.9389120622353
 31
0.0
  0
LINE
  5
A9
330
74
100
AcDbEntity
  8
A1-----1H2_______Schraffur_1_5
  6
Continuous
 62
     7
 48
1000.0
370
    13
100
AcDbLine
 10
55.32939373833657
 20
147.9389128967003
 30
0.0
 11
85.90192570404231
 21
147.9389128967003
 31
0.0
  0
LINE
  5
AA
330
74
100
AcDbEntity
  8
A1-----1H2_______Schraffur_1_5
  6
Continuous
 62
     7
 48
1000.0
370
    13
100
AcDbLine
 10
55.32939373833657
 20
87.03891047675172
 30
0.0
 11
85.90192570404231
 21
87.03891047675083
 31
0.0
  0
LINE
  5
AB
330
74
100
AcDbEntity
  8
A1-----1H2_______Schraffur_1_5
  6
Continuous
 62
     7
 48
1000.0
370
    13
100
AcDbLine
 10
55.32939373833657
 20
108.0389113112168
 30
0.0
 11
85.90192570404231
 21
108.0389113112168
 31
0.0
  0
LINE
  5
AC
330
74
100
AcDbEntity
  8
A1-----1H2_______Schraffur_1_5
  6
Continuous
 62
     7
 48
1000.0
370
    13
100
AcDbLine
 10
55.32939373833657
 20
150.0389129801465
 30
0.0
 11
85.90192570404231
 21
150.0389129801465
 31
0.0
  0
LINE
  5
AD
330
74
100
AcDbEntity
  8
A1-----1H2_______Schraffur_1_5
  6
Continuous
 62
     7
 48
1000.0
370
    13
100
AcDbLine
 10
85.90192570404231
 20
68.13890972573233
 30
0.0
 11
55.32939373833657
 21
68.13890972573321
 31
0.0
  0
LINE
  5
AE
330
74
100
AcDbEntity
  8
A1-----1H2_______Schraffur_1_5
  6
Continuous
 62
     7
 48
1000.0
370
    13
100
AcDbLine
 10
85.90192570404231
 20
89.1389105601974
 30
0.0
 11
55.32939373833657
 21
89.1389105601983
 31
0.0
  0
LINE
  5
AF
330
74
100
AcDbEntity
  8
A1-----1H2_______Schraffur_1_5
  6
Continuous
 62
     7
 48
1000.0
370
    13
100
AcDbLine
 10
85.90192570404231
 20
110.1389113946631
 30
0.0
 11
55.32939373833657
 21
110.1389113946631
 31
0.0
  0
LINE
  5
B0
330
74
100
AcDbEntity
  8
A1-----1H2_______Schraffur_1_5
  6
Continuous
 62
     7
 48
1000.0
370
    13
100
AcDbLine
 10
85.90192570404231
 20
152.1389130635931
 30
0.0
 11
55.32939373833657
 21
152.1389130635931
 31
0.0
  0
LINE
  5
B1
330
74
100
AcDbEntity
  8
A1-----1H2_______Schraffur_1_5
  6
Continuous
 62
     7
 48
1000.0
370
    13
100
AcDbLine
 10
55.32939373833657
 20
70.23890980917957
 30
0.0
 11
85.90192570404231
 21
70.23890980917957
 31
0.0
  0
LINE
  5
B2
330
74
100
AcDbEntity
  8
A1-----1H2_______Schraffur_1_5
  6
Continuous
 62
     7
 48
1000.0
370
    13
100
AcDbLine
 10
55.32939373833657
 20
91.23891064364464
 30
0.0
 11
85.90192570404231
 21
91.23891064364464
 31
0.0
  0
LINE
  5
B3
330
74
100
AcDbEntity
  8
A1-----1H2_______Schraffur_1_5
  6
Continuous
 62
     7
 48
1000.0
370
    13
100
AcDbLine
 10
55.32939373833657
 20
112.2389114781099
 30
0.0
 11
85.90192570404231
 21
112.2389114781088
 31
0.0
  0
LINE
  5
B4
330
74
100
AcDbEntity
  8
A1-----1H2_______Schraffur_1_5
  6
Continuous
 62
     7
 48
1000.0
370
    13
100
AcDbLine
 10
59.04784460953505
 20
133.2389123125746
 30
0.0
 11
85.90192570404231
 21
133.2389123125746
 31
0.0
  0
LINE
  5
B5
330
74
100
AcDbEntity
  8
A1-----1H2_______Schraffur_1_5
  6
Continuous
 62
     7
 48
1000.0
370
    13
100
AcDbLine
 10
55.32939373833657
 20
154.238913147039
 30
0.0
 11
85.90192570404231
 21
154.2389131470396
 31
0.0
  0
LINE
  5
B6
330
74
100
AcDbEntity
  8
A1-----1H2_______Schraffur_1_5
  6
Continuous
 62
     7
 48
1000.0
370
    13
100
AcDbLine
 10
85.90192570404231
 20
72.33890989262615
 30
0.0
 11
55.32939373833657
 21
72.33890989262615
 31
0.0
  0
LINE
  5
B7
330
74
100
AcDbEntity
  8
A1-----1H2_______Schraffur_1_5
  6
Continuous
 62
     7
 48
1000.0
370
    13
100
AcDbLine
 10
85.90192570404231
 20
93.33891072709122
 30
0.0
 11
55.32939373833657
 21
93.33891072709122
 31
0.0
  0
LINE
  5
B8
330
74
100
AcDbEntity
  8
A1-----1H2_______Schraffur_1_5
  6
Continuous
 62
     7
 48
1000.0
370
    13
100
AcDbLine
 10
85.90192570404231
 20
114.3389115615563
 30
0.0
 11
55.32939373833657
 21
114.3389115615563
 31
0.0
  0
LINE
  5
B9
330
74
100
AcDbEntity
  8
A1-----1H2_______Schraffur_1_5
  6
Continuous
 62
     7
 48
1000.0
370
    13
100
AcDbLine
 10
85.90192570404231
 20
135.3389123960211
 30
0.0
 11
59.04784460953505
 21
135.3389123960211
 31
0.0
  0
LINE
  5
BA
330
74
100
AcDbEntity
  8
A1-----1H2_______Schraffur_1_5
  6
Continuous
 62
     7
 48
1000.0
370
    13
100
AcDbLine
 10
55.32939373833657
 20
74.43890997607274
 30
0.0
 11
85.90192570404231
 21
74.43890997607274
 31
0.0
  0
LINE
  5
BB
330
74
100
AcDbEntity
  8
A1-----1H2_______Schraffur_1_5
  6
Continuous
 62
     7
 48
1000.0
370
    13
100
AcDbLine
 10
55.32939373833657
 20
95.43891081053802
 30
0.0
 11
85.90192570404231
 21
95.43891081053712
 31
0.0
  0
LINE
  5
BC
330
74
100
AcDbEntity
  8
A1-----1H2_______Schraffur_1_5
  6
Continuous
 62
     7
 48
1000.0
370
    13
100
AcDbLine
 10
55.32939373833657
 20
116.4389116450029
 30
0.0
 11
85.90192570404231
 21
116.4389116450029
 31
0.0
  0
LINE
  5
BD
330
74
100
AcDbEntity
  8
A1-----1H2_______Schraffur_1_5
  6
Continuous
 62
     7
 48
1000.0
370
    13
100
AcDbLine
 10
55.32939373833657
 20
137.4389124794677
 30
0.0
 11
85.90192570404231
 21
137.4389124794677
 31
0.0
  0
LINE
  5
BE
330
74
100
AcDbEntity
  8
A1-----1H2_______Schraffur_1_5
  6
Continuous
 62
     7
 48
1000.0
370
    13
100
AcDbLine
 10
85.90192570404231
 20
76.53891005951819
 30
0.0
 11
55.32939373833657
 21
76.53891005951907
 31
0.0
  0
LINE
  5
BF
330
74
100
AcDbEntity
  8
A1-----1H2_______Schraffur_1_5
  6
Continuous
 62
     7
 48
1000.0
370
    13
100
AcDbLine
 10
85.90192570404231
 20
97.53891089398327
 30
0.0
 11
55.32939373833657
 21
97.53891089398414
 31
0.0
  0
LINE
  5
C0
330
74
100
AcDbEntity
  8
A1-----1H2_______Schraffur_1_5
  6
Continuous
 62
     7
 48
1000.0
370
    13
100
AcDbLine
 10
85.90192570404231
 20
118.538911728449
 30
0.0
 11
55.32939373833657
 21
118.538911728449
 31
0.0
  0
LINE
  5
C1
330
74
100
AcDbEntity
  8
A1-----1H2_______Schraffur_1_5
  6
Continuous
 62
     7
 48
1000.0
370
    13
100
AcDbLine
 10
85.90192570404231
 20
139.538912562914
 30
0.0
 11
55.32939373833657
 21
139.538912562914
 31
0.0
  0
LINE
  5
C2
330
74
100
AcDbEntity
  8
A1-----1H2_______Schraffur_1_5
  6
Continuous
 62
     7
 48
1000.0
370
    13
100
AcDbLine
 10
85.90192570404231
 20
78.63891014296476
 30
0.0
 11
55.32939373833657
 21
78.63891014296564
 31
0.0
  0
LINE
  5
C3
330
74
100
AcDbEntity
  8
A1-----1H2_______Schraffur_1_5
  6
Continuous
 62
     7
 48
1000.0
370
    13
100
AcDbLine
 10
85.90192570404231
 20
99.63891097743092
 30
0.0
 11
55.32939373833657
 21
99.63891097743092
 31
0.0
  0
LINE
  5
C4
330
74
100
AcDbEntity
  8
A1-----1H2_______Schraffur_1_5
  6
Continuous
 62
     7
 48
1000.0
370
    13
100
AcDbLine
 10
85.90192570404231
 20
120.6389118118956
 30
0.0
 11
55.32939373833657
 21
120.6389118118956
 31
0.0
  0
LINE
  5
C5
330
74
100
AcDbEntity
  8
A1-----1H2_______Schraffur_1_5
  6
Continuous
 62
     7
 48
1000.0
370
    13
100
AcDbLine
 10
85.90192570404231
 20
141.6389126463606
 30
0.0
 11
55.32939373833657
 21
141.6389126463606
 31
0.0
  0
LINE
  5
C6
330
74
100
AcDbEntity
  8
A1-----1H2_______Schraffur_1_5
  6
Continuous
 62
     7
 48
1000.0
370
    13
100
AcDbLine
 10
22.12729850403106
 20
90.98692558247579
 30
0.0
 11
22.4272985159526
 21
91.08292558629063
 31
0.0
  0
LINE
  5
C7
330
74
100
AcDbEntity
  8
A1-----1H2_______Schraffur_1_5
  6
Continuous
 62
     7
 48
1000.0
370
    13
100
AcDbLine
 10
37.12729910007751
 20
90.98692558247579
 30
0.0
 11
37.42729911199905
 21
91.08292558629063
 31
0.0
  0
LINE
  5
C8
330
74
100
AcDbEntity
  8
A1-----1H2_______Schraffur_1_5
  6
Continuous
 62
     7
 48
1000.0
370
    13
100
AcDbLine
 10
52.12729969612396
 20
90.98692558247579
 30
0.0
 11
52.4272997080455
 21
91.08292558629063
 31
0.0
  0
LINE
  5
C9
330
74
100
AcDbEntity
  8
A1-----1H2_______Schraffur_1_5
  6
Continuous
 62
     7
 48
1000.0
370
    13
100
AcDbLine
 10
52.12729969612396
 20
102.986926059313
 30
0.0
 11
52.4272997080455
 21
103.0829260631279
 31
0.0
  0
LINE
  5
CA
330
74
100
AcDbEntity
  8
A1-----1H2_______Schraffur_1_5
  6
Continuous
 62
     7
 48
1000.0
370
    13
100
AcDbLine
 10
34.59229899934569
 20
95.81092577416439
 30
0.0
 11
34.60229899934597
 21
95.81092577416439
 31
0.0
  0
LINE
  5
CB
330
74
100
AcDbEntity
  8
A1-----1H2_______Schraffur_1_5
  6
Continuous
 62
     7
 48
1000.0
370
    13
100
AcDbLine
 10
49.59229959539213
 20
95.81092577416439
 30
0.0
 11
49.60229959539241
 21
95.81092577416439
 31
0.0
  0
LINE
  5
CC
330
74
100
AcDbEntity
  8
A1-----1H2_______Schraffur_1_5
  6
Continuous
 62
     7
 48
1000.0
370
    13
100
AcDbLine
 10
25.87729865304267
 20
95.4389257593824
 30
0.0
 11
26.02729865900355
 21
95.64292576748868
 31
0.0
  0
LINE
  5
CD
330
74
100
AcDbEntity
  8
A1-----1H2_______Schraffur_1_5
  6
Continuous
 62
     7
 48
1000.0
370
    13
100
AcDbLine
 10
40.87729924908912
 20
95.4389257593824
 30
0.0
 11
41.02729925505
 21
95.64292576748868
 31
0.0
  0
LINE
  5
CE
330
74
100
AcDbEntity
  8
A1-----1H2_______Schraffur_1_5
  6
Continuous
 62
     7
 48
1000.0
370
    13
100
AcDbLine
 10
25.87729865304267
 20
97.81492585379637
 30
0.0
 11
26.23729866734803
 21
97.8029258533193
 31
0.0
  0
LINE
  5
CF
330
74
100
AcDbEntity
  8
A1-----1H2_______Schraffur_1_5
  6
Continuous
 62
     7
 48
1000.0
370
    13
100
AcDbLine
 10
40.87729924908912
 20
97.81492585379637
 30
0.0
 11
41.23729926339448
 21
97.8029258533193
 31
0.0
  0
LINE
  5
D0
330
74
100
AcDbEntity
  8
A1-----1H2_______Schraffur_1_5
  6
Continuous
 62
     7
 48
1000.0
370
    13
100
AcDbLine
 10
30.87229885152665
 20
96.38692579705244
 30
0.0
 11
30.88229885152627
 21
96.38692579705244
 31
0.0
  0
LINE
  5
D1
330
74
100
AcDbEntity
  8
A1-----1H2_______Schraffur_1_5
  6
Continuous
 62
     7
 48
1000.0
370
    13
100
AcDbLine
 10
45.8722994475731
 20
96.38692579705244
 30
0.0
 11
45.88229944757272
 21
96.38692579705244
 31
0.0
  0
LINE
  5
D2
330
74
100
AcDbEntity
  8
A1-----1H2_______Schraffur_1_5
  6
Continuous
 62
     7
 48
1000.0
370
    13
100
AcDbLine
 10
31.14229886225561
 20
97.95892585951837
 30
0.0
 11
31.382298871792
 21
98.04292586285612
 31
0.0
  0
LINE
  5
D3
330
74
100
AcDbEntity
  8
A1-----1H2_______Schraffur_1_5
  6
Continuous
 62
     7
 48
1000.0
370
    13
100
AcDbLine
 10
46.14229945830206
 20
97.95892585951837
 30
0.0
 11
46.38229946783845
 21
98.04292586285612
 31
0.0
  0
LINE
  5
D4
330
74
100
AcDbEntity
  8
A1-----1H2_______Schraffur_1_5
  6
Continuous
 62
     7
 48
1000.0
370
    13
100
AcDbLine
 10
26.02729865900355
 20
91.17892559010521
 30
0.0
 11
26.22229866675196
 21
91.09492558676769
 31
0.0
  0
LINE
  5
D5
330
74
100
AcDbEntity
  8
A1-----1H2_______Schraffur_1_5
  6
Continuous
 62
     7
 48
1000.0
370
    13
100
AcDbLine
 10
41.02729925505
 20
91.17892559010521
 30
0.0
 11
41.22229926279842
 21
91.09492558676769
 31
0.0
  0
LINE
  5
D6
330
74
100
AcDbEntity
  8
A1-----1H2_______Schraffur_1_5
  6
Continuous
 62
     7
 48
1000.0
370
    13
100
AcDbLine
 10
52.65229971698581
 20
99.79492593247441
 30
0.0
 11
52.50229971102583
 21
99.59092592436858
 31
0.0
  0
LINE
  5
D7
330
74
100
AcDbEntity
  8
A1-----1H2_______Schraffur_1_5
  6
Continuous
 62
     7
 48
1000.0
370
    13
100
AcDbLine
 10
30.09229882053188
 20
92.35492563683523
 30
0.0
 11
30.34729883066478
 21
92.46292564112713
 31
0.0
  0
LINE
  5
D8
330
74
100
AcDbEntity
  8
A1-----1H2_______Schraffur_1_5
  6
Continuous
 62
     7
 48
1000.0
370
    13
100
AcDbLine
 10
45.09229941657832
 20
92.35492563683523
 30
0.0
 11
45.34729942671123
 21
92.46292564112713
 31
0.0
  0
LINE
  5
D9
330
74
100
AcDbEntity
  8
A1-----1H2_______Schraffur_1_5
  6
Continuous
 62
     7
 48
1000.0
370
    13
100
AcDbLine
 10
33.84229896954349
 20
93.45892568070435
 30
0.0
 11
33.91729897252382
 21
93.8189256950095
 31
0.0
  0
LINE
  5
DA
330
74
100
AcDbEntity
  8
A1-----1H2_______Schraffur_1_5
  6
Continuous
 62
     7
 48
1000.0
370
    13
100
AcDbLine
 10
48.84229956558994
 20
93.45892568070435
 30
0.0
 11
48.91729956857027
 21
93.8189256950095
 31
0.0
  0
LINE
  5
DB
330
74
100
AcDbEntity
  8
A1-----1H2_______Schraffur_1_5
  6
Continuous
 62
     7
 48
1000.0
370
    13
100
AcDbLine
 10
22.45729851714451
 20
92.77492565352462
 30
0.0
 11
22.63729852429708
 21
92.67892564970981
 31
0.0
  0
LINE
  5
DC
330
74
100
AcDbEntity
  8
A1-----1H2_______Schraffur_1_5
  6
Continuous
 62
     7
 48
1000.0
370
    13
100
AcDbLine
 10
37.45729911319096
 20
92.77492565352462
 30
0.0
 11
37.63729912034353
 21
92.67892564970981
 31
0.0
  0
LINE
  5
DD
330
74
100
AcDbEntity
  8
A1-----1H2_______Schraffur_1_5
  6
Continuous
 62
     7
 48
1000.0
370
    13
100
AcDbLine
 10
52.4572997092374
 20
92.77492565352462
 30
0.0
 11
52.63729971638998
 21
92.67892564970981
 31
0.0
  0
LINE
  5
DE
330
74
100
AcDbEntity
  8
A1-----1H2_______Schraffur_1_5
  6
Continuous
 62
     7
 48
1000.0
370
    13
100
AcDbLine
 10
52.4572997092374
 20
104.7749261303619
 30
0.0
 11
52.63729971638998
 21
104.6789261265471
 31
0.0
  0
LINE
  5
DF
330
74
100
AcDbEntity
  8
A1-----1H2_______Schraffur_1_5
  6
Continuous
 62
     7
 48
1000.0
370
    13
100
AcDbLine
 10
25.68229864529425
 20
94.04692570406925
 30
0.0
 11
25.66729864469819
 21
93.67492568928726
 31
0.0
  0
LINE
  5
E0
330
74
100
AcDbEntity
  8
A1-----1H2_______Schraffur_1_5
  6
Continuous
 62
     7
 48
1000.0
370
    13
100
AcDbLine
 10
40.6822992413407
 20
94.04692570406925
 30
0.0
 11
40.66729924074464
 21
93.67492568928726
 31
0.0
  0
LINE
  5
E1
330
74
100
AcDbEntity
  8
A1-----1H2_______Schraffur_1_5
  6
Continuous
 62
     7
 48
1000.0
370
    13
100
AcDbLine
 10
21.94729849687849
 20
95.45092575985949
 30
0.0
 11
22.33729851237621
 21
95.48692576129025
 31
0.0
  0
LINE
  5
E2
330
74
100
AcDbEntity
  8
A1-----1H2_______Schraffur_1_5
  6
Continuous
 62
     7
 48
1000.0
370
    13
100
AcDbLine
 10
36.94729909292494
 20
95.45092575985949
 30
0.0
 11
37.33729910842265
 21
95.48692576129025
 31
0.0
  0
LINE
  5
E3
330
74
100
AcDbEntity
  8
A1-----1H2_______Schraffur_1_5
  6
Continuous
 62
     7
 48
1000.0
370
    13
100
AcDbLine
 10
51.94729968897138
 20
95.45092575985949
 30
0.0
 11
52.3372997044691
 21
95.48692576129025
 31
0.0
  0
LINE
  5
E4
330
74
100
AcDbEntity
  8
A1-----1H2_______Schraffur_1_5
  6
Continuous
 62
     7
 48
1000.0
370
    13
100
AcDbLine
 10
24.31729859105425
 20
91.41892559964228
 30
0.0
 11
24.51229859880289
 21
91.61092560727147
 31
0.0
  0
LINE
  5
E5
330
74
100
AcDbEntity
  8
A1-----1H2_______Schraffur_1_5
  6
Continuous
 62
     7
 48
1000.0
370
    13
100
AcDbLine
 10
39.31729918710069
 20
91.41892559964228
 30
0.0
 11
39.51229919484933
 21
91.61092560727147
 31
0.0
  0
LINE
  5
E6
330
74
100
AcDbEntity
  8
A1E-----M5_______Rohbau
  6
Continuous
 62
     7
 48
1000.0
370
    25
100
AcDbLine
 10
53.74784460953519
 20
90.49794167692538
 30
0.0
 11
53.74784460953519
 21
140.8763287390491
 31
0.0
  0
LINE
  5
E7
330
74
100
AcDbEntity
  8
A1E-----M5_______Rohbau
  6
Continuous
 62
     7
 48
1000.0
370
    25
100
AcDbLine
 10
53.74784460953519
 20
140.8763287390491
 30
0.0
 11
53.34784460953546
 21
140.8763287390491
 31
0.0
  0
LINE
  5
E8
330
74
100
AcDbEntity
  8
A1E-----M5_______Rohbau
  6
Continuous
 62
     7
 48
1000.0
370
    25
100
AcDbLine
 10
53.34784460953546
 20
90.89794167692511
 30
0.0
 11
53.34784460953546
 21
140.8763287390491
 31
0.0
  0
LINE
  5
EA
330
74
100
AcDbEntity
  8
A1E-----M5_______Rohbau
  6
STRICHPUNKT2_S5
 62
     7
 48
1000.0
370
    25
100
AcDbLine
 10
86.70192570404178
 20
156.130213702836
 30
0.0
 11
86.70192570404178
 21
131.1292827219532
 31
0.0
  0
LINE
  5
EB
330
74
100
AcDbEntity
  8
A1E-----M5_______Rohbau
  6
STRICHPUNKT2_S5
 62
     7
 48
1000.0
370
    25
100
AcDbLine
 10
54.79597393377023
 20
89.44794167692537
 30
0.0
 11
54.79597393377023
 21
106.1302137028359
 31
0.0
  0
LINE
  5
EC
330
74
100
AcDbEntity
  8
A1E-----M5_______Rohbau
  6
Continuous
 62
     7
 48
1000.0
370
    13
100
AcDbLine
 10
53.74784460953519
 20
142.2763287390492
 30
0.0
 11
53.34784460953546
 21
141.876328739049
 31
0.0
  0
LINE
  5
ED
330
74
100
AcDbEntity
  8
A1E-----M5_______Rohbau
  6
Continuous
 62
     7
 48
1000.0
370
    13
100
AcDbLine
 10
53.94784460953539
 20
148.1691490620769
 30
0.0
 11
53.74784460953519
 21
148.1691490620769
 31
0.0
  0
LINE
  5
EE
330
74
100
AcDbEntity
  8
A1E-----M5_______Rohbau
  6
Continuous
 62
     7
 48
1000.0
370
    13
100
AcDbLine
 10
53.14784460953526
 20
135.276328739049
 30
0.0
 11
52.74784460953553
 21
134.8763287390489
 31
0.0
  0
LINE
  5
EF
330
74
100
AcDbEntity
  8
A1E-----M5_______Rohbau
  6
Continuous
 62
     7
 48
1000.0
370
    13
100
AcDbLine
 10
52.74784460953553
 20
134.8763287390489
 30
0.0
 11
52.74784460953553
 21
133.676328739049
 31
0.0
  0
LINE
  5
F0
330
74
100
AcDbEntity
  8
A1E-----M5_______Rohbau
  6
Continuous
 62
     7
 48
1000.0
370
    13
100
AcDbLine
 10
53.14784460953526
 20
135.276328739049
 30
0.0
 11
53.14784460953526
 21
133.676328739049
 31
0.0
  0
LINE
  5
F1
330
74
100
AcDbEntity
  8
A1E-----M5_______Rohbau
  6
Continuous
 62
     7
 48
1000.0
370
    13
100
AcDbLine
 10
53.14784460953526
 20
133.676328739049
 30
0.0
 11
52.74784460953553
 21
133.676328739049
 31
0.0
  0
LINE
  5
F2
330
74
100
AcDbEntity
  8
A1E-----M5_______Rohbau
  6
Continuous
 62
     7
 48
1000.0
370
    13
100
AcDbLine
 10
52.5478446095351
 20
133.676328739049
 30
0.0
 11
51.68181920575088
 21
133.176328739049
 31
0.0
  0
LINE
  5
F3
330
74
100
AcDbEntity
  8
A1E-----M5_______Rohbau
  6
Continuous
 62
     7
 48
1000.0
370
    13
100
AcDbLine
 10
53.14784460953526
 20
136.8420141639983
 30
0.0
 11
53.14784460953526
 21
135.5591714515239
 31
0.0
  0
LINE
  5
F4
330
74
100
AcDbEntity
  8
A1E-----M5_______Rohbau
  6
Continuous
 62
     7
 48
1000.0
370
    13
100
AcDbLine
 10
52.5478446095351
 20
134.9591714515237
 30
0.0
 11
52.5478446095351
 21
133.676328739049
 31
0.0
  0
LINE
  5
F5
330
74
100
AcDbEntity
  8
A1E-----M5_______Rohbau
  6
Continuous
 62
     7
 48
1000.0
370
    13
100
AcDbLine
 10
53.34784460953546
 20
141.876328739049
 30
0.0
 11
53.34784460953546
 21
133.476328739049
 31
0.0
  0
LINE
  5
F6
330
74
100
AcDbEntity
  8
A1E-----M5_______Rohbau
  6
Continuous
 62
     7
 48
1000.0
370
    13
100
AcDbLine
 10
51.78181920575064
 20
133.0031236582923
 30
0.0
 11
51.68181920575088
 21
133.176328739049
 31
0.0
  0
LINE
  5
F7
330
74
100
AcDbEntity
  8
A1E-----M5_______Rohbau
  6
Continuous
 62
     7
 48
1000.0
370
    13
100
AcDbLine
 10
53.34784460953546
 20
133.476328739049
 30
0.0
 11
52.60143444802124
 21
133.476328739049
 31
0.0
  0
LINE
  5
F8
330
74
100
AcDbEntity
  8
A1E-----M5_______Rohbau
  6
Continuous
 62
     7
 48
1000.0
370
    13
100
AcDbLine
 10
52.60143444802124
 20
133.476328739049
 30
0.0
 11
51.78181920575064
 21
133.0031236582923
 31
0.0
  0
LINE
  5
F9
330
74
100
AcDbEntity
  8
A1E-----M5_______Rohbau
  6
Continuous
 62
     7
 48
1000.0
370
    13
100
AcDbLine
 10
53.14784460953526
 20
141.9591714515238
 30
0.0
 11
53.14784460953526
 21
137.6420141639982
 31
0.0
  0
LINE
  5
FA
330
74
100
AcDbEntity
  8
A1E-----M5_______Rohbau
  6
Continuous
 62
     7
 48
1000.0
370
    13
100
AcDbLine
 10
53.74784460953519
 20
148.1691490620769
 30
0.0
 11
53.74784460953519
 21
142.5591714515238
 31
0.0
  0
LINE
  5
FB
330
74
100
AcDbEntity
  8
A1E-----M5_______Rohbau
  6
Continuous
 62
     7
 48
1000.0
370
    13
100
AcDbLine
 10
53.74784460953519
 20
142.5591714515238
 30
0.0
 11
53.14784460953526
 21
141.9591714515238
 31
0.0
  0
LINE
  5
FC
330
74
100
AcDbEntity
  8
A1E-----M5_______Rohbau
  6
Continuous
 62
     7
 48
1000.0
370
    13
100
AcDbLine
 10
53.94784460953539
 20
148.1691490620769
 30
0.0
 11
53.94784460953539
 21
133.9756750619903
 31
0.0
  0
LINE
  5
FD
330
74
100
AcDbEntity
  8
A1E-----M5_______Rohbau
  6
Continuous
 62
     7
 48
1000.0
370
    13
100
AcDbLine
 10
53.74784460953519
 20
142.2763287390492
 30
0.0
 11
53.74784460953519
 21
133.9756750619903
 31
0.0
  0
LINE
  5
FE
330
74
100
AcDbEntity
  8
A1E-----M5_______Rohbau
  6
Continuous
 62
     7
 48
1000.0
370
    13
100
AcDbLine
 10
51.96633572277887
 20
133.3405944267441
 30
0.0
 11
51.83357801544042
 21
133.797644250701
 31
0.0
  0
LINE
  5
FF
330
74
100
AcDbEntity
  8
A1E-----M5_______Rohbau
  6
Continuous
 62
     7
 48
1000.0
370
    60
100
AcDbLine
 10
122.7478446095353
 20
215.0580211015443
 30
0.0
 11
122.7478446095353
 21
66.79794167692555
 31
0.0
  0
LINE
  5
100
330
74
100
AcDbEntity
  8
A1E-----M5_______Rohbau
  6
Continuous
 62
     7
 48
1000.0
370
    60
100
AcDbLine
 10
87.74784460953522
 20
66.79794167692555
 30
0.0
 11
87.74784460953522
 21
215.0580211015443
 31
0.0
  0
LINE
  5
101
330
74
100
AcDbEntity
  8
A1E-----M5_______Rohbau
  6
Continuous
 62
     7
 48
1000.0
370
    30
100
AcDbLine
 10
55.04784460953505
 20
106.1302137028359
 30
0.0
 11
55.04784460953505
 21
215.0580211015443
 31
0.0
  0
LINE
  5
102
330
74
100
AcDbEntity
  8
A1E-----M5_______Rohbau
  6
Continuous
 62
     7
 48
1000.0
370
    30
100
AcDbLine
 10
86.34784460953493
 20
156.130213702836
 30
0.0
 11
86.34784460953493
 21
215.0580211015443
 31
0.0
  0
LINE
  5
103
330
74
100
AcDbEntity
  8
A1E-----M5_______Rohbau
  6
Continuous
 62
     7
 48
1000.0
370
    13
100
AcDbLine
 10
52.00565710953553
 20
167.2214340441756
 30
0.0
 11
51.95409460953582
 21
168.4084457629253
 31
0.0
  0
LINE
  5
104
330
74
100
AcDbEntity
  8
A1E-----M5_______Rohbau
  6
Continuous
 62
     7
 48
1000.0
370
    13
100
AcDbLine
 10
51.95409460953582
 20
168.4084457629253
 30
0.0
 11
51.92831335953541
 21
169.7504379504251
 31
0.0
  0
LINE
  5
105
330
74
100
AcDbEntity
  8
A1E-----M5_______Rohbau
  6
Continuous
 62
     7
 48
1000.0
370
    13
100
AcDbLine
 10
51.92831335953541
 20
169.7504379504251
 30
0.0
 11
51.90253210953522
 21
171.0406723254254
 31
0.0
  0
LINE
  5
106
330
74
100
AcDbEntity
  8
A1E-----M5_______Rohbau
  6
Continuous
 62
     7
 48
1000.0
370
    13
100
AcDbLine
 10
51.90253210953522
 20
171.0406723254254
 30
0.0
 11
51.85077429703533
 21
172.3310043566755
 31
0.0
  0
LINE
  5
107
330
74
100
AcDbEntity
  8
A1E-----M5_______Rohbau
  6
Continuous
 62
     7
 48
1000.0
370
    13
100
AcDbLine
 10
51.85077429703533
 20
172.3310043566755
 30
0.0
 11
51.85077429703533
 21
173.6213363879255
 31
0.0
  0
LINE
  5
108
330
74
100
AcDbEntity
  8
A1E-----M5_______Rohbau
  6
Continuous
 62
     7
 48
1000.0
370
    13
100
AcDbLine
 10
51.85077429703533
 20
173.6213363879255
 30
0.0
 11
51.85077429703533
 21
174.6277817004256
 31
0.0
  0
LINE
  5
109
330
74
100
AcDbEntity
  8
A1E-----M5_______Rohbau
  6
Continuous
 62
     7
 48
1000.0
370
    13
100
AcDbLine
 10
51.85077429703533
 20
174.6277817004256
 30
0.0
 11
51.8249930470358
 21
175.5051254504257
 31
0.0
  0
LINE
  5
10A
330
74
100
AcDbEntity
  8
A1E-----M5_______Rohbau
  6
Continuous
 62
     7
 48
1000.0
370
    13
100
AcDbLine
 10
51.8249930470358
 20
175.5051254504257
 30
0.0
 11
51.7992117970354
 21
176.4341293566754
 31
0.0
  0
LINE
  5
10B
330
74
100
AcDbEntity
  8
A1E-----M5_______Rohbau
  6
Continuous
 62
     7
 48
1000.0
370
    13
100
AcDbLine
 10
51.7992117970354
 20
176.4341293566754
 30
0.0
 11
51.7992117970354
 21
177.4405746691754
 31
0.0
  0
LINE
  5
10C
330
74
100
AcDbEntity
  8
A1E-----M5_______Rohbau
  6
Continuous
 62
     7
 48
1000.0
370
    13
100
AcDbLine
 10
51.7992117970354
 20
177.4405746691754
 30
0.0
 11
51.7992117970354
 21
178.8341293566755
 31
0.0
  0
LINE
  5
10D
330
74
100
AcDbEntity
  8
A1E-----M5_______Rohbau
  6
Continuous
 62
     7
 48
1000.0
370
    13
100
AcDbLine
 10
51.7992117970354
 20
178.8341293566755
 30
0.0
 11
51.85077429703533
 21
179.9695785754252
 31
0.0
  0
LINE
  5
10E
330
74
100
AcDbEntity
  8
A1E-----M5_______Rohbau
  6
Continuous
 62
     7
 48
1000.0
370
    13
100
AcDbLine
 10
51.85077429703533
 20
179.9695785754252
 30
0.0
 11
51.85077429703533
 21
180.8470199816756
 31
0.0
  0
LINE
  5
10F
330
74
100
AcDbEntity
  8
A1E-----M5_______Rohbau
  6
Continuous
 62
     7
 48
1000.0
370
    13
100
AcDbLine
 10
51.85077429703533
 20
180.8470199816756
 30
0.0
 11
51.87655554703552
 21
182.1631332629254
 31
0.0
  0
LINE
  5
110
330
74
100
AcDbEntity
  8
A1E-----M5_______Rohbau
  6
Continuous
 62
     7
 48
1000.0
370
    13
100
AcDbLine
 10
51.87655554703552
 20
182.1631332629254
 30
0.0
 11
51.87655554703552
 21
183.5050277941754
 31
0.0
  0
LINE
  5
111
330
74
100
AcDbEntity
  8
A1E-----M5_______Rohbau
  6
Continuous
 62
     7
 48
1000.0
370
    13
100
AcDbLine
 10
51.87655554703552
 20
183.5050277941754
 30
0.0
 11
51.90253210953522
 21
184.7179184191756
 31
0.0
  0
LINE
  5
112
330
74
100
AcDbEntity
  8
A1E-----M5_______Rohbau
  6
Continuous
 62
     7
 48
1000.0
370
    13
100
AcDbLine
 10
51.90253210953522
 20
184.7179184191756
 30
0.0
 11
51.90253210953522
 21
186.0340317004254
 31
0.0
  0
LINE
  5
113
330
74
100
AcDbEntity
  8
A1E-----M5_______Rohbau
  6
Continuous
 62
     7
 48
1000.0
370
    13
100
AcDbLine
 10
51.90253210953522
 20
186.0340317004254
 30
0.0
 11
51.97987585953534
 21
187.0404770129255
 31
0.0
  0
LINE
  5
114
330
74
100
AcDbEntity
  8
A1E-----M5_______Rohbau
  6
Continuous
 62
     7
 48
1000.0
370
    13
100
AcDbLine
 10
51.97987585953534
 20
187.0404770129255
 30
0.0
 11
52.00565710953553
 21
188.3823715441752
 31
0.0
  0
LINE
  5
115
330
74
100
AcDbEntity
  8
A1E-----M5_______Rohbau
  6
Continuous
 62
     7
 48
1000.0
370
    13
100
AcDbLine
 10
52.00565710953553
 20
188.3823715441752
 30
0.0
 11
52.00565710953553
 21
189.2855942004253
 31
0.0
  0
LINE
  5
116
330
74
100
AcDbEntity
  8
A1E-----M5_______Rohbau
  6
Continuous
 62
     7
 48
1000.0
370
    13
100
AcDbLine
 10
52.00565710953553
 20
189.2855942004253
 30
0.0
 11
52.00565710953553
 21
189.7759262316754
 31
0.0
  0
LINE
  5
117
330
74
100
AcDbEntity
  8
A1E-----M5_______Rohbau
  6
Continuous
 62
     7
 48
1000.0
370
    13
100
AcDbLine
 10
52.00565710953553
 20
189.7759262316754
 30
0.0
 11
52.00565710953553
 21
190.1113754504256
 31
0.0
  0
LINE
  5
118
330
74
100
AcDbEntity
  8
A1E-----M5_______Rohbau
  6
Continuous
 62
     7
 48
1000.0
370
    13
100
AcDbLine
 10
52.00565710953553
 20
190.1113754504256
 30
0.0
 11
52.00565710953553
 21
190.4469223254252
 31
0.0
  0
LINE
  5
119
330
74
100
AcDbEntity
  8
A1E-----M5_______Rohbau
  6
Continuous
 62
     7
 48
1000.0
370
    13
100
AcDbLine
 10
52.00565710953553
 20
190.4469223254252
 30
0.0
 11
52.00565710953553
 21
190.8598129504255
 31
0.0
  0
LINE
  5
11A
330
74
100
AcDbEntity
  8
A1E-----M5_______Rohbau
  6
Continuous
 62
     7
 48
1000.0
370
    13
100
AcDbLine
 10
52.00565710953553
 20
190.8598129504255
 30
0.0
 11
52.00565710953553
 21
191.1952621691753
 31
0.0
  0
LINE
  5
11B
330
74
100
AcDbEntity
  8
A1E-----M5_______Rohbau
  6
Continuous
 62
     7
 48
1000.0
370
    13
100
AcDbLine
 10
52.00565710953553
 20
191.1952621691753
 30
0.0
 11
51.97987585953534
 21
191.7630356066755
 31
0.0
  0
LINE
  5
11C
330
74
100
AcDbEntity
  8
A1E-----M5_______Rohbau
  6
Continuous
 62
     7
 48
1000.0
370
    13
100
AcDbLine
 10
51.97987585953534
 20
191.7630356066755
 30
0.0
 11
51.97987585953534
 21
192.1500473254254
 31
0.0
  0
LINE
  5
11D
330
74
100
AcDbEntity
  8
A1E-----M5_______Rohbau
  6
Continuous
 62
     7
 48
1000.0
370
    13
100
AcDbLine
 10
51.97987585953534
 20
192.1500473254254
 30
0.0
 11
51.95409460953582
 21
214.4841929765442
 31
0.0
  0
LINE
  5
11E
330
74
100
AcDbEntity
  8
A1E-----M5_______Rohbau
  6
Continuous
 62
     7
 48
1000.0
370
    13
100
AcDbLine
 10
51.95409460953582
 20
214.4841929765442
 30
0.0
 11
51.95409460953582
 21
214.6131968827943
 31
0.0
  0
LINE
  5
11F
330
74
100
AcDbEntity
  8
A1E-----M5_______Rohbau
  6
Continuous
 62
     7
 48
1000.0
370
    13
100
AcDbLine
 10
51.95409460953582
 20
214.6131968827943
 30
0.0
 11
52.00565710953553
 21
214.8196421952939
 31
0.0
  0
LINE
  5
120
330
74
100
AcDbEntity
  8
A1E-----M5_______Rohbau
  6
Continuous
 62
     7
 48
1000.0
370
    13
100
AcDbLine
 10
52.00565710953553
 20
214.8196421952939
 30
0.0
 11
52.03143835953594
 21
215.0260875077941
 31
0.0
  0
LINE
  5
121
330
74
100
AcDbEntity
  8
A1E-----M5_______Rohbau
  6
Continuous
 62
     7
 48
1000.0
370
    13
100
AcDbLine
 10
52.03143835953594
 20
215.0260875077941
 30
0.0
 11
52.03143835953594
 21
215.0580211015443
 31
0.0
  0
LINE
  5
122
330
74
100
AcDbEntity
  8
A1E-----M5_______Rohbau
  6
Continuous
 62
     7
 48
1000.0
370
    13
100
AcDbLine
 10
52.00565710953553
 20
167.2214340441756
 30
0.0
 11
52.01669226578542
 21
165.6157279846602
 31
0.0
  0
LINE
  5
123
330
74
100
AcDbEntity
  8
A1E-----M5_______Rohbau
  6
Continuous
 62
     7
 48
1000.0
370
    13
100
AcDbLine
 10
52.01669226578542
 20
165.6157279846602
 30
0.0
 11
51.95409460953582
 21
164.4583061096603
 31
0.0
  0
LINE
  5
124
330
74
100
AcDbEntity
  8
A1E-----M5_______Rohbau
  6
Continuous
 62
     7
 48
1000.0
370
    13
100
AcDbLine
 10
51.95409460953582
 20
164.4583061096603
 30
0.0
 11
51.95409460953582
 21
163.1287162659103
 31
0.0
  0
LINE
  5
125
330
74
100
AcDbEntity
  8
A1E-----M5_______Rohbau
  6
Continuous
 62
     7
 48
1000.0
370
    13
100
AcDbLine
 10
51.95409460953582
 20
163.1287162659103
 30
0.0
 11
51.95409460953582
 21
162.0025443909103
 31
0.0
  0
LINE
  5
126
330
74
100
AcDbEntity
  8
A1E-----M5_______Rohbau
  6
Continuous
 62
     7
 48
1000.0
370
    13
100
AcDbLine
 10
51.95409460953582
 20
162.0025443909103
 30
0.0
 11
51.98534460953574
 21
161.0014701721602
 31
0.0
  0
LINE
  5
127
330
74
100
AcDbEntity
  8
A1E-----M5_______Rohbau
  6
Continuous
 62
     7
 48
1000.0
370
    13
100
AcDbLine
 10
51.98534460953574
 20
161.0014701721602
 30
0.0
 11
52.01669226578542
 21
159.7502006409104
 31
0.0
  0
LINE
  5
128
330
74
100
AcDbEntity
  8
A1E-----M5_______Rohbau
  6
Continuous
 62
     7
 48
1000.0
370
    13
100
AcDbLine
 10
52.01669226578542
 20
159.7502006409104
 30
0.0
 11
51.96971960953545
 21
158.2798881409104
 31
0.0
  0
LINE
  5
129
330
74
100
AcDbEntity
  8
A1E-----M5_______Rohbau
  6
Continuous
 62
     7
 48
1000.0
370
    13
100
AcDbLine
 10
51.96971960953545
 20
158.2798881409104
 30
0.0
 11
51.90712195328494
 21
157.0911186096602
 31
0.0
  0
LINE
  5
12A
330
74
100
AcDbEntity
  8
A1E-----M5_______Rohbau
  6
Continuous
 62
     7
 48
1000.0
370
    13
100
AcDbLine
 10
51.90712195328494
 20
157.0911186096602
 30
0.0
 11
51.8446219532851
 21
155.7302787659103
 31
0.0
  0
LINE
  5
12B
330
74
100
AcDbEntity
  8
A1E-----M5_______Rohbau
  6
Continuous
 62
     7
 48
1000.0
370
    13
100
AcDbLine
 10
51.8446219532851
 20
155.7302787659103
 30
0.0
 11
51.81327429703542
 21
154.5258842346602
 31
0.0
  0
LINE
  5
12C
330
74
100
AcDbEntity
  8
A1E-----M5_______Rohbau
  6
Continuous
 62
     7
 48
1000.0
370
    13
100
AcDbLine
 10
51.81327429703542
 20
154.5258842346602
 30
0.0
 11
51.81327429703542
 21
134.2438617294113
 31
0.0
  0
LINE
  5
12D
330
74
100
AcDbEntity
  8
A1E-----M5_______Rohbau
  6
Continuous
 62
     7
 48
1000.0
370
    13
100
AcDbLine
 10
51.81327429703542
 20
134.2438617294113
 30
0.0
 11
51.83357801544042
 21
133.797644250701
 31
0.0
  0
LINE
  5
12E
330
74
100
AcDbEntity
  8
A1E-----M5_______Rohbau
  6
Continuous
 62
     7
 48
1000.0
370
    25
100
AcDbLine
 10
168.2247719801364
 20
154.3736663273605
 30
0.0
 11
167.1699819772228
 21
154.3736663273605
 31
0.0
  0
LINE
  5
12F
330
74
100
AcDbEntity
  8
A1E-----M5_______Rohbau
  6
Continuous
 62
     7
 48
1000.0
370
    25
100
AcDbLine
 10
168.2247719801362
 20
158.0654313375589
 30
0.0
 11
167.1699819772219
 21
157.010641334645
 31
0.0
  0
LINE
  5
130
330
74
100
AcDbEntity
  8
A1E-----M5_______Rohbau
  6
Continuous
 62
     7
 48
1000.0
370
    25
100
AcDbLine
 10
168.752166981593
 20
173.604651251803
 30
0.0
 11
168.2247719801362
 21
173.604651251803
 31
0.0
  0
LINE
  5
131
330
74
100
AcDbEntity
  8
A1E-----M5_______Rohbau
  6
Continuous
 62
     7
 48
1000.0
370
    25
100
AcDbLine
 10
166.6425869757651
 20
139.6066062865657
 30
0.0
 11
165.5877969728512
 21
138.5518162836519
 31
0.0
  0
LINE
  5
132
330
74
100
AcDbEntity
  8
A1E-----M5_______Rohbau
  6
Continuous
 62
     7
 48
1000.0
370
    25
100
AcDbLine
 10
165.5877969728512
 20
138.5518162836519
 30
0.0
 11
165.5877969728512
 21
135.3874462749101
 31
0.0
  0
LINE
  5
133
330
74
100
AcDbEntity
  8
A1E-----M5_______Rohbau
  6
Continuous
 62
     7
 48
1000.0
370
    25
100
AcDbLine
 10
166.6425869757651
 20
139.6066062865657
 30
0.0
 11
166.6425869757651
 21
135.3874462749101
 31
0.0
  0
LINE
  5
134
330
74
100
AcDbEntity
  8
A1E-----M5_______Rohbau
  6
Continuous
 62
     7
 48
1000.0
370
    25
100
AcDbLine
 10
166.6425869757651
 20
135.3874462749101
 30
0.0
 11
165.5877969728512
 21
135.3874462749101
 31
0.0
  0
LINE
  5
135
330
74
100
AcDbEntity
  8
A1E-----M5_______Rohbau
  6
Continuous
 62
     7
 48
1000.0
370
    25
100
AcDbLine
 10
165.0604019713944
 20
135.3874462749101
 30
0.0
 11
162.7767146259409
 21
134.0689587712678
 31
0.0
  0
LINE
  5
136
330
74
100
AcDbEntity
  8
A1E-----M5_______Rohbau
  6
Continuous
 62
     7
 48
1000.0
370
    25
100
AcDbLine
 10
166.6425869757651
 20
143.7352796214273
 30
0.0
 11
166.6425869757651
 21
140.3524554503541
 31
0.0
  0
LINE
  5
137
330
74
100
AcDbEntity
  8
A1E-----M5_______Rohbau
  6
Continuous
 62
     7
 48
1000.0
370
    25
100
AcDbLine
 10
165.0604019713944
 20
138.7702704459832
 30
0.0
 11
165.0604019713944
 21
135.3874462749101
 31
0.0
  0
LINE
  5
138
330
74
100
AcDbEntity
  8
A1E-----M5_______Rohbau
  6
Continuous
 62
     7
 48
1000.0
370
    25
100
AcDbLine
 10
167.1699819772219
 20
157.010641334645
 30
0.0
 11
167.1699819772219
 21
134.860051273453
 31
0.0
  0
LINE
  5
139
330
74
100
AcDbEntity
  8
A1E-----M5_______Rohbau
  6
Continuous
 62
     7
 48
1000.0
370
    25
100
AcDbLine
 10
163.0404121266695
 20
133.6122213021773
 30
0.0
 11
162.7767146259409
 21
134.0689587712678
 31
0.0
  0
LINE
  5
13A
330
74
100
AcDbEntity
  8
A1E-----M5_______Rohbau
  6
Continuous
 62
     7
 48
1000.0
370
    25
100
AcDbLine
 10
167.1699819772219
 20
134.860051273453
 30
0.0
 11
165.2017170361266
 21
134.860051273453
 31
0.0
  0
LINE
  5
13B
330
74
100
AcDbEntity
  8
A1E-----M5_______Rohbau
  6
Continuous
 62
     7
 48
1000.0
370
    25
100
AcDbLine
 10
165.2017170361266
 20
134.860051273453
 30
0.0
 11
163.0404121266695
 21
133.6122213021773
 31
0.0
  0
LINE
  5
13C
330
74
100
AcDbEntity
  8
A1E-----M5_______Rohbau
  6
Continuous
 62
     7
 48
1000.0
370
    25
100
AcDbLine
 10
166.6425869757651
 20
157.2290954969766
 30
0.0
 11
166.6425869757651
 21
145.844859627255
 31
0.0
  0
LINE
  5
13D
330
74
100
AcDbEntity
  8
A1E-----M5_______Rohbau
  6
Continuous
 62
     7
 48
1000.0
370
    25
100
AcDbLine
 10
168.2247719801362
 20
173.604651251803
 30
0.0
 11
168.2247719801362
 21
158.8112805013473
 31
0.0
  0
LINE
  5
13E
330
74
100
AcDbEntity
  8
A1E-----M5_______Rohbau
  6
Continuous
 62
     7
 48
1000.0
370
    25
100
AcDbLine
 10
168.2247719801362
 20
158.8112805013473
 30
0.0
 11
166.6425869757651
 21
157.2290954969766
 31
0.0
  0
LINE
  5
13F
330
74
100
AcDbEntity
  8
A1E-----M5_______Rohbau
  6
Continuous
 62
     7
 48
1000.0
370
    25
100
AcDbLine
 10
168.752166981593
 20
173.604651251803
 30
0.0
 11
168.752166981593
 21
136.7622127518449
 31
0.0
  0
LINE
  5
140
330
74
100
AcDbEntity
  8
A1E-----M5_______Rohbau
  6
Continuous
 62
     7
 48
1000.0
370
    25
100
AcDbLine
 10
168.2247719801362
 20
158.0654313375589
 30
0.0
 11
168.2247719801362
 21
139.1682823732836
 31
0.0
  0
LINE
  5
141
330
74
100
AcDbEntity
  8
A1E-----M5_______Rohbau
  6
Continuous
 62
     7
 48
1000.0
370
    25
100
AcDbLine
 10
170.3343519859641
 20
126.5999312652695
 30
0.0
 11
170.3343519859641
 21
173.604651251803
 31
0.0
  0
LINE
  5
142
330
74
100
AcDbEntity
  8
A1E-----M5_______Rohbau
  6
Continuous
 62
     7
 48
1000.0
370
    25
100
AcDbLine
 10
168.2247719801364
 20
126.4808044278432
 30
0.0
 11
168.2247719801364
 21
154.3736663273605
 31
0.0
  0
LINE
  5
143
330
74
100
AcDbEntity
  8
A1E-----M5_______Rohbau
  6
Continuous
 62
     7
 48
1000.0
370
    25
100
AcDbLine
 10
167.1699819772228
 20
126.4808044278432
 30
0.0
 11
167.1699819772228
 21
154.3736663273605
 31
0.0
  0
LINE
  5
144
330
74
100
AcDbEntity
  8
A1E-----M5_______Rohbau
  6
STRICHLINIE_S4
 62
     7
 48
1000.0
370
    13
100
AcDbLine
 10
53.34784460953546
 20
142.6319569242536
 30
0.0
 11
53.34784460953546
 21
215.0580211015443
 31
0.0
  0
LINE
  5
145
330
74
100
AcDbEntity
  8
A1E-----M5_______Rohbau
  6
STRICHLINIE_S4
 62
     7
 48
1000.0
370
    25
100
AcDbLine
 10
167.5633953494298
 20
158.8680743710669
 30
0.0
 11
167.5633953494298
 21
180.6306533307622
 31
0.0
  0
LINE
  5
146
330
74
100
AcDbEntity
  8
A1E-----M5_______Rohbau
  6
Continuous
 62
     7
 48
1000.0
370
    13
100
AcDbLine
 10
52.7478446095333
 20
149.5480454460298
 30
0.0
 11
52.7478446095333
 21
215.0580211015443
 31
0.0
  0
LINE
  5
147
330
74
100
AcDbEntity
  8
A1E-----M5_______Rohbau
  6
Continuous
 62
     7
 48
1000.0
370
    13
100
AcDbLine
 10
53.14784460953526
 20
135.5591714515239
 30
0.0
 11
52.5478446095351
 21
134.9591714515237
 31
0.0
  0
LINE
  5
148
330
74
100
AcDbEntity
  8
A1E-----M5_______Rohbau
  6
Continuous
 62
     7
 48
1000.0
370
    13
100
AcDbLine
 10
52.74784460953553
 20
137.2420141639985
 30
0.0
 11
52.74784460953553
 21
135.1591714515237
 31
0.0
  0
LINE
  5
149
330
74
100
AcDbEntity
  8
A1E-----M5_______Rohbau
  6
Continuous
 62
     7
 48
1000.0
370
    13
100
AcDbLine
 10
52.7478446095333
 20
149.5480454460298
 30
0.0
 11
52.7478446095333
 21
137.2420141639985
 31
0.0
  0
LINE
  5
14A
330
74
100
AcDbEntity
  8
A1-----1H2_______Schraffur_1_5
  6
Continuous
 62
     7
 48
1000.0
370
    13
100
AcDbLine
 10
51.86229992170111
 20
136.7090240050512
 30
0.0
 11
51.87229992170073
 21
136.7090240050512
 31
0.0
  0
LINE
  5
14B
330
74
100
AcDbEntity
  8
A1-----1H2_______Schraffur_1_5
  6
Continuous
 62
     7
 48
1000.0
370
    13
100
AcDbLine
 10
51.86229948458742
 20
146.7090241540627
 30
0.0
 11
51.87229948458705
 21
146.7090241540627
 31
0.0
  0
LINE
  5
14C
330
74
100
AcDbEntity
  8
A1-----1H2_______Schraffur_1_5
  6
Continuous
 62
     7
 48
1000.0
370
    13
100
AcDbLine
 10
51.86229817324595
 20
176.7090246010972
 30
0.0
 11
51.87229817324557
 21
176.7090246010972
 31
0.0
  0
LINE
  5
14D
330
74
100
AcDbEntity
  8
A1-----1H2_______Schraffur_1_5
  6
Continuous
 62
     7
 48
1000.0
370
    13
100
AcDbLine
 10
52.03229997581382
 20
135.5290239948985
 30
0.0
 11
52.04229997581344
 21
135.5290239948985
 31
0.0
  0
LINE
  5
14E
330
74
100
AcDbEntity
  8
A1-----1H2_______Schraffur_1_5
  6
Continuous
 62
     7
 48
1000.0
370
    13
100
AcDbLine
 10
52.03229953869948
 20
145.52902414391
 30
0.0
 11
52.04229953869977
 21
145.52902414391
 31
0.0
  0
LINE
  5
14F
330
74
100
AcDbEntity
  8
A1-----1H2_______Schraffur_1_5
  6
Continuous
 62
     7
 48
1000.0
370
    13
100
AcDbLine
 10
52.03229910158625
 20
155.5290242929217
 30
0.0
 11
52.04229910158587
 21
155.5290242929217
 31
0.0
  0
LINE
  5
150
330
74
100
AcDbEntity
  8
A1-----1H2_______Schraffur_1_5
  6
Continuous
 62
     7
 48
1000.0
370
    13
100
AcDbLine
 10
52.03229866447167
 20
165.5290244419334
 30
0.0
 11
52.04229866447219
 21
165.5290244419334
 31
0.0
  0
LINE
  5
151
330
74
100
AcDbEntity
  8
A1-----1H2_______Schraffur_1_5
  6
Continuous
 62
     7
 48
1000.0
370
    13
100
AcDbLine
 10
52.032298227358
 20
175.5290245909449
 30
0.0
 11
52.04229822735829
 21
175.5290245909449
 31
0.0
  0
LINE
  5
152
330
74
100
AcDbEntity
  8
A1-----1H2_______Schraffur_1_5
  6
Continuous
 62
     7
 48
1000.0
370
    13
100
AcDbLine
 10
52.0322977902441
 20
185.5290247399566
 30
0.0
 11
52.04229779024438
 21
185.5290247399566
 31
0.0
  0
LINE
  5
153
330
74
100
AcDbEntity
  8
A1-----1H2_______Schraffur_1_5
  6
Continuous
 62
     7
 48
1000.0
370
    13
100
AcDbLine
 10
52.03229735313042
 20
195.5290248889681
 30
0.0
 11
52.04229735313004
 21
195.5290248889681
 31
0.0
  0
LINE
  5
154
330
74
100
AcDbEntity
  8
A1-----1H2_______Schraffur_1_5
  6
Continuous
 62
     7
 48
1000.0
370
    13
100
AcDbLine
 10
52.09229981978346
 20
139.1190240510163
 30
0.0
 11
52.10229981978398
 21
139.1190240510163
 31
0.0
  0
LINE
  5
155
330
74
100
AcDbEntity
  8
A1-----1H2_______Schraffur_1_5
  6
Continuous
 62
     7
 48
1000.0
370
    13
100
AcDbLine
 10
52.09229938266979
 20
149.1190242000282
 30
0.0
 11
52.10229938267008
 21
149.1190242000282
 31
0.0
  0
LINE
  5
156
330
74
100
AcDbEntity
  8
A1-----1H2_______Schraffur_1_5
  6
Continuous
 62
     7
 48
1000.0
370
    13
100
AcDbLine
 10
52.0922989455559
 20
159.1190243490394
 30
0.0
 11
52.10229894555618
 21
159.1190243490394
 31
0.0
  0
LINE
  5
157
330
74
100
AcDbEntity
  8
A1-----1H2_______Schraffur_1_5
  6
Continuous
 62
     7
 48
1000.0
370
    13
100
AcDbLine
 10
52.09229807132832
 20
179.1190246470626
 30
0.0
 11
52.1022980713286
 21
179.1190246470626
 31
0.0
  0
LINE
  5
158
330
74
100
AcDbEntity
  8
A1-----1H2_______Schraffur_1_5
  6
Continuous
 62
     7
 48
1000.0
370
    13
100
AcDbLine
 10
52.09229763421441
 20
189.1190247960743
 30
0.0
 11
52.10229763421403
 21
189.1190247960743
 31
0.0
  0
LINE
  5
159
330
74
100
AcDbEntity
  8
A1-----1H2_______Schraffur_1_5
  6
Continuous
 62
     7
 48
1000.0
370
    13
100
AcDbLine
 10
52.25229987331059
 20
137.9490240405761
 30
0.0
 11
52.26229987331021
 21
137.9490240405761
 31
0.0
  0
LINE
  5
15A
330
74
100
AcDbEntity
  8
A1-----1H2_______Schraffur_1_5
  6
Continuous
 62
     7
 48
1000.0
370
    13
100
AcDbLine
 10
52.25229943619669
 20
147.9490241895878
 30
0.0
 11
52.26229943619632
 21
147.9490241895878
 31
0.0
  0
LINE
  5
15B
330
74
100
AcDbEntity
  8
A1-----1H2_______Schraffur_1_5
  6
Continuous
 62
     7
 48
1000.0
370
    13
100
AcDbLine
 10
52.25229899908279
 20
157.949024338599
 30
0.0
 11
52.26229899908241
 21
157.949024338599
 31
0.0
  0
LINE
  5
15C
330
74
100
AcDbEntity
  8
A1-----1H2_______Schraffur_1_5
  6
Continuous
 62
     7
 48
1000.0
370
    13
100
AcDbLine
 10
52.25229856196911
 20
167.9490244876105
 30
0.0
 11
52.26229856196873
 21
167.9490244876105
 31
0.0
  0
LINE
  5
15D
330
74
100
AcDbEntity
  8
A1-----1H2_______Schraffur_1_5
  6
Continuous
 62
     7
 48
1000.0
370
    13
100
AcDbLine
 10
52.25229812485455
 20
177.9490246366222
 30
0.0
 11
52.26229812485484
 21
177.9490246366222
 31
0.0
  0
LINE
  5
15E
330
74
100
AcDbEntity
  8
A1-----1H2_______Schraffur_1_5
  6
Continuous
 62
     7
 48
1000.0
370
    13
100
AcDbLine
 10
52.25229768774064
 20
187.9490247856341
 30
0.0
 11
52.26229768774115
 21
187.9490247856341
 31
0.0
  0
LINE
  5
15F
330
74
100
AcDbEntity
  8
A1-----1H2_______Schraffur_1_5
  6
Continuous
 62
     7
 48
1000.0
370
    13
100
AcDbLine
 10
51.9422997152641
 20
141.4590240793283
 30
0.0
 11
51.95229971526438
 21
141.4590240793283
 31
0.0
  0
LINE
  5
160
330
74
100
AcDbEntity
  8
A1-----1H2_______Schraffur_1_5
  6
Continuous
 62
     7
 48
1000.0
370
    13
100
AcDbLine
 10
51.94229927815041
 20
151.45902422834
 30
0.0
 11
51.95229927815004
 21
151.45902422834
 31
0.0
  0
LINE
  5
161
330
74
100
AcDbEntity
  8
A1-----1H2_______Schraffur_1_5
  6
Continuous
 62
     7
 48
1000.0
370
    13
100
AcDbLine
 10
51.94229840392195
 20
171.4590245263632
 30
0.0
 11
51.95229840392223
 21
171.4590245263632
 31
0.0
  0
LINE
  5
162
330
74
100
AcDbEntity
  8
A1-----1H2_______Schraffur_1_5
  6
Continuous
 62
     7
 48
1000.0
370
    13
100
AcDbLine
 10
51.94229796680827
 20
181.4590246753749
 30
0.0
 11
51.95229796680855
 21
181.4590246753749
 31
0.0
  0
LINE
  5
163
330
74
100
AcDbEntity
  8
A1-----1H2_______Schraffur_1_5
  6
Continuous
 62
     7
 48
1000.0
370
    13
100
AcDbLine
 10
52.11229976937681
 20
140.2790240691758
 30
0.0
 11
52.12229976937643
 21
140.2790240691758
 31
0.0
  0
LINE
  5
164
330
74
100
AcDbEntity
  8
A1-----1H2_______Schraffur_1_5
  6
Continuous
 62
     7
 48
1000.0
370
    13
100
AcDbLine
 10
52.11229933226313
 20
150.2790242181873
 30
0.0
 11
52.12229933226276
 21
150.2790242181873
 31
0.0
  0
LINE
  5
165
330
74
100
AcDbEntity
  8
A1-----1H2_______Schraffur_1_5
  6
Continuous
 62
     7
 48
1000.0
370
    13
100
AcDbLine
 10
52.11229889514857
 20
160.279024367199
 30
0.0
 11
52.12229889514886
 21
160.279024367199
 31
0.0
  0
LINE
  5
166
330
74
100
AcDbEntity
  8
A1-----1H2_______Schraffur_1_5
  6
Continuous
 62
     7
 48
1000.0
370
    13
100
AcDbLine
 10
52.11229802092099
 20
180.2790246652226
 30
0.0
 11
52.12229802092128
 21
180.2790246652226
 31
0.0
  0
LINE
  5
167
330
74
100
AcDbEntity
  8
A1-----1H2_______Schraffur_1_5
  6
Continuous
 62
     7
 48
1000.0
370
    13
100
AcDbLine
 10
52.11229758380709
 20
190.2790248142341
 30
0.0
 11
52.12229758380737
 21
190.2790248142341
 31
0.0
  0
LINE
  5
168
330
74
100
AcDbEntity
  8
A1E-----M5_______Rohbau
  6
Continuous
 62
     7
 48
1000.0
370
    25
100
AcDbLine
 10
166.6425869757651
 20
140.3524554503541
 30
0.0
 11
165.0604019713944
 21
138.7702704459832
 31
0.0
  0
LINE
  5
169
330
74
100
AcDbEntity
  8
A1E-----M5_______Rohbau
  6
Continuous
 62
     7
 48
1000.0
370
    25
100
AcDbLine
 10
165.5877969728512
 20
144.7900691341106
 30
0.0
 11
165.5877969728512
 21
139.2976654474403
 31
0.0
  0
LINE
  5
16A
330
74
100
AcDbEntity
  8
A1E-----M5_______Rohbau
  6
Continuous
 62
     7
 48
1000.0
370
    25
100
AcDbLine
 10
165.5877969728512
 20
180.667770257062
 30
0.0
 11
165.5877969728512
 21
144.7900691341106
 31
0.0
  0
LINE
  5
16B
330
74
100
AcDbEntity
  8
A1-----1H2_______Schraffur_1_5
  6
Continuous
 62
     7
 48
1000.0
370
    13
100
AcDbLine
 10
165.4932726582155
 20
149.1813241094369
 30
0.0
 11
165.5032726582155
 21
149.1813241094369
 31
0.0
  0
LINE
  5
16C
330
74
100
AcDbEntity
  8
A1-----1H2_______Schraffur_1_5
  6
Continuous
 62
     7
 48
1000.0
370
    13
100
AcDbLine
 10
165.4932722211013
 20
159.1813242584485
 30
0.0
 11
165.5032722211012
 21
159.1813242584485
 31
0.0
  0
LINE
  5
16D
330
74
100
AcDbEntity
  8
A1-----1H2_______Schraffur_1_5
  6
Continuous
 62
     7
 48
1000.0
370
    13
100
AcDbLine
 10
165.4932717839874
 20
169.1813244074603
 30
0.0
 11
165.5032717839875
 21
169.1813244074603
 31
0.0
  0
LINE
  5
16E
330
74
100
AcDbEntity
  8
A1-----1H2_______Schraffur_1_5
  6
Continuous
 62
     7
 48
1000.0
370
    13
100
AcDbLine
 10
164.9432732086511
 20
136.4013238949588
 30
0.0
 11
164.9532732086512
 21
136.4013238949588
 31
0.0
  0
LINE
  5
16F
330
74
100
AcDbEntity
  8
A1-----1H2_______Schraffur_1_5
  6
Continuous
 62
     7
 48
1000.0
370
    13
100
AcDbLine
 10
165.3932728888325
 20
143.8713240259404
 30
0.0
 11
165.4032728888326
 21
143.8713240259404
 31
0.0
  0
LINE
  5
170
330
74
100
AcDbEntity
  8
A1-----1H2_______Schraffur_1_5
  6
Continuous
 62
     7
 48
1000.0
370
    13
100
AcDbLine
 10
165.3932724517189
 20
153.8713241749523
 30
0.0
 11
165.4032724517187
 21
153.8713241749523
 31
0.0
  0
LINE
  5
171
330
74
100
AcDbEntity
  8
A1-----1H2_______Schraffur_1_5
  6
Continuous
 62
     7
 48
1000.0
370
    13
100
AcDbLine
 10
165.393272014605
 20
163.8713243239638
 30
0.0
 11
165.403272014605
 21
163.8713243239638
 31
0.0
  0
LINE
  5
172
330
74
100
AcDbEntity
  8
A1-----1H2_______Schraffur_1_5
  6
Continuous
 62
     7
 48
1000.0
370
    13
100
AcDbLine
 10
165.3932715774909
 20
173.871324472975
 30
0.0
 11
165.4032715774909
 21
173.871324472975
 31
0.0
  0
LINE
  5
173
330
74
100
AcDbEntity
  8
A1-----1H2_______Schraffur_1_5
  6
Continuous
 62
     7
 48
1000.0
370
    13
100
AcDbLine
 10
165.5532729427966
 20
142.6913240153509
 30
0.0
 11
165.5632729427965
 21
142.6913240153509
 31
0.0
  0
LINE
  5
174
330
74
100
AcDbEntity
  8
A1-----1H2_______Schraffur_1_5
  6
Continuous
 62
     7
 48
1000.0
370
    13
100
AcDbLine
 10
165.5532725056827
 20
152.6913241643626
 30
0.0
 11
165.5632725056828
 21
152.6913241643626
 31
0.0
  0
LINE
  5
175
330
74
100
AcDbEntity
  8
A1-----1H2_______Schraffur_1_5
  6
Continuous
 62
     7
 48
1000.0
370
    13
100
AcDbLine
 10
165.5532720685686
 20
162.6913243133743
 30
0.0
 11
165.5632720685685
 21
162.6913243133743
 31
0.0
  0
LINE
  5
176
330
74
100
AcDbEntity
  8
A1-----1H2_______Schraffur_1_5
  6
Continuous
 62
     7
 48
1000.0
370
    13
100
AcDbLine
 10
165.5532716314547
 20
172.6913244623858
 30
0.0
 11
165.5632716314548
 21
172.6913244623858
 31
0.0
  0
LINE
  5
177
330
74
100
AcDbEntity
  8
A1-----1H2_______Schraffur_1_5
  6
Continuous
 62
     7
 48
1000.0
370
    13
100
AcDbLine
 10
164.5232730690731
 20
139.4513239220483
 30
0.0
 11
164.5332730690729
 21
139.4513239220483
 31
0.0
  0
LINE
  5
178
330
74
100
AcDbEntity
  8
A1-----1H2_______Schraffur_1_5
  6
Continuous
 62
     7
 48
1000.0
370
    13
100
AcDbLine
 10
164.683273123037
 20
138.271323911459
 30
0.0
 11
164.693273123037
 21
138.271323911459
 31
0.0
  0
LINE
  5
179
330
74
100
AcDbEntity
  8
A1-----1H2_______Schraffur_1_5
  6
Continuous
 62
     7
 48
1000.0
370
    13
100
AcDbLine
 10
164.2932730879385
 20
138.9413239043953
 30
0.0
 11
164.3032730879386
 21
138.9413239043953
 31
0.0
  0
LINE
  5
17A
330
74
100
AcDbEntity
  8
A1-----1H2_______Schraffur_1_5
  6
Continuous
 62
     7
 48
1000.0
370
    13
100
AcDbLine
 10
164.8232730455683
 20
140.0913239446988
 30
0.0
 11
164.8332730455684
 21
140.0913239446988
 31
0.0
  0
LINE
  5
17B
330
74
100
AcDbEntity
  8
A1E-----M5_______Rohbau
  6
Continuous
 62
     7
 48
1000.0
370
    25
100
AcDbLine
 10
168.752166981593
 20
173.604651251803
 30
0.0
 11
170.3343519859641
 21
173.604651251803
 31
0.0
  0
LINE
  5
17C
330
74
100
AcDbEntity
  8
A1-----1H2_______Schraffur_1_5
  6
Continuous
 62
     7
 48
1000.0
370
    13
100
AcDbLine
 10
50.84784444264257
 20
68.13890972573344
 30
0.0
 11
50.84784444264257
 21
88.80634451754355
 31
0.0
  0
LINE
  5
17D
330
74
100
AcDbEntity
  8
A1-----1H2_______Schraffur_1_5
  6
Continuous
 62
     7
 48
1000.0
370
    13
100
AcDbLine
 10
48.74784435919643
 20
68.13890972573344
 30
0.0
 11
48.74784435919643
 21
88.80634451754355
 31
0.0
  0
LINE
  5
17E
330
74
100
AcDbEntity
  8
A1-----1H2_______Schraffur_1_5
  6
Continuous
 62
     7
 48
1000.0
370
    13
100
AcDbLine
 10
46.64784427574942
 20
68.13890972573344
 30
0.0
 11
46.64784427574942
 21
88.80634451754355
 31
0.0
  0
LINE
  5
17F
330
74
100
AcDbEntity
  8
A1-----1H2_______Schraffur_1_5
  6
Continuous
 62
     7
 48
1000.0
370
    13
100
AcDbLine
 10
42.44784410885627
 20
68.13890972573344
 30
0.0
 11
42.44784410885627
 21
88.80634451754355
 31
0.0
  0
LINE
  5
180
330
74
100
AcDbEntity
  8
A1-----1H2_______Schraffur_1_5
  6
Continuous
 62
     7
 48
1000.0
370
    13
100
AcDbLine
 10
38.24784394196379
 20
68.13890972573344
 30
0.0
 11
38.24784394196379
 21
88.80634451754355
 31
0.0
  0
LINE
  5
182
330
74
100
AcDbEntity
  8
A1E-----M5_______Rohbau
  6
LINIE_34
 62
     1
 48
1000.0
370
    35
100
AcDbLine
 10
87.42488515678848
 20
67.19794167692528
 30
0.0
 11
87.42488515678848
 21
129.1311446837182
 31
0.0
  0
LINE
  5
183
330
74
100
AcDbEntity
  8
A1E-----M5_______Rohbau
  6
Continuous
 62
     7
 48
1000.0
370
    20
100
AcDbLine
 10
40.74686804703553
 20
197.8463627857607
 30
0.0
 11
86.35219765961754
 21
197.8463627857607
 31
0.0
  0
CIRCLE
  5
184
330
74
100
AcDbEntity
  8
A1E-----M5_______Rohbau
  6
Continuous
 62
     7
 48
1000.0
370
    20
100
AcDbCircle
 10
86.95219765961748
 20
197.8463627857607
 30
0.0
 40
0.6000000000000001
  0
HATCH
  5
185
330
74
100
AcDbEntity
  8
A1E-----M5_______Rohbau
  6
Continuous
 62
     7
370
    20
100
AcDbHatch
 10
0.0
 20
0.0
 30
0.0
210
0.0
220
0.0
230
1.0
  2
SOLID
 70
     1
 71
     0
 91
        1
 92
        3
 72
     0
 73
     1
 93
       16
 10
86.35219765961754
 20
197.8463627857607
 10
86.39786994700738
 20
197.6167527256791
 10
86.52793358694733
 20
197.4220987130906
 10
86.72258759953588
 20
197.2920350731509
 10
86.95219765961748
 20
197.2463627857606
 10
87.18180771969908
 20
197.2920350731509
 10
87.37646173228764
 20
197.4220987130906
 10
87.50652537222759
 20
197.6167527256791
 10
87.55219765961742
 20
197.8463627857607
 10
87.50652537222759
 20
198.0759728458423
 10
87.37646173228764
 20
198.2706268584309
 10
87.18180771969908
 20
198.4006904983706
 10
86.95219765961748
 20
198.4463627857607
 10
86.72258759953588
 20
198.4006904983706
 10
86.52793358694733
 20
198.2706268584309
 10
86.39786994700738
 20
198.0759728458423
 97
        0
 75
     0
 76
     1
 98
        0
  0
LINE
  5
186
330
74
100
AcDbEntity
  8
A1E-----M5_______Rohbau
  6
Continuous
 62
     7
 48
1000.0
370
    20
100
AcDbLine
 10
40.74686804703553
 20
191.8463627857607
 30
0.0
 11
69.12726593488783
 21
191.8463627857607
 31
0.0
  0
CIRCLE
  5
187
330
74
100
AcDbEntity
  8
A1E-----M5_______Rohbau
  6
Continuous
 62
     7
 48
1000.0
370
    20
100
AcDbCircle
 10
69.72726593488798
 20
191.8463627857607
 30
0.0
 40
0.6000000000000001
  0
HATCH
  5
188
330
74
100
AcDbEntity
  8
A1E-----M5_______Rohbau
  6
Continuous
 62
     7
370
    20
100
AcDbHatch
 10
0.0
 20
0.0
 30
0.0
210
0.0
220
0.0
230
1.0
  2
SOLID
 70
     1
 71
     0
 91
        1
 92
        3
 72
     0
 73
     1
 93
       16
 10
69.12726593488783
 20
191.8463627857607
 10
69.17293822227788
 20
191.6167527256791
 10
69.30300186221783
 20
191.4220987130906
 10
69.49765587480638
 20
191.2920350731509
 10
69.72726593488798
 20
191.2463627857608
 10
69.95687599496958
 20
191.2920350731509
 10
70.15153000755814
 20
191.4220987130906
 10
70.28159364749808
 20
191.6167527256791
 10
70.32726593488792
 20
191.8463627857607
 10
70.28159364749808
 20
192.0759728458423
 10
70.15153000755814
 20
192.2706268584309
 10
69.95687599496958
 20
192.4006904983708
 10
69.72726593488798
 20
192.4463627857609
 10
69.49765587480638
 20
192.4006904983708
 10
69.30300186221783
 20
192.2706268584309
 10
69.17293822227788
 20
192.0759728458423
 97
        0
 75
     0
 76
     1
 98
        0
  0
LINE
  5
189
330
74
100
AcDbEntity
  8
A1E-----M5_______Rohbau
  6
Continuous
 62
     7
 48
1000.0
370
    20
100
AcDbLine
 10
40.74686804703553
 20
185.8463627857609
 30
0.0
 11
53.53689163773146
 21
185.8463627857609
 31
0.0
  0
CIRCLE
  5
18A
330
74
100
AcDbEntity
  8
A1E-----M5_______Rohbau
  6
Continuous
 62
     7
 48
1000.0
370
    20
100
AcDbCircle
 10
54.13689163773161
 20
185.8463627857609
 30
0.0
 40
0.6000000000000001
  0
HATCH
  5
18B
330
74
100
AcDbEntity
  8
A1E-----M5_______Rohbau
  6
Continuous
 62
     7
370
    20
100
AcDbHatch
 10
0.0
 20
0.0
 30
0.0
210
0.0
220
0.0
230
1.0
  2
SOLID
 70
     1
 71
     0
 91
        1
 92
        3
 72
     0
 73
     1
 93
       16
 10
53.53689163773146
 20
185.8463627857609
 10
53.58256392512151
 20
185.6167527256793
 10
53.71262756506145
 20
185.4220987130908
 10
53.90728157765001
 20
185.2920350731511
 10
54.13689163773161
 20
185.246362785761
 10
54.36650169781321
 20
185.2920350731511
 10
54.56115571040176
 20
185.4220987130908
 10
54.69121935034171
 20
185.6167527256793
 10
54.73689163773155
 20
185.8463627857609
 10
54.69121935034171
 20
186.0759728458425
 10
54.56115571040176
 20
186.2706268584311
 10
54.36650169781321
 20
186.4006904983708
 10
54.13689163773161
 20
186.4463627857609
 10
53.90728157765001
 20
186.4006904983708
 10
53.71262756506145
 20
186.2706268584311
 10
53.58256392512151
 20
186.0759728458425
 97
        0
 75
     0
 76
     1
 98
        0
  0
LINE
  5
18C
330
74
100
AcDbEntity
  8
A1E-----M5_______Rohbau
  6
Continuous
 62
     7
 48
1000.0
370
    20
100
AcDbLine
 10
40.74686804703553
 20
179.8463627857607
 30
0.0
 11
52.74784460953553
 21
179.8463627857607
 31
0.0
  0
CIRCLE
  5
18D
330
74
100
AcDbEntity
  8
A1E-----M5_______Rohbau
  6
Continuous
 62
     7
 48
1000.0
370
    20
100
AcDbCircle
 10
53.34784460953546
 20
179.8463627857607
 30
0.0
 40
0.6000000000000001
  0
HATCH
  5
18E
330
74
100
AcDbEntity
  8
A1E-----M5_______Rohbau
  6
Continuous
 62
     7
370
    20
100
AcDbHatch
 10
0.0
 20
0.0
 30
0.0
210
0.0
220
0.0
230
1.0
  2
SOLID
 70
     1
 71
     0
 91
        1
 92
        3
 72
     0
 73
     1
 93
       16
 10
52.74784460953552
 20
179.8463627857607
 10
52.79351689692535
 20
179.6167527256791
 10
52.9235805368653
 20
179.4220987130905
 10
53.11823454945386
 20
179.2920350731508
 10
53.34784460953546
 20
179.2463627857608
 10
53.57745466961705
 20
179.2920350731508
 10
53.77210868220561
 20
179.4220987130905
 10
53.90217232214556
 20
179.6167527256791
 10
53.94784460953539
 20
179.8463627857607
 10
53.90217232214556
 20
180.0759728458423
 10
53.77210868220561
 20
180.2706268584309
 10
53.57745466961705
 20
180.4006904983706
 10
53.34784460953546
 20
180.4463627857606
 10
53.11823454945386
 20
180.4006904983706
 10
52.9235805368653
 20
180.2706268584309
 10
52.79351689692535
 20
180.0759728458423
 97
        0
 75
     0
 76
     1
 98
        0
  0
LINE
  5
18F
330
74
100
AcDbEntity
  8
A1E-----M5_______Rohbau
  6
Continuous
 62
     7
 48
1000.0
370
    20
100
AcDbLine
 10
40.74686804703553
 20
173.8463627857609
 30
0.0
 11
52.48687610154001
 21
173.8463627857609
 31
0.0
  0
CIRCLE
  5
190
330
74
100
AcDbEntity
  8
A1E-----M5_______Rohbau
  6
Continuous
 62
     7
 48
1000.0
370
    20
100
AcDbCircle
 10
53.08687610154017
 20
173.8463627857609
 30
0.0
 40
0.6000000000000001
  0
HATCH
  5
191
330
74
100
AcDbEntity
  8
A1E-----M5_______Rohbau
  6
Continuous
 62
     7
370
    20
100
AcDbHatch
 10
0.0
 20
0.0
 30
0.0
210
0.0
220
0.0
230
1.0
  2
SOLID
 70
     1
 71
     0
 91
        1
 92
        3
 72
     0
 73
     1
 93
       16
 10
52.48687610154001
 20
173.8463627857609
 10
52.53254838893007
 20
173.6167527256793
 10
52.66261202887002
 20
173.4220987130908
 10
52.85726604145857
 20
173.2920350731508
 10
53.08687610154017
 20
173.2463627857608
 10
53.31648616162177
 20
173.2920350731508
 10
53.51114017421033
 20
173.4220987130908
 10
53.64120381415027
 20
173.6167527256793
 10
53.68687610154011
 20
173.8463627857609
 10
53.64120381415027
 20
174.0759728458425
 10
53.51114017421033
 20
174.2706268584311
 10
53.31648616162177
 20
174.4006904983708
 10
53.08687610154017
 20
174.4463627857609
 10
52.85726604145857
 20
174.4006904983708
 10
52.66261202887002
 20
174.2706268584311
 10
52.53254838893007
 20
174.0759728458425
 97
        0
 75
     0
 76
     1
 98
        0
  0
LINE
  5
192
330
74
100
AcDbEntity
  8
A1E-----M5_______Rohbau
  6
Continuous
 62
     7
 48
1000.0
370
    20
100
AcDbLine
 10
40.74686804703553
 20
167.8463627857609
 30
0.0
 11
51.88687610154008
 21
167.8463627857609
 31
0.0
  0
CIRCLE
  5
193
330
74
100
AcDbEntity
  8
A1E-----M5_______Rohbau
  6
Continuous
 62
     7
 48
1000.0
370
    20
100
AcDbCircle
 10
52.48687610154001
 20
167.8463627857609
 30
0.0
 40
0.6000000000000001
  0
HATCH
  5
194
330
74
100
AcDbEntity
  8
A1E-----M5_______Rohbau
  6
Continuous
 62
     7
370
    20
100
AcDbHatch
 10
0.0
 20
0.0
 30
0.0
210
0.0
220
0.0
230
1.0
  2
SOLID
 70
     1
 71
     0
 91
        1
 92
        3
 72
     0
 73
     1
 93
       16
 10
51.88687610154008
 20
167.8463627857609
 10
51.93254838892991
 20
167.6167527256793
 10
52.06261202886986
 20
167.4220987130908
 10
52.25726604145841
 20
167.2920350731511
 10
52.48687610154001
 20
167.246362785761
 10
52.71648616162161
 20
167.2920350731511
 10
52.91114017421017
 20
167.4220987130908
 10
53.04120381415012
 20
167.6167527256793
 10
53.08687610154017
 20
167.8463627857609
 10
53.04120381415012
 20
168.0759728458425
 10
52.91114017421017
 20
168.2706268584311
 10
52.71648616162161
 20
168.4006904983708
 10
52.48687610154001
 20
168.4463627857611
 10
52.25726604145841
 20
168.4006904983708
 10
52.06261202886986
 20
168.2706268584311
 10
51.93254838892991
 20
168.0759728458425
 97
        0
 75
     0
 76
     1
 98
        0
  0
LINE
  5
195
330
74
100
AcDbEntity
  8
A1E-----M5_______Rohbau
  6
Continuous
 62
     7
 48
1000.0
370
    20
100
AcDbLine
 10
40.74686804703553
 20
161.8463627857607
 30
0.0
 11
51.24462195328516
 21
161.8463627857607
 31
0.0
  0
CIRCLE
  5
196
330
74
100
AcDbEntity
  8
A1E-----M5_______Rohbau
  6
Continuous
 62
     7
 48
1000.0
370
    20
100
AcDbCircle
 10
51.8446219532851
 20
161.8463627857607
 30
0.0
 40
0.6000000000000001
  0
HATCH
  5
197
330
74
100
AcDbEntity
  8
A1E-----M5_______Rohbau
  6
Continuous
 62
     7
370
    20
100
AcDbHatch
 10
0.0
 20
0.0
 30
0.0
210
0.0
220
0.0
230
1.0
  2
SOLID
 70
     1
 71
     0
 91
        1
 92
        3
 72
     0
 73
     1
 93
       16
 10
51.24462195328516
 20
161.8463627857607
 10
51.290294240675
 20
161.6167527256791
 10
51.42035788061494
 20
161.4220987130905
 10
51.6150118932035
 20
161.2920350731508
 10
51.8446219532851
 20
161.2463627857608
 10
52.0742320133667
 20
161.2920350731508
 10
52.26888602595525
 20
161.4220987130905
 10
52.3989496658952
 20
161.6167527256791
 10
52.44462195328503
 20
161.8463627857607
 10
52.3989496658952
 20
162.0759728458423
 10
52.26888602595525
 20
162.2706268584309
 10
52.0742320133667
 20
162.4006904983706
 10
51.8446219532851
 20
162.4463627857609
 10
51.6150118932035
 20
162.4006904983706
 10
51.42035788061494
 20
162.2706268584309
 10
51.290294240675
 20
162.0759728458423
 97
        0
 75
     0
 76
     1
 98
        0
  0
LINE
  5
198
330
74
100
AcDbEntity
  8
A1E-----M5_______Rohbau
  6
Continuous
 62
     7
 48
1000.0
370
    20
100
AcDbLine
 10
137.8040150309197
 20
147.8493047726197
 30
0.0
 11
166.0425869757651
 21
147.8493047726197
 31
0.0
  0
CIRCLE
  5
199
330
74
100
AcDbEntity
  8
A1E-----M5_______Rohbau
  6
Continuous
 62
     7
 48
1000.0
370
    20
100
AcDbCircle
 10
166.6425869757651
 20
147.8493047726197
 30
0.0
 40
0.6000000000000001
  0
HATCH
  5
19A
330
74
100
AcDbEntity
  8
A1E-----M5_______Rohbau
  6
Continuous
 62
     7
370
    20
100
AcDbHatch
 10
0.0
 20
0.0
 30
0.0
210
0.0
220
0.0
230
1.0
  2
SOLID
 70
     1
 71
     0
 91
        1
 92
        3
 72
     0
 73
     1
 93
       16
 10
166.0425869757651
 20
147.8493047726197
 10
166.0882592631552
 20
147.6196947125381
 10
166.2183229030949
 20
147.4250406999496
 10
166.4129769156835
 20
147.2949770600098
 10
166.6425869757651
 20
147.2493047726198
 10
166.8721970358467
 20
147.2949770600098
 10
167.0668510484352
 20
147.4250406999496
 10
167.1969146883749
 20
147.6196947125381
 10
167.242586975765
 20
147.8493047726197
 10
167.1969146883749
 20
148.0789148327013
 10
167.0668510484352
 20
148.2735688452899
 10
166.8721970358467
 20
148.4036324852298
 10
166.6425869757651
 20
148.4493047726199
 10
166.4129769156835
 20
148.4036324852298
 10
166.2183229030949
 20
148.2735688452899
 10
166.0882592631552
 20
148.0789148327013
 97
        0
 75
     0
 76
     1
 98
        0
  0
LINE
  5
19B
330
74
100
AcDbEntity
  8
A1E-----M5_______Rohbau
  6
Continuous
 62
     7
 48
1000.0
370
    20
100
AcDbLine
 10
40.74686804703553
 20
118.3575366203986
 30
0.0
 11
70.4748851567889
 21
118.3575366203986
 31
0.0
  0
CIRCLE
  5
19C
330
74
100
AcDbEntity
  8
A1E-----M5_______Rohbau
  6
Continuous
 62
     7
 48
1000.0
370
    20
100
AcDbCircle
 10
71.07488515678884
 20
118.3575366203986
 30
0.0
 40
0.6000000000000001
  0
HATCH
  5
19D
330
74
100
AcDbEntity
  8
A1E-----M5_______Rohbau
  6
Continuous
 62
     7
370
    20
100
AcDbHatch
 10
0.0
 20
0.0
 30
0.0
210
0.0
220
0.0
230
1.0
  2
SOLID
 70
     1
 71
     0
 91
        1
 92
        3
 72
     0
 73
     1
 93
       16
 10
70.4748851567889
 20
118.3575366203986
 10
70.52055744417873
 20
118.127926560317
 10
70.65062108411868
 20
117.9332725477284
 10
70.84527509670724
 20
117.8032089077887
 10
71.07488515678884
 20
117.7575366203987
 10
71.30449521687044
 20
117.8032089077887
 10
71.499149229459
 20
117.9332725477284
 10
71.62921286939894
 20
118.127926560317
 10
71.67488515678878
 20
118.3575366203986
 10
71.62921286939894
 20
118.5871466804802
 10
71.499149229459
 20
118.7818006930688
 10
71.30449521687044
 20
118.9118643330087
 10
71.07488515678884
 20
118.9575366203988
 10
70.84527509670724
 20
118.9118643330087
 10
70.65062108411868
 20
118.7818006930688
 10
70.52055744417873
 20
118.5871466804802
 97
        0
 75
     0
 76
     1
 98
        0
  0
LINE
  5
19E
330
74
100
AcDbEntity
  8
A1-----1H2_______Schraffur_1_5
  6
Continuous
 62
     7
 48
1000.0
370
    13
100
AcDbLine
 10
52.94784452608891
 20
88.80634451754355
 30
0.0
 11
52.94784452608891
 21
68.13890972573344
 31
0.0
  0
LINE
  5
19F
330
74
100
AcDbEntity
  8
A1-----1H2_______Schraffur_1_5
  6
Continuous
 62
     7
 48
1000.0
370
    13
100
AcDbLine
 10
44.54784419230329
 20
88.80634451754355
 30
0.0
 11
44.54784419230329
 21
68.13890972573344
 31
0.0
  0
LINE
  5
1A0
330
74
100
AcDbEntity
  8
A1-----1H2_______Schraffur_1_5
  6
Continuous
 62
     7
 48
1000.0
370
    13
100
AcDbLine
 10
40.34784402541013
 20
88.80634451754355
 30
0.0
 11
40.34784402541013
 21
68.13890972573344
 31
0.0
  0
LINE
  5
1A1
330
74
100
AcDbEntity
  8
A1-----1H2_______Schraffur_1_5
  6
Continuous
 62
     7
 48
1000.0
370
    13
100
AcDbLine
 10
36.14784385851699
 20
88.80634451754355
 30
0.0
 11
36.14784385851699
 21
68.13890972573344
 31
0.0
  0
LINE
  5
1A2
330
74
100
AcDbEntity
  8
A1-----1H2_______Schraffur_1_5
  6
Continuous
 62
     7
 48
1000.0
370
    13
100
AcDbLine
 10
34.04784377507064
 20
88.80634451754355
 30
0.0
 11
34.04784377507064
 21
68.13890972573344
 31
0.0
  0
LINE
  5
1A3
330
74
100
AcDbEntity
  8
A1-----1H2_______Schraffur_1_5
  6
Continuous
 62
     7
 48
1000.0
370
    13
100
AcDbLine
 10
31.94784369162452
 20
88.80634451754355
 30
0.0
 11
31.94784369162452
 21
68.13890972573344
 31
0.0
  0
LINE
  5
1A4
330
74
100
AcDbEntity
  8
A1-----1H2_______Schraffur_1_5
  6
Continuous
 62
     7
 48
1000.0
370
    13
100
AcDbLine
 10
29.84784360817838
 20
88.80634451754355
 30
0.0
 11
29.84784360817838
 21
68.13890972573344
 31
0.0
  0
LINE
  5
1A5
330
74
100
AcDbEntity
  8
A1-----1H2_______Schraffur_1_5
  6
Continuous
 62
     7
 48
1000.0
370
    13
100
AcDbLine
 10
27.74784352473203
 20
88.80634451754355
 30
0.0
 11
27.74784352473203
 21
68.13890972573344
 31
0.0
  0
LINE
  5
1A6
330
74
100
AcDbEntity
  8
A1-----1H2_______Schraffur_1_5
  6
Continuous
 62
     7
 48
1000.0
370
    13
100
AcDbLine
 10
25.6478434412859
 20
88.80634451754355
 30
0.0
 11
25.6478434412859
 21
68.13890972573344
 31
0.0
  0
LINE
  5
1A7
330
74
100
AcDbEntity
  8
A1-----1H2_______Schraffur_1_5
  6
Continuous
 62
     7
 48
1000.0
370
    13
100
AcDbLine
 10
23.54784335783955
 20
88.80634451754355
 30
0.0
 11
23.54784335783955
 21
68.13890972573344
 31
0.0
  0
LINE
  5
1A8
330
74
100
AcDbEntity
  8
A1-----1H2_______Schraffur_1_5
  6
Continuous
 62
     7
 48
1000.0
370
    13
100
AcDbLine
 10
22.45729851714451
 20
92.77492565352462
 30
0.0
 11
22.63729852429708
 21
92.67892564970981
 31
0.0
  0
LINE
  5
1A9
330
74
100
AcDbEntity
  8
A1-----1H2_______Schraffur_1_5
  6
Continuous
 62
     7
 48
1000.0
370
    13
100
AcDbLine
 10
21.94729849687849
 20
95.45092575985949
 30
0.0
 11
22.33729851237621
 21
95.48692576129025
 31
0.0
  0
LINE
  5
1AA
330
74
100
AcDbEntity
  8
A1-----1H2_______Schraffur_1_5
  6
Continuous
 62
     7
 48
1000.0
370
    13
100
AcDbLine
 10
21.44784327439342
 20
88.80634451754355
 30
0.0
 11
21.44784327439342
 21
68.13890972573344
 31
0.0
  0
LINE
  5
1AB
330
74
100
AcDbEntity
  8
A1------T2_______Text_1_5
  6
Continuous
 62
   252
 48
1000.0
370
    80
100
AcDbLine
 10
194.9999999999994
 20
231.5633238266018
 30
0.0
 11
19.99999999999913
 21
231.5633238266018
 31
0.0
  0
LINE
  5
1AD
330
74
100
AcDbEntity
  8
A1E-----M5_______Rohbau
  6
Continuous
 62
     7
 48
1000.0
370
    80
100
AcDbLine
 10
19.99999999999913
 20
66.59794167692556
 30
0.0
 11
131.1755329784139
 21
66.59794167692556
 31
0.0
  0
LINE
  5
1AE
330
74
100
AcDbEntity
  8
A1E-----M5_______Rohbau
  6
STRICHLINIE_S4
 62
     7
 48
1000.0
370
    13
100
AcDbLine
 10
19.99999999999913
 20
90.0979416769252
 30
0.0
 11
54.14784460953581
 21
90.0979416769252
 31
0.0
  0
LINE
  5
1AF
330
74
100
AcDbEntity
  8
A1E-----M5_______Rohbau
  6
Continuous
 62
     7
 48
1000.0
370
    25
100
AcDbLine
 10
19.99999999999913
 20
89.69794167692524
 30
0.0
 11
54.54784460953555
 21
89.69794167692524
 31
0.0
  0
LINE
  5
1B0
330
74
100
AcDbEntity
  8
A1E-----M5_______Rohbau
  6
Continuous
 62
     7
 48
1000.0
370
    13
100
AcDbLine
 10
19.99999999999913
 20
106.1302137028359
 30
0.0
 11
49.96857211865113
 21
106.1302137028359
 31
0.0
  0
LINE
  5
1B1
330
74
100
AcDbEntity
  8
A1E-----M5_______Rohbau
  6
Continuous
 62
     7
 48
1000.0
370
    25
100
AcDbLine
 10
19.99999999999913
 20
67.59794167692546
 30
0.0
 11
87.10192570404219
 21
67.59794167692546
 31
0.0
  0
LINE
  5
1B2
330
74
100
AcDbEntity
  8
A1E-----M5_______Rohbau
  6
STRICHPUNKT2_S5
 62
     7
 48
1000.0
370
    25
100
AcDbLine
 10
19.99999999999913
 20
89.44794167692537
 30
0.0
 11
54.79597393377023
 21
89.44794167692537
 31
0.0
  0
LINE
  5
1B3
330
74
100
AcDbEntity
  8
A1E-----M5_______Rohbau
  6
LINIE_34
 62
     1
 48
1000.0
370
    35
100
AcDbLine
 10
19.99999999999913
 20
67.19794167692528
 30
0.0
 11
87.42488515678848
 21
67.19794167692528
 31
0.0
  0
LINE
  5
1B4
330
74
100
AcDbEntity
  8
A1E-----M5_______Rohbau
  6
Continuous
 62
     7
 48
1000.0
370
    20
100
AcDbLine
 10
86.82488515678833
 20
101.8989653079818
 30
0.0
 11
40.74686804703553
 21
101.8989653079818
 31
0.0
  0
CIRCLE
  5
1B5
330
74
100
AcDbEntity
  8
A1E-----M5_______Rohbau
  6
Continuous
 62
     7
 48
1000.0
370
    20
100
AcDbCircle
 10
87.42488515678848
 20
101.8989653079818
 30
0.0
 40
0.6000000000000001
  0
HATCH
  5
1B6
330
74
100
AcDbEntity
  8
A1E-----M5_______Rohbau
  6
Continuous
 62
     7
370
    20
100
AcDbHatch
 10
0.0
 20
0.0
 30
0.0
210
0.0
220
0.0
230
1.0
  2
SOLID
 70
     1
 71
     0
 91
        1
 92
        3
 72
     0
 73
     1
 93
       16
 10
86.82488515678833
 20
101.8989653079818
 10
86.87055744417837
 20
101.6693552479002
 10
87.00062108411832
 20
101.4747012353117
 10
87.19527509670688
 20
101.3446375953719
 10
87.42488515678848
 20
101.2989653079819
 10
87.65449521687007
 20
101.3446375953719
 10
87.84914922945863
 20
101.4747012353117
 10
87.97921286939858
 20
101.6693552479002
 10
88.02488515678841
 20
101.8989653079818
 10
87.97921286939858
 20
102.1285753680634
 10
87.84914922945863
 20
102.323229380652
 10
87.65449521687007
 20
102.4532930205917
 10
87.42488515678848
 20
102.498965307982
 10
87.19527509670688
 20
102.4532930205917
 10
87.00062108411832
 20
102.323229380652
 10
86.87055744417837
 20
102.1285753680634
 97
        0
 75
     0
 76
     1
 98
        0
  0
LINE
  5
1B7
330
74
100
AcDbEntity
  8
A1------T2_______Text_1_5
  6
Continuous
 62
     7
 48
1000.0
370
    20
100
AcDbLine
 10
22.36943141023274
 20
104.0891063180362
 30
0.0
 11
22.36943141023274
 21
157.875008347893
 31
0.0
  0
LINE
  5
1B8
330
74
100
AcDbEntity
  8
A1------T2_______Text_1_5
  6
Continuous
 62
     7
 48
1000.0
370
    20
100
AcDbLine
 10
20.76948148958269
 20
156.130213702836
 30
0.0
 11
46.94833425577549
 21
156.130213702836
 31
0.0
  0
LINE
  5
1B9
330
74
100
AcDbEntity
  8
A1------T2_______Text_1_5
  6
Continuous
 62
     7
 48
1000.0
370
    60
100
AcDbLine
 10
21.42756517769251
 20
157.0720799353762
 30
0.0
 11
23.31129764277362
 21
155.1883474702958
 31
0.0
  0
LINE
  5
1BA
330
74
100
AcDbEntity
  8
A1------T2_______Text_1_5
  6
Continuous
 62
     7
 48
1000.0
370
    13
100
AcDbLine
 10
22.93840822296999
 20
106.1302137028359
 30
0.0
 11
49.1172609891628
 21
106.1302137028359
 31
0.0
  0
LINE
  5
1BB
330
74
100
AcDbEntity
  8
A1------T2_______Text_1_5
  6
Continuous
 62
     7
 48
1000.0
370
    60
100
AcDbLine
 10
21.42756517769251
 20
107.0720799353762
 30
0.0
 11
23.31129764277362
 21
105.1883474702957
 31
0.0
  0
LINE
  5
1BC
330
74
100
AcDbEntity
  8
A1E-----M5_______Rohbau
  6
Continuous
 62
     7
 48
1000.0
370
    13
100
AcDbLine
 10
26.41921416636528
 20
108.2286187818886
 30
0.0
 11
48.51978189961081
 21
108.6243637355067
 31
0.0
  0
LINE
  5
1BD
330
74
100
AcDbEntity
  8
A1E-----M5_______Rohbau
  6
Continuous
 62
     7
 48
1000.0
370
    13
100
AcDbLine
 10
25.16941452105037
 20
108.2062391802132
 30
0.0
 11
26.39683456469011
 21
109.4784184272033
 31
0.0
  0
LINE
  5
1BE
330
74
100
AcDbEntity
  8
A1E-----M5_______Rohbau
  6
Continuous
 62
     7
 48
1000.0
370
    13
100
AcDbLine
 10
25.16941452105037
 20
108.2062391802132
 30
0.0
 11
26.44159376804045
 21
106.9788191365737
 31
0.0
  0
LINE
  5
1BF
330
74
100
AcDbEntity
  8
A1E-----M5_______Rohbau
  6
Continuous
 62
     7
 48
1000.0
370
    13
100
AcDbLine
 10
26.39683456469011
 20
109.4784184272033
 30
0.0
 11
26.44159376804045
 21
106.9788191365737
 31
0.0
  0
HATCH
  5
1C0
330
74
100
AcDbEntity
  8
A1E-----M5_______Rohbau
  6
Continuous
 62
     7
370
    13
100
AcDbHatch
 10
0.0
 20
0.0
 30
0.0
210
0.0
220
0.0
230
1.0
  2
SOLID
 70
     1
 71
     0
 91
        1
 92
        3
 72
     0
 73
     1
 93
        3
 10
25.16941452105037
 20
108.2062391802132
 10
26.44159376804045
 20
106.9788191365737
 10
26.39683456469011
 20
109.4784184272033
 97
        0
 75
     0
 76
     1
 98
        0
  0
LINE
  5
1C1
330
74
100
AcDbEntity
  8
A1E-----M5_______Rohbau
  6
Continuous
 62
     7
 48
1000.0
370
    25
100
AcDbLine
 10
168.752166981593
 20
136.7622127518449
 30
0.0
 11
168.2247719801364
 21
136.7622127518449
 31
0.0
  0
LINE
  5
1C2
330
74
100
AcDbEntity
  8
A1E-----M5_______Rohbau
  6
Continuous
 62
     7
 48
1000.0
370
    13
100
AcDbLine
 10
53.74784460953519
 20
133.9756750619903
 30
0.0
 11
53.74784460953519
 21
135.1101064911813
 31
0.0
  0
LINE
  5
1C3
330
74
100
AcDbEntity
  8
A1E-----M5_______Rohbau
  6
Continuous
 62
     7
 48
1000.0
370
    13
100
AcDbLine
 10
53.74784460953519
 20
133.9756750619903
 30
0.0
 11
53.94784460953539
 21
133.9756750619903
 31
0.0
  0
LINE
  5
1C4
330
74
100
AcDbEntity
  8
A1E-----M5_______Rohbau
  6
Continuous
 62
     7
 48
1000.0
370
    25
100
AcDbLine
 10
54.34784460953534
 20
106.1302137028359
 30
0.0
 11
55.04784460953505
 21
106.1302137028359
 31
0.0
  0
LINE
  5
1C5
330
74
100
AcDbEntity
  8
A1E-----M5_______Rohbau
  6
Continuous
 62
     7
 48
1000.0
370
    13
100
AcDbLine
 10
53.94784460953539
 20
148.1691490620769
 30
0.0
 11
55.04784460953505
 21
148.1691490620769
 31
0.0
  0
LINE
  5
1C6
330
74
100
AcDbEntity
  8
A1E-----M5_______Rohbau
  6
Continuous
 62
     7
 48
1000.0
370
    20
100
AcDbLine
 10
40.74686804703553
 20
114.1726588137972
 30
0.0
 11
53.71997193755118
 21
114.1726588137972
 31
0.0
  0
CIRCLE
  5
1C7
330
74
100
AcDbEntity
  8
A1E-----M5_______Rohbau
  6
Continuous
 62
     7
 48
1000.0
370
    20
100
AcDbCircle
 10
54.31997193755112
 20
114.1726588137972
 30
0.0
 40
0.6000000000000001
  0
HATCH
  5
1C8
330
74
100
AcDbEntity
  8
A1E-----M5_______Rohbau
  6
Continuous
 62
     7
370
    20
100
AcDbHatch
 10
0.0
 20
0.0
 30
0.0
210
0.0
220
0.0
230
1.0
  2
SOLID
 70
     1
 71
     0
 91
        1
 92
        3
 72
     0
 73
     1
 93
       16
 10
53.71997193755118
 20
114.1726588137972
 10
53.76564422494101
 20
113.9430487537156
 10
53.89570786488096
 20
113.7483947411271
 10
54.09036187746952
 20
113.6183311011874
 10
54.31997193755112
 20
113.5726588137971
 10
54.54958199763271
 20
113.6183311011874
 10
54.74423601022127
 20
113.7483947411271
 10
54.87429965016122
 20
113.9430487537156
 10
54.91997193755105
 20
114.1726588137972
 10
54.87429965016122
 20
114.4022688738788
 10
54.74423601022127
 20
114.5969228864674
 10
54.54958199763271
 20
114.7269865264071
 10
54.31997193755112
 20
114.7726588137972
 10
54.09036187746952
 20
114.7269865264071
 10
53.89570786488096
 20
114.5969228864674
 10
53.76564422494101
 20
114.4022688738788
 97
        0
 75
     0
 76
     1
 98
        0
  0
LINE
  5
1C9
330
74
100
AcDbEntity
  8
A1E-----M5_______Rohbau
  6
Continuous
 62
     7
 48
1000.0
370
    30
100
AcDbLine
 10
55.04784460953505
 20
156.130213702836
 30
0.0
 11
86.34784460953493
 21
156.130213702836
 31
0.0
  0
LINE
  5
1CA
330
74
100
AcDbEntity
  8
A1-----1H2_______Schraffur_1_5
  6
Continuous
 62
     7
 48
1000.0
370
    13
100
AcDbLine
 10
86.34784460953493
 20
156.130213702836
 30
0.0
 11
87.74784466967778
 21
156.130213702836
 31
0.0
  0
LINE
  5
1CB
330
74
100
AcDbEntity
  8
A1E-----M5_______Rohbau
  6
Continuous
 62
     7
 48
1000.0
370
    13
100
AcDbLine
 10
58.74784460953485
 20
136.1314159348383
 30
0.0
 11
58.74784460953485
 21
130.130213702836
 31
0.0
  0
LINE
  5
1CC
330
74
100
AcDbEntity
  8
A1E-----M5_______Rohbau
  6
Continuous
 62
     7
 48
1000.0
370
    13
100
AcDbLine
 10
58.42647991428041
 20
136.1314159348383
 30
0.0
 11
58.42647991428041
 21
130.130213702836
 31
0.0
  0
LINE
  5
1CD
330
74
100
AcDbEntity
  8
A1E-----M5_______Rohbau
  6
Continuous
 62
     7
 48
1000.0
370
    13
100
AcDbLine
 10
64.27531736791315
 20
131.5791336775474
 30
0.0
 11
65.32510870574471
 21
130.8292827219533
 31
0.0
  0
LINE
  5
1CE
330
74
100
AcDbEntity
  8
A1E-----M5_______Rohbau
  6
Continuous
 62
     7
 48
1000.0
370
    13
100
AcDbLine
 10
58.42647991428041
 20
136.1314159348383
 30
0.0
 11
58.74784460953485
 21
136.1314159348383
 31
0.0
  0
LINE
  5
1CF
330
74
100
AcDbEntity
  8
A1E-----M5_______Rohbau
  6
Continuous
 62
     7
 48
1000.0
370
    13
100
AcDbLine
 10
58.74784460953485
 20
131.5791336775474
 30
0.0
 11
64.27531736791315
 21
131.5791336775474
 31
0.0
  0
LINE
  5
1D0
330
74
100
AcDbEntity
  8
A1E-----M5_______Rohbau
  6
Continuous
 62
     7
 48
1000.0
370
    13
100
AcDbLine
 10
58.74784460953485
 20
124.1290114708333
 30
0.0
 11
58.74784460953485
 21
130.130213702836
 31
0.0
  0
LINE
  5
1D1
330
74
100
AcDbEntity
  8
A1E-----M5_______Rohbau
  6
Continuous
 62
     7
 48
1000.0
370
    13
100
AcDbLine
 10
58.42647991428041
 20
124.1290114708333
 30
0.0
 11
58.42647991428041
 21
130.130213702836
 31
0.0
  0
LINE
  5
1D2
330
74
100
AcDbEntity
  8
A1E-----M5_______Rohbau
  6
Continuous
 62
     7
 48
1000.0
370
    13
100
AcDbLine
 10
64.27531736791315
 20
128.6812937281241
 30
0.0
 11
65.32510870574471
 21
129.4311446837182
 31
0.0
  0
LINE
  5
1D3
330
74
100
AcDbEntity
  8
A1E-----M5_______Rohbau
  6
Continuous
 62
     7
 48
1000.0
370
    13
100
AcDbLine
 10
58.42647991428041
 20
124.1290114708333
 30
0.0
 11
58.74784460953485
 21
124.1290114708333
 31
0.0
  0
LINE
  5
1D4
330
74
100
AcDbEntity
  8
A1E-----M5_______Rohbau
  6
Continuous
 62
     7
 48
1000.0
370
    13
100
AcDbLine
 10
58.74784460953485
 20
128.6812937281241
 30
0.0
 11
64.27531736791315
 21
128.6812937281241
 31
0.0
  0
LINE
  5
1D5
330
74
100
AcDbEntity
  8
A1E-----M5_______Rohbau
  6
Continuous
 62
     7
 48
1000.0
370
    25
100
AcDbLine
 10
65.42124822176731
 20
129.1311446837182
 30
0.0
 11
64.37145688393598
 21
128.3812937281241
 31
0.0
  0
LINE
  5
1D6
330
74
100
AcDbEntity
  8
A1E-----M5_______Rohbau
  6
Continuous
 62
     7
 48
1000.0
370
    25
100
AcDbLine
 10
64.37145688393598
 20
128.3812937281241
 30
0.0
 11
59.04784460953505
 21
128.3812937281241
 31
0.0
  0
LINE
  5
1D7
330
74
100
AcDbEntity
  8
A1E-----M5_______Rohbau
  6
Continuous
 62
     7
 48
1000.0
370
    25
100
AcDbLine
 10
59.04784460953505
 20
131.8791336775473
 30
0.0
 11
64.37145688393598
 21
131.8791336775473
 31
0.0
  0
LINE
  5
1D8
330
74
100
AcDbEntity
  8
A1E-----M5_______Rohbau
  6
Continuous
 62
     7
 48
1000.0
370
    25
100
AcDbLine
 10
64.37145688393598
 20
131.8791336775473
 30
0.0
 11
65.42124822176731
 21
131.1292827219532
 31
0.0
  0
LINE
  5
1D9
330
74
100
AcDbEntity
  8
A1E-----M5_______Rohbau
  6
Continuous
 62
     7
 48
1000.0
370
    25
100
AcDbLine
 10
59.04784460953505
 20
136.4314159348383
 30
0.0
 11
59.04784460953505
 21
131.8791336775473
 31
0.0
  0
LINE
  5
1DA
330
74
100
AcDbEntity
  8
A1E-----M5_______Rohbau
  6
Continuous
 62
     7
 48
1000.0
370
    25
100
AcDbLine
 10
59.04784460953505
 20
128.3812937281241
 30
0.0
 11
59.04784460953505
 21
123.8290114708331
 31
0.0
  0
LINE
  5
1DB
330
74
100
AcDbEntity
  8
A1E-----M5_______Rohbau
  6
Continuous
 62
     7
 48
1000.0
370
    25
100
AcDbLine
 10
55.04784460953505
 20
136.4314159348383
 30
0.0
 11
59.04784460953505
 21
136.4314159348383
 31
0.0
  0
LINE
  5
1DC
330
74
100
AcDbEntity
  8
A1E-----M5_______Rohbau
  6
Continuous
 62
     7
 48
1000.0
370
    25
100
AcDbLine
 10
59.04784460953505
 20
123.8290114708331
 30
0.0
 11
55.04784460953505
 21
123.8290114708331
 31
0.0
  0
LINE
  5
1DD
330
74
100
AcDbEntity
  8
A1E-----M5_______Rohbau
  6
Continuous
 62
     7
 48
1000.0
370
    25
100
AcDbLine
 10
57.87858127683365
 20
136.4314159348383
 30
0.0
 11
57.87858127683365
 21
123.8290114708331
 31
0.0
  0
LINE
  5
1DE
330
74
100
AcDbEntity
  8
A1-----1H2_______Schraffur_1_5
  6
Continuous
 62
     7
 48
1000.0
370
    13
100
AcDbLine
 10
57.8785812768341
 20
130.7307860753673
 30
0.0
 11
55.04784460953505
 21
130.7307860753673
 31
0.0
  0
LINE
  5
1DF
330
74
100
AcDbEntity
  8
A1-----1H2_______Schraffur_1_5
  6
Continuous
 62
     7
 48
1000.0
370
    13
100
AcDbLine
 10
55.04784460953505
 20
132.1307860962286
 30
0.0
 11
57.8785812768341
 21
132.1307860962286
 31
0.0
  0
LINE
  5
1E0
330
74
100
AcDbEntity
  8
A1-----1H2_______Schraffur_1_5
  6
Continuous
 62
     7
 48
1000.0
370
    13
100
AcDbLine
 10
57.8785812768341
 20
126.530786012782
 30
0.0
 11
55.04784460953505
 21
126.530786012782
 31
0.0
  0
LINE
  5
1E1
330
74
100
AcDbEntity
  8
A1-----1H2_______Schraffur_1_5
  6
Continuous
 62
     7
 48
1000.0
370
    13
100
AcDbLine
 10
57.8785812768341
 20
133.5307861170905
 30
0.0
 11
55.04784460953505
 21
133.5307861170905
 31
0.0
  0
LINE
  5
1E2
330
74
100
AcDbEntity
  8
A1-----1H2_______Schraffur_1_5
  6
Continuous
 62
     7
 48
1000.0
370
    13
100
AcDbLine
 10
57.8785812768341
 20
127.9307860336438
 30
0.0
 11
55.04784460953505
 21
127.9307860336438
 31
0.0
  0
LINE
  5
1E3
330
74
100
AcDbEntity
  8
A1-----1H2_______Schraffur_1_5
  6
Continuous
 62
     7
 48
1000.0
370
    13
100
AcDbLine
 10
57.8785812768341
 20
129.3307860545054
 30
0.0
 11
55.04784460953505
 21
129.3307860545054
 31
0.0
  0
LINE
  5
1E4
330
74
100
AcDbEntity
  8
A1E-----M5_______Rohbau
  6
Continuous
 62
     7
 48
1000.0
370
    13
100
AcDbLine
 10
92.40888569817106
 20
130.2174793938244
 30
0.0
 11
93.09358125155343
 21
130.3218075288208
 31
0.0
  0
LINE
  5
1E5
330
74
100
AcDbEntity
  8
A1E-----M5_______Rohbau
  6
Continuous
 62
     7
 48
1000.0
370
    13
100
AcDbLine
 10
92.44139366557103
 20
130.0348311461113
 30
0.0
 11
93.1106846109131
 21
129.9659871325256
 31
0.0
  0
LINE
  5
1E6
330
74
100
AcDbEntity
  8
A1E-----M5_______Rohbau
  6
Continuous
 62
     7
 48
1000.0
370
    13
100
AcDbLine
 10
100.7605757162853
 20
130.2310610891071
 30
0.0
 11
100.935928098415
 21
130.2310610891071
 31
0.0
  0
LINE
  5
1E7
330
74
100
AcDbEntity
  8
A1E-----M5_______Rohbau
  6
Continuous
 62
     7
 48
1000.0
370
    13
100
AcDbLine
 10
100.935928098415
 20
130.2310610891071
 30
0.0
 11
100.935928098415
 21
130.130213702836
 31
0.0
  0
LINE
  5
1E8
330
74
100
AcDbEntity
  8
A1E-----M5_______Rohbau
  6
Continuous
 62
     7
 48
1000.0
370
    13
100
AcDbLine
 10
99.37741939520572
 20
130.4899321502182
 30
0.0
 11
99.35157192212097
 21
130.3560384091072
 31
0.0
  0
LINE
  5
1E9
330
74
100
AcDbEntity
  8
A1E-----M5_______Rohbau
  6
Continuous
 62
     7
 48
1000.0
370
    13
100
AcDbLine
 10
100.0833334960627
 20
130.3548489889015
 30
0.0
 11
100.0833334960627
 21
129.8335306023164
 31
0.0
  0
LINE
  5
1EA
330
74
100
AcDbEntity
  8
A1E-----M5_______Rohbau
  6
Continuous
 62
     7
 48
1000.0
370
    13
100
AcDbLine
 10
100.7605757162853
 20
130.8292827219533
 30
0.0
 11
100.7605757162853
 21
130.130213702836
 31
0.0
  0
LINE
  5
1EB
330
74
100
AcDbEntity
  8
A1E-----M5_______Rohbau
  6
Continuous
 62
     7
 48
1000.0
370
    13
100
AcDbLine
 10
100.7605757162853
 20
130.0293663165644
 30
0.0
 11
100.935928098415
 21
130.0293663165644
 31
0.0
  0
LINE
  5
1EC
330
74
100
AcDbEntity
  8
A1E-----M5_______Rohbau
  6
Continuous
 62
     7
 48
1000.0
370
    13
100
AcDbLine
 10
100.935928098415
 20
130.0293663165644
 30
0.0
 11
100.935928098415
 21
130.130213702836
 31
0.0
  0
LINE
  5
1ED
330
74
100
AcDbEntity
  8
A1E-----M5_______Rohbau
  6
Continuous
 62
     7
 48
1000.0
370
    13
100
AcDbLine
 10
100.7605757162853
 20
129.4311446837182
 30
0.0
 11
100.7605757162853
 21
130.130213702836
 31
0.0
  0
LINE
  5
1EE
330
74
100
AcDbEntity
  8
A1E-----M5_______Rohbau
  6
Continuous
 62
     7
 48
1000.0
370
    25
100
AcDbLine
 10
100.8721093875469
 20
129.1500658652762
 30
0.0
 11
101.362617613469
 21
130.130213702836
 31
0.0
  0
LINE
  5
1EF
330
74
100
AcDbEntity
  8
A1E-----M5_______Rohbau
  6
Continuous
 62
     7
 48
1000.0
370
    25
100
AcDbLine
 10
65.42124822176731
 20
131.1292827219532
 30
0.0
 11
92.44794226578468
 21
131.1292827219532
 31
0.0
  0
LINE
  5
1F0
330
74
100
AcDbEntity
  8
A1E-----M5_______Rohbau
  6
Continuous
 62
     7
 48
1000.0
370
    13
100
AcDbLine
 10
65.32510870574471
 20
130.8292827219533
 30
0.0
 11
92.44794226570141
 21
130.8292827219533
 31
0.0
  0
LINE
  5
1F1
330
74
100
AcDbEntity
  8
A1E-----M5_______Rohbau
  6
Continuous
 62
     7
 48
1000.0
370
    13
100
AcDbLine
 10
65.32510870574471
 20
129.4311446837182
 30
0.0
 11
92.44794226570141
 21
129.4311446837182
 31
0.0
  0
LINE
  5
1F2
330
74
100
AcDbEntity
  8
A1E-----M5_______Rohbau
  6
Continuous
 62
     7
 48
1000.0
370
    25
100
AcDbLine
 10
92.44794226570075
 20
129.1311446837182
 30
0.0
 11
65.42124822176731
 21
129.1311446837182
 31
0.0
  0
LINE
  5
1F3
330
74
100
AcDbEntity
  8
A1E-----M5_______Rohbau
  6
Continuous
 62
     7
 48
1000.0
370
    25
100
AcDbLine
 10
100.8721093875469
 20
131.1103615403957
 30
0.0
 11
101.362617613469
 21
130.130213702836
 31
0.0
  0
LINE
  5
1F5
330
74
100
AcDbEntity
  8
A1E-----M5_______Rohbau
  6
GETRENNT2_S6
 62
     7
 48
1000.0
370
    13
100
AcDbLine
 10
57.78771234744795
 20
130.130213702836
 30
0.0
 11
101.362617613469
 21
130.130213702836
 31
0.0
  0
LINE
  5
1F6
330
74
100
AcDbEntity
  8
A1-----1H2_______Schraffur_1_5
  6
Continuous
 62
     7
 48
1000.0
370
    13
100
AcDbLine
 10
57.8785812768341
 20
134.9307861379523
 30
0.0
 11
55.04784460953505
 21
134.9307861379523
 31
0.0
  0
LINE
  5
1F7
330
74
100
AcDbEntity
  8
A1-----1H2_______Schraffur_1_5
  6
Continuous
 62
     7
 48
1000.0
370
    13
100
AcDbLine
 10
57.8785812768341
 20
125.1307859919202
 30
0.0
 11
55.04784460953505
 21
125.1307859919202
 31
0.0
  0
LINE
  5
1F8
330
74
100
AcDbEntity
  8
A1------T2_______Text_1_5
  6
Continuous
 62
     7
 48
1000.0
370
    60
100
AcDbLine
 10
27.94933278084488
 20
131.0720799353762
 30
0.0
 11
29.83306524592599
 21
129.1883474702957
 31
0.0
  0
LINE
  5
1F9
330
74
100
AcDbEntity
  8
A1------T2_______Text_1_5
  6
Continuous
 62
     7
 48
1000.0
370
    20
100
AcDbLine
 10
28.89119901338511
 20
104.0891063180362
 30
0.0
 11
28.89119901338511
 21
132.6011861679666
 31
0.0
  0
LINE
  5
1FA
330
74
100
AcDbEntity
  8
A1------T2_______Text_1_5
  6
Continuous
 62
     7
 48
1000.0
370
    60
100
AcDbLine
 10
27.94933278084488
 20
107.0720799353762
 30
0.0
 11
29.83306524592599
 21
105.1883474702957
 31
0.0
  0
LINE
  5
1FB
330
74
100
AcDbEntity
  8
A1------T2_______Text_1_5
  6
Continuous
 62
     7
 48
1000.0
370
    20
100
AcDbLine
 10
25.35936672526273
 20
130.130213702836
 30
0.0
 11
49.63714299444533
 21
130.130213702836
 31
0.0
  0
LINE
  5
1FC
330
74
100
AcDbEntity
  8
A1E-----M5_______Rohbau
  6
Continuous
 62
     7
 48
1000.0
370
    30
100
AcDbLine
 10
86.34784460953493
 20
129.1311446837182
 30
0.0
 11
86.34784460953493
 21
67.59794167692546
 31
0.0
  0
LINE
  5
1FD
330
74
100
AcDbEntity
  8
A1E-----M5_______Rohbau
  6
Continuous
 62
     7
 48
1000.0
370
    30
100
AcDbLine
 10
86.34784460953493
 20
130.8292827219533
 30
0.0
 11
86.34784460953493
 21
130.130213702836
 31
0.0
  0
LINE
  5
1FE
330
74
100
AcDbEntity
  8
A1E-----M5_______Rohbau
  6
STRICHPUNKT2_S5
 62
     7
 48
1000.0
370
    25
100
AcDbLine
 10
86.70192570404178
 20
130.4937615995605
 30
0.0
 11
86.70192570404178
 21
130.130213702836
 31
0.0
  0
LINE
  5
1FF
330
74
100
AcDbEntity
  8
A1E-----M5_______Rohbau
  6
STRICHPUNKT2_S5
 62
     7
 48
1000.0
370
    25
100
AcDbLine
 10
86.70192570404178
 20
129.1311446837182
 30
0.0
 11
86.70192570404178
 21
67.59794167692546
 31
0.0
  0
ELLIPSE
  5
200
330
74
100
AcDbEntity
  8
A1-----1H2_______Schraffur_1_5
  6
Continuous
 62
     7
 48
1000.0
370
    13
100
AcDbEllipse
 10
50.76229964188417
 20
101.1389259858801
 30
0.0
 11
2.057406704322052E-17
 21
0.3360000133515229
 31
0.0
210
0.0
220
0.0
230
1.0
 40
0.9821428571428568
 41
0.0
 42
6.283185307179586
  0
ELLIPSE
  5
201
330
74
100
AcDbEntity
  8
A1-----1H2_______Schraffur_1_5
  6
Continuous
 62
     7
 48
1000.0
370
    13
100
AcDbEllipse
 10
35.76229904583772
 20
93.9389256997778
 30
0.0
 11
2.057406704322052E-17
 21
0.3360000133515229
 31
0.0
210
0.0
220
0.0
230
1.0
 40
0.9821428571428568
 41
0.0
 42
6.283185307179586
  0
ELLIPSE
  5
202
330
74
100
AcDbEntity
  8
A1-----1H2_______Schraffur_1_5
  6
Continuous
 62
     7
 48
1000.0
370
    13
100
AcDbEllipse
 10
50.76229964188417
 20
93.9389256997778
 30
0.0
 11
2.057406704322052E-17
 21
0.3360000133515229
 31
0.0
210
0.0
220
0.0
230
1.0
 40
0.9821428571428568
 41
0.0
 42
6.283185307179586
  0
ELLIPSE
  5
203
330
74
100
AcDbEntity
  8
A1-----1H2_______Schraffur_1_5
  6
Continuous
 62
     7
 48
1000.0
370
    13
100
AcDbEllipse
 10
28.30729874960225
 20
96.42292579848322
 30
0.0
 11
2.057406704322052E-17
 21
0.3360000133515229
 31
0.0
210
0.0
220
0.0
230
1.0
 40
0.9821428571428568
 41
0.0
 42
6.283185307179586
  0
ELLIPSE
  5
204
330
74
100
AcDbEntity
  8
A1-----1H2_______Schraffur_1_5
  6
Continuous
 62
     7
 48
1000.0
370
    13
100
AcDbEllipse
 10
43.3072993456487
 20
96.42292579848322
 30
0.0
 11
2.057406704322052E-17
 21
0.3360000133515229
 31
0.0
210
0.0
220
0.0
230
1.0
 40
0.9821428571428568
 41
0.0
 42
6.283185307179586
  0
ELLIPSE
  5
205
330
74
100
AcDbEntity
  8
A1-----1H2_______Schraffur_1_5
  6
Continuous
 62
     7
 48
1000.0
370
    13
100
AcDbEllipse
 10
28.2622987478145
 20
90.33892555672662
 30
0.0
 11
2.057406704322659E-17
 21
0.336000013351622
 31
0.0
210
0.0
220
0.0
230
1.0
 40
0.9821428571428568
 41
5.205379307862483
 42
7.36099130649669
  0
ELLIPSE
  5
206
330
74
100
AcDbEntity
  8
A1-----1H2_______Schraffur_1_5
  6
Continuous
 62
     7
 48
1000.0
370
    13
100
AcDbEllipse
 10
23.86729857317271
 20
93.85492569644005
 30
0.0
 11
2.057406704322052E-17
 21
0.3360000133515229
 31
0.0
210
0.0
220
0.0
230
1.0
 40
0.9821428571428568
 41
0.0
 42
6.283185307179586
  0
ELLIPSE
  5
207
330
74
100
AcDbEntity
  8
A1-----1H2_______Schraffur_1_5
  6
Continuous
 62
     7
 48
1000.0
370
    13
100
AcDbEllipse
 10
38.86729916921916
 20
93.85492569644005
 30
0.0
 11
2.057406704322052E-17
 21
0.3360000133515229
 31
0.0
210
0.0
220
0.0
230
1.0
 40
0.9821428571428568
 41
0.0
 42
6.283185307179586
  0
ELLIPSE
  5
208
330
74
100
AcDbEntity
  8
A1-----1H2_______Schraffur_1_5
  6
Continuous
 62
     7
 48
1000.0
370
    13
100
AcDbEllipse
 10
34.26229898623312
 20
97.53892584282897
 30
0.0
 11
2.057406704322052E-17
 21
0.3360000133515229
 31
0.0
210
0.0
220
0.0
230
1.0
 40
0.9821428571428568
 41
0.0
 42
6.283185307179586
  0
ELLIPSE
  5
209
330
74
100
AcDbEntity
  8
A1-----1H2_______Schraffur_1_5
  6
Continuous
 62
     7
 48
1000.0
370
    13
100
AcDbEllipse
 10
49.26229958227957
 20
97.53892584282897
 30
0.0
 11
2.057406704322052E-17
 21
0.3360000133515229
 31
0.0
210
0.0
220
0.0
230
1.0
 40
0.9821428571428568
 41
0.0
 42
6.283185307179586
  0
ELLIPSE
  5
20A
330
74
100
AcDbEntity
  8
A1-----1H2_______Schraffur_1_5
  6
Continuous
 62
     7
 48
1000.0
370
    13
100
AcDbEllipse
 10
30.81229884914216
 20
93.9629257007315
 30
0.0
 11
2.057406704322052E-17
 21
0.3360000133515229
 31
0.0
210
0.0
220
0.0
230
1.0
 40
0.9821428571428568
 41
0.0
 42
6.283185307179586
  0
ELLIPSE
  5
20B
330
74
100
AcDbEntity
  8
A1-----1H2_______Schraffur_1_5
  6
Continuous
 62
     7
 48
1000.0
370
    13
100
AcDbEllipse
 10
45.81229944518861
 20
93.9629257007315
 30
0.0
 11
2.057406704322052E-17
 21
0.3360000133515229
 31
0.0
210
0.0
220
0.0
230
1.0
 40
0.9821428571428568
 41
0.0
 42
6.283185307179586
  0
ELLIPSE
  5
20C
330
74
100
AcDbEntity
  8
A1-----1H2_______Schraffur_1_5
  6
Continuous
 62
     7
 48
1000.0
370
    13
100
AcDbEllipse
 10
23.41729855529118
 20
97.37092583615348
 30
0.0
 11
2.057406704322052E-17
 21
0.3360000133515229
 31
0.0
210
0.0
220
0.0
230
1.0
 40
0.9821428571428568
 41
0.0
 42
6.283185307179586
  0
ELLIPSE
  5
20D
330
74
100
AcDbEntity
  8
A1-----1H2_______Schraffur_1_5
  6
Continuous
 62
     7
 48
1000.0
370
    13
100
AcDbEllipse
 10
38.41729915133762
 20
97.37092583615348
 30
0.0
 11
2.057406704322052E-17
 21
0.3360000133515229
 31
0.0
210
0.0
220
0.0
230
1.0
 40
0.9821428571428568
 41
0.0
 42
6.283185307179586
  0
ELLIPSE
  5
20E
330
74
100
AcDbEntity
  8
A1-----1H2_______Schraffur_1_5
  6
Continuous
 62
     7
 48
1000.0
370
    13
100
AcDbEllipse
 10
53.41729974738407
 20
97.37092583615348
 30
0.0
 11
2.057406704321192E-17
 21
0.3360000133513823
 31
0.0
210
0.0
220
0.0
230
1.0
 40
0.9821428571428568
 41
0.2120558120718596
 42
2.929536841517933
  0
ELLIPSE
  5
20F
330
74
100
AcDbEntity
  8
A1-----1H2_______Schraffur_1_5
  6
Continuous
 62
     7
 48
1000.0
370
    13
100
AcDbEllipse
 10
27.67729872456881
 20
93.48292568165806
 30
0.0
 11
2.057406704322052E-17
 21
0.3360000133515229
 31
0.0
210
0.0
220
0.0
230
1.0
 40
0.9821428571428568
 41
0.0
 42
6.283185307179586
  0
ELLIPSE
  5
210
330
74
100
AcDbEntity
  8
A1-----1H2_______Schraffur_1_5
  6
Continuous
 62
     7
 48
1000.0
370
    13
100
AcDbEllipse
 10
42.67729932061526
 20
93.48292568165806
 30
0.0
 11
2.057406704322052E-17
 21
0.3360000133515229
 31
0.0
210
0.0
220
0.0
230
1.0
 40
0.9821428571428568
 41
0.0
 42
6.283185307179586
  0
ELLIPSE
  5
211
330
74
100
AcDbEntity
  8
A1-----1H2_______Schraffur_1_5
  6
Continuous
 62
     7
 48
1000.0
370
    13
100
AcDbEllipse
 10
31.21729886523528
 20
90.62692556817065
 30
0.0
 11
2.057406704320984E-17
 21
0.3360000133513484
 31
0.0
210
0.0
220
0.0
230
1.0
 40
0.9821428571428568
 41
5.650758739522896
 42
6.915611874833946
  0
ELLIPSE
  5
212
330
74
100
AcDbEntity
  8
A1-----1H2_______Schraffur_1_5
  6
Continuous
 62
     7
 48
1000.0
370
    13
100
AcDbEllipse
 10
46.21729946128173
 20
90.62692556817065
 30
0.0
 11
2.057406704322920E-17
 21
0.3360000133516646
 31
0.0
210
0.0
220
0.0
230
1.0
 40
0.9821428571428567
 41
5.650758745123826
 42
6.915611869235346
  0
ELLIPSE
  5
213
330
74
100
AcDbEntity
  8
A1-----1H2_______Schraffur_1_5
  6
Continuous
 62
     7
 48
1000.0
370
    13
100
AcDbEllipse
 10
33.78229896715968
 20
91.46692560154924
 30
0.0
 11
2.057406704322052E-17
 21
0.3360000133515229
 31
0.0
210
0.0
220
0.0
230
1.0
 40
0.9821428571428568
 41
0.0
 42
6.283185307179586
  0
ELLIPSE
  5
214
330
74
100
AcDbEntity
  8
A1-----1H2_______Schraffur_1_5
  6
Continuous
 62
     7
 48
1000.0
370
    13
100
AcDbEllipse
 10
48.78229956320612
 20
91.46692560154924
 30
0.0
 11
2.057406704322052E-17
 21
0.3360000133515229
 31
0.0
210
0.0
220
0.0
230
1.0
 40
0.9821428571428568
 41
0.0
 42
6.283185307179586
  0
ARC
  5
215
330
74
100
AcDbEntity
  8
A1E-----M5_______Rohbau
  6
Continuous
 62
     7
 48
1000.0
370
    13
100
AcDbCircle
 10
53.14784460953526
 20
137.2420141639985
 30
0.0
 40
0.4000000000001336
100
AcDbArc
 50
90.0
 51
270.0
  0
ARC
  5
216
330
74
100
AcDbEntity
  8
A1E-----M5_______Rohbau
  6
Continuous
 62
     7
 48
1000.0
370
    25
100
AcDbCircle
 10
166.6425869757651
 20
144.7900696243412
 30
0.0
 40
1.054790002913819
100
AcDbArc
 50
90.0
 51
270.0
  0
CIRCLE
  5
217
330
74
100
AcDbEntity
  8
A1E-----M5_______Rohbau
  6
Continuous
 62
   252
 48
1000.0
370
    80
100
AcDbCircle
 10
53.54784460953566
 20
141.429058841307
 30
0.0
 40
10.29264293302425
  0
ELLIPSE
  5
218
330
74
100
AcDbEntity
  8
A1-----1H2_______Schraffur_1_5
  6
Continuous
 62
     7
 48
1000.0
370
    13
100
AcDbEllipse
 10
20.76229844979127
 20
93.9389256997778
 30
0.0
 11
2.057406704322052E-17
 21
0.3360000133515229
 31
0.0
210
0.0
220
0.0
230
1.0
 40
0.9821428571428568
 41
0.0
 42
6.283185307179586
  0
ELLIPSE
  5
219
330
74
100
AcDbEntity
  8
A1-----1H2_______Schraffur_1_5
  6
Continuous
 62
     7
 48
1000.0
370
    13
100
AcDbEllipse
 10
20.44138387733585
 20
91.78296127041818
 30
0.0
 11
2.057406704322052E-17
 21
0.3360000133515229
 31
0.0
210
0.0
220
0.0
230
1.0
 40
0.9821428571428568
 41
0.0
 42
6.283185307179586
  0
ARC
  5
21A
330
74
100
AcDbEntity
  8
A1E-----M5_______Rohbau
  6
Continuous
 62
     7
 48
1000.0
370
    13
100
AcDbCircle
 10
95.62857729518481
 20
130.1302137028357
 30
0.0
 40
37.68302638811927
100
AcDbArc
 50
170.8363561152587
 51
189.1636438847412
  0
ARC
  5
21B
330
74
100
AcDbEntity
  8
A1E-----M5_______Rohbau
  6
Continuous
 62
     7
 48
1000.0
370
    13
100
AcDbCircle
 10
93.45691507895926
 20
130.379523954979
 30
0.0
 40
0.3678894616401139
100
AcDbArc
 50
7.587881189152585
 51
189.0261503406657
  0
ARC
  5
21C
330
74
100
AcDbEntity
  8
A1E-----M5_______Rohbau
  6
Continuous
 62
     7
 48
1000.0
370
    13
100
AcDbCircle
 10
94.86191967294366
 20
130.566362603171
 30
0.0
 40
0.340714087323558
100
AcDbArc
 50
5.274420873352492
 51
187.5612015364418
  0
ARC
  5
21D
330
74
100
AcDbEntity
  8
A1E-----M5_______Rohbau
  6
Continuous
 62
     7
 48
1000.0
370
    13
100
AcDbCircle
 10
94.17286474990294
 20
130.4748979122472
 30
0.0
 40
0.3543848097064807
100
AcDbArc
 50
187.58788118921
 51
7.561201536446522
  0
ARC
  5
21E
330
74
100
AcDbEntity
  8
A1E-----M5_______Rohbau
  6
Continuous
 62
     7
 48
1000.0
370
    13
100
AcDbCircle
 10
96.23504808283157
 20
130.6526434879976
 30
0.0
 40
0.3488346725100294
100
AcDbArc
 50
359.5496420128553
 51
181.9362161675278
  0
ARC
  5
21F
330
74
100
AcDbEntity
  8
A1E-----M5_______Rohbau
  6
Continuous
 62
     7
 48
1000.0
370
    13
100
AcDbCircle
 10
95.54317280682855
 20
130.6292538023319
 30
0.0
 40
0.3434358489913563
100
AcDbArc
 50
185.2744208733087
 51
1.936216167612918
  0
ARC
  5
220
330
74
100
AcDbEntity
  8
A1E-----M5_______Rohbau
  6
Continuous
 62
     7
 48
1000.0
370
    13
100
AcDbCircle
 10
97.63364566005505
 20
130.6266400790055
 30
0.0
 40
0.348949095831289
100
AcDbArc
 50
0.0
 51
180.0101113474059
  0
ARC
  5
221
330
74
100
AcDbEntity
  8
A1E-----M5_______Rohbau
  6
Continuous
 62
     7
 48
1000.0
370
    13
100
AcDbCircle
 10
96.93467210804263
 20
130.6498938710741
 30
0.0
 40
0.3508001287937314
100
AcDbArc
 50
179.5509036478801
 51
356.1891178203896
  0
ARC
  5
222
330
74
100
AcDbEntity
  8
A1E-----M5_______Rohbau
  6
Continuous
 62
     7
 48
1000.0
370
    13
100
AcDbCircle
 10
98.32243982559707
 20
130.5699130986597
 30
0.0
 40
0.3445469804043845
100
AcDbArc
 50
170.5235489613152
 51
0.0
  0
ARC
  5
223
330
74
100
AcDbEntity
  8
A1E-----M5_______Rohbau
  6
Continuous
 62
     7
 48
1000.0
370
    13
100
AcDbCircle
 10
99.01770094782303
 20
130.4899321502182
 30
0.0
 40
0.3597184473824443
100
AcDbArc
 50
0.0
 51
167.1533025839255
  0
ARC
  5
224
330
74
100
AcDbEntity
  8
A1E-----M5_______Rohbau
  6
Continuous
 62
     7
 48
1000.0
370
    13
100
AcDbCircle
 10
99.71745174243796
 20
130.3548489889015
 30
0.0
 40
0.3658817536248083
100
AcDbArc
 50
179.813740703898
 51
0.0
  0
ARC
  5
225
330
74
100
AcDbEntity
  8
A1E-----M5_______Rohbau
  6
Continuous
 62
     7
 48
1000.0
370
    13
100
AcDbCircle
 10
99.01843205441475
 20
129.7778779862215
 30
0.0
 40
0.3488255426586639
100
AcDbArc
 50
8.505219617689347
 51
187.9562101226714
  0
ARC
  5
226
330
74
100
AcDbEntity
  8
A1E-----M5_______Rohbau
  6
Continuous
 62
     7
 48
1000.0
370
    13
100
AcDbCircle
 10
99.72308544072139
 20
129.8832547686866
 30
0.0
 40
0.3636635176897272
100
AcDbArc
 50
188.5052196177234
 51
352.1412585347613
  0
ARC
  5
227
330
74
100
AcDbEntity
  8
A1E-----M5_______Rohbau
  6
Continuous
 62
     7
 48
1000.0
370
    13
100
AcDbCircle
 10
98.32327009851282
 20
129.6807210772977
 30
0.0
 40
0.3530929781718858
100
AcDbArc
 50
183.1433938091672
 51
7.956210122603447
  0
ARC
  5
228
330
74
100
AcDbEntity
  8
A1E-----M5_______Rohbau
  6
Continuous
 62
     7
 48
1000.0
370
    13
100
AcDbCircle
 10
97.6295677062189
 20
129.6426245501519
 30
0.0
 40
0.3416547130476356
100
AcDbArc
 50
3.143393809166367
 51
182.861363091999
  0
ARC
  5
229
330
74
100
AcDbEntity
  8
A1E-----M5_______Rohbau
  6
Continuous
 62
     7
 48
1000.0
370
    13
100
AcDbCircle
 10
96.93151434169178
 20
129.6077346103195
 30
0.0
 40
0.3572700380009624
100
AcDbArc
 50
180.2327933047608
 51
2.861363091940393
  0
ARC
  5
22A
330
74
100
AcDbEntity
  8
A1E-----M5_______Rohbau
  6
Continuous
 62
     7
 48
1000.0
370
    13
100
AcDbCircle
 10
96.23375233782471
 20
129.6048995809676
 30
0.0
 40
0.3404977252501064
100
AcDbArc
 50
0.2327933047971813
 51
176.8749494337106
  0
ARC
  5
22B
330
74
100
AcDbEntity
  8
A1E-----M5_______Rohbau
  6
Continuous
 62
     7
 48
1000.0
370
    13
100
AcDbCircle
 10
95.55014301222498
 20
129.6422223065634
 30
0.0
 40
0.3441296886713284
100
AcDbArc
 50
175.8706245019105
 51
356.8749494336955
  0
ARC
  5
22C
330
74
100
AcDbEntity
  8
A1E-----M5_______Rohbau
  6
Continuous
 62
     7
 48
1000.0
370
    13
100
AcDbCircle
 10
94.85963579263257
 20
129.6920743341101
 30
0.0
 40
0.3481747566127187
100
AcDbArc
 50
355.8706245019051
 51
173.0744307417092
  0
ARC
  5
22D
330
74
100
AcDbEntity
  8
A1E-----M5_______Rohbau
  6
Continuous
 62
     7
 48
1000.0
370
    13
100
AcDbCircle
 10
94.16493493676037
 20
129.7764569545763
 30
0.0
 40
0.3516321494594279
100
AcDbArc
 50
168.9004850201281
 51
353.0744307417647
  0
ARC
  5
22E
330
74
100
AcDbEntity
  8
A1E-----M5_______Rohbau
  6
Continuous
 62
     7
 48
1000.0
370
    13
100
AcDbCircle
 10
93.46671972555876
 20
129.9134351948636
 30
0.0
 40
0.3598926353967974
100
AcDbArc
 50
348.900485020136
 51
171.6035836225723
  0
ARC
  5
22F
330
74
100
AcDbEntity
  8
A1E-----M5_______Rohbau
  6
Continuous
 62
     7
 48
1000.0
370
    13
100
AcDbCircle
 10
92.44794226570119
 20
130.130213702836
 30
0.0
 40
0.095607093308725
100
AcDbArc
 50
114.1113443878471
 51
266.0724550718765
  0
ARC
  5
230
330
74
100
AcDbEntity
  8
A1E-----M5_______Rohbau
  6
Continuous
 62
     7
 48
1000.0
370
    25
100
AcDbCircle
 10
96.60425899103431
 20
106.2910797099195
 30
0.0
 40
25.18355212410711
100
AcDbArc
 50
80.24300909538809
 51
99.49961186452596
  0
ARC
  5
231
330
74
100
AcDbEntity
  8
A1E-----M5_______Rohbau
  6
Continuous
 62
     7
 48
1000.0
370
    13
100
AcDbCircle
 10
96.604258990993
 20
106.2910797099266
 30
0.0
 40
24.88771535879472
100
AcDbArc
 50
80.38640232522815
 51
99.61359767477184
  0
ARC
  5
232
330
74
100
AcDbEntity
  8
A1E-----M5_______Rohbau
  6
Continuous
 62
     7
 48
1000.0
370
    13
100
AcDbCircle
 10
96.604258990993
 20
153.9693476957451
 30
0.0
 40
24.88771535879472
100
AcDbArc
 50
260.3864023252282
 51
279.6135976747718
  0
ARC
  5
233
330
74
100
AcDbEntity
  8
A1E-----M5_______Rohbau
  6
Continuous
 62
     7
 48
1000.0
370
    25
100
AcDbCircle
 10
96.60425899099279
 20
153.9693476957451
 30
0.0
 40
25.18355212410711
100
AcDbArc
 50
260.5003881353761
 51
279.7569909047074
  0
LINE
  5
234
330
74
100
AcDbEntity
  8
A1------T2_______Text_1_5
  6
Continuous
 62
     7
 48
1000.0
370
    20
100
AcDbLine
 10
154.8718558363151
 20
152.8736663273604
 30
0.0
 11
154.8718558363151
 21
154.3736663273605
 31
0.0
  0
LINE
  5
235
330
74
100
AcDbEntity
  8
A1------T2_______Text_1_5
  6
Continuous
 62
     7
 48
1000.0
370
    20
100
AcDbLine
 10
154.8718558363151
 20
154.3736663273605
 30
0.0
 11
154.8718558363151
 21
158.0654313375589
 31
0.0
  0
LINE
  5
236
330
74
100
AcDbEntity
  8
A1------T2_______Text_1_5
  6
Continuous
 62
     7
 48
1000.0
370
    60
100
AcDbLine
 10
153.8718558363152
 20
155.3736663273606
 30
0.0
 11
155.8718558363152
 21
153.3736663273606
 31
0.0
  0
LINE
  5
237
330
74
100
AcDbEntity
  8
A1------T2_______Text_1_5
  6
Continuous
 62
     7
 48
1000.0
370
    60
100
AcDbLine
 10
155.8718558363152
 20
157.065431337559
 30
0.0
 11
153.8718558363152
 21
159.0654313375588
 31
0.0
  0
LINE
  5
238
330
74
100
AcDbEntity
  8
A1------T2_______Text_1_5
  6
Continuous
 62
     7
 48
1000.0
370
    20
100
AcDbLine
 10
154.8718558363151
 20
158.0654313375589
 30
0.0
 11
154.8718558363151
 21
159.5654313375589
 31
0.0
  0
LINE
  5
239
330
74
100
AcDbEntity
  8
A1------T2_______Text_1_5
  6
Continuous
 62
     7
 48
1000.0
370
    20
100
AcDbLine
 10
162.5741643055682
 20
154.3736663273605
 30
0.0
 11
152.9968558363151
 21
154.3736663273605
 31
0.0
  0
LINE
  5
23A
330
74
100
AcDbEntity
  8
A1------T2_______Text_1_5
  6
Continuous
 62
     7
 48
1000.0
370
    20
100
AcDbLine
 10
162.5741643055682
 20
158.0654313375589
 30
0.0
 11
152.9968558363151
 21
158.0654313375589
 31
0.0
  0
MTEXT
  5
23C
102
{ACAD_XDICTIONARY
360
29B
102
}
330
74
100
AcDbEntity
  8
A1------T2_______Text_1_5
  6
Continuous
 62
     7
370
    40
100
AcDbMText
 10
36.81067856357024
 20
122.6497178203862
 30
0.0
 40
2.2
 41
0.0
 71
     4
 72
     1
  1
{\A1;9}
  7
ERSTELLTER_STIL_1
 73
     1
 44
1.0
  0
MTEXT
  5
23D
102
{ACAD_XDICTIONARY
360
29D
102
}
330
74
100
AcDbEntity
  8
A1------T2_______Text_1_5
  6
Continuous
 62
     7
370
    40
100
AcDbMText
 10
34.99443194243379
 20
118.4648392989699
 30
0.0
 40
2.2
 41
0.0
 71
     4
 72
     1
  1
{\A1;10}
  7
ERSTELLTER_STIL_1
 73
     1
 44
1.0
  0
MTEXT
  5
23E
102
{ACAD_XDICTIONARY
360
29F
102
}
330
74
100
AcDbEntity
  8
A1------T2_______Text_1_5
  6
Continuous
 62
     7
370
    40
100
AcDbMText
 10
36.84708326546726
 20
192.6863571346423
 30
0.0
 40
2.2
 41
0.0
 71
     4
 72
     1
  1
{\A1;2}
  7
ERSTELLTER_STIL_1
 73
     1
 44
1.0
  0
MTEXT
  5
23F
102
{ACAD_XDICTIONARY
360
2A1
102
}
330
74
100
AcDbEntity
  8
A1------T2_______Text_1_5
  6
Continuous
 62
     7
370
    40
100
AcDbMText
 10
36.85406666640944
 20
186.6228670133207
 30
0.0
 40
2.2
 41
0.0
 71
     4
 72
     1
  1
{\A1;3}
  7
ERSTELLTER_STIL_1
 73
     1
 44
1.0
  0
MTEXT
  5
240
102
{ACAD_XDICTIONARY
360
2A3
102
}
330
74
100
AcDbEntity
  8
A1------T2_______Text_1_5
  6
Continuous
 62
     7
370
    40
100
AcDbMText
 10
36.84708326546726
 20
198.6863571346418
 30
0.0
 40
2.2
 41
0.0
 71
     4
 72
     1
  1
{\A1;1}
  7
ERSTELLTER_STIL_1
 73
     1
 44
1.0
  0
MTEXT
  5
241
102
{ACAD_XDICTIONARY
360
2A5
102
}
330
74
100
AcDbEntity
  8
A1------T2_______Text_1_5
  6
Continuous
 62
     7
370
    40
100
AcDbMText
 10
36.80911401341258
 20
180.6863571346422
 30
0.0
 40
2.2
 41
0.0
 71
     4
 72
     1
  1
{\A1;4}
  7
ERSTELLTER_STIL_1
 73
     1
 44
1.0
  0
MTEXT
  5
242
102
{ACAD_XDICTIONARY
360
2A7
102
}
330
74
100
AcDbEntity
  8
A1------T2_______Text_1_5
  6
Continuous
 62
     7
370
    40
100
AcDbMText
 10
36.84373804937158
 20
174.6270142616639
 30
0.0
 40
2.2
 41
0.0
 71
     4
 72
     1
  1
{\A1;5}
  7
ERSTELLTER_STIL_1
 73
     1
 44
1.0
  0
MTEXT
  5
243
102
{ACAD_XDICTIONARY
360
2A9
102
}
330
74
100
AcDbEntity
  8
A1------T2_______Text_1_5
  6
Continuous
 62
     7
370
    40
100
AcDbMText
 10
36.84890235789018
 20
168.6270142616636
 30
0.0
 40
2.2
 41
0.0
 71
     4
 72
     1
  1
{\A1;6}
  7
ERSTELLTER_STIL_1
 73
     1
 44
1.0
  0
MTEXT
  5
244
102
{ACAD_XDICTIONARY
360
2AB
102
}
330
74
100
AcDbEntity
  8
A1------T2_______Text_1_5
  6
Continuous
 62
     7
370
    40
100
AcDbMText
 10
36.86439528344754
 20
162.4696334560894
 30
0.0
 40
2.2
 41
0.0
 71
     4
 72
     1
  1
{\A1;7}
  7
ERSTELLTER_STIL_1
 73
     1
 44
1.0
  0
MTEXT
  5
245
102
{ACAD_XDICTIONARY
360
2AD
102
}
330
74
100
AcDbEntity
  8
A1------T2_______Text_1_5
  6
Continuous
 62
     7
370
    40
100
AcDbMText
 10
131.9310783942118
 20
147.9194545048609
 30
0.0
 40
2.2
 41
0.0
 71
     4
 72
     1
  1
{\A1;50}
  7
ERSTELLTER_STIL_1
 73
     1
 44
1.0
  0
MTEXT
  5
246
102
{ACAD_XDICTIONARY
360
2AF
102
}
330
74
100
AcDbEntity
  8
A1------T2_______Text_1_5
  6
Continuous
 62
     7
370
    40
100
AcDbMText
 10
147.5688163665707
 20
188.3112669798109
 30
0.0
 40
2.2
 41
0.0
 71
     4
 72
     1
  1
{\A1;Spenglerblech ohne Umschlag}
  7
ERSTELLTER_STIL_1
 73
     1
 44
1.0
  0
MTEXT
  5
247
102
{ACAD_XDICTIONARY
360
2B1
102
}
330
74
100
AcDbEntity
  8
A1------T2_______Text_1_5
  6
Continuous
 62
     7
370
    40
100
AcDbMText
 10
142.2253385436925
 20
50.62554975894733
 30
0.0
 40
2.2
 41
0.0
 71
     4
 72
     1
  1
{\A1;10}
  7
ERSTELLTER_STIL_1
 73
     1
 44
1.0
  0
MTEXT
  5
248
102
{ACAD_XDICTIONARY
360
2B3
102
}
330
74
100
AcDbEntity
  8
A1------T2_______Text_1_5
  6
Continuous
 62
     7
370
    40
100
AcDbMText
 10
150.0749956610927
 20
50.54133107436944
 30
0.0
 40
2.2
 41
0.0
 71
     4
 72
     1
  1
{\A1;RÖFIX Sockeldämmplatte}
  7
ERSTELLTER_STIL_1
 73
     1
 44
1.0
  0
MTEXT
  5
249
102
{ACAD_XDICTIONARY
360
2B5
102
}
330
74
100
AcDbEntity
  8
A1------T2_______Text_1_5
  6
Continuous
 62
     7
370
    40
100
AcDbMText
 10
142.2253385436925
 20
40.76831822590092
 30
0.0
 40
2.2
 41
0.0
 71
     4
 72
     1
  1
{\A1;15}
  7
ERSTELLTER_STIL_1
 73
     1
 44
1.0
  0
MTEXT
  5
24A
102
{ACAD_XDICTIONARY
360
2B7
102
}
330
74
100
AcDbEntity
  8
A1------T2_______Text_1_5
  6
Continuous
 62
     7
370
    40
100
AcDbMText
 10
150.0749956610927
 20
40.4692560739897
 30
0.0
 40
2.2
 41
0.0
 71
     4
 72
     1
  1
{\A1;Bauwerksabdichtung (bauseits)}
  7
ERSTELLTER_STIL_1
 73
     1
 44
1.0
  0
MTEXT
  5
24B
102
{ACAD_XDICTIONARY
360
2B9
102
}
330
74
100
AcDbEntity
  8
A1------T2_______Text_1_5
  6
Continuous
 62
     7
370
    40
100
AcDbMText
 10
150.0749956610927
 20
26.76482872170895
 30
0.0
 40
2.2
 41
0.0
 71
     4
 72
     1
  1
{\A1;RÖFIX BAP 45 Blechanschlussprofil}
  7
ERSTELLTER_STIL_1
 73
     1
 44
1.0
  0
MTEXT
  5
24C
102
{ACAD_XDICTIONARY
360
2BB
102
}
330
74
100
AcDbEntity
  8
A1------T2_______Text_1_5
  6
Continuous
 62
     7
370
    25
100
AcDbMText
 10
140.7073467465883
 20
69.42510253750842
 30
0.0
 40
2.2
 41
0.0
 71
     4
 72
     1
  1
{\A1;1\U+22127}
  7
ERSTELLTER_STIL_1
 73
     1
 44
1.0
  0
MTEXT
  5
24D
102
{ACAD_XDICTIONARY
360
2BD
102
}
330
74
100
AcDbEntity
  8
A1------T2_______Text_1_5
  6
Continuous
 62
     7
370
    40
100
AcDbMText
 10
150.0749956610927
 20
69.30475963375159
 30
0.0
 40
2.2
 41
0.0
 71
     4
 72
     1
  1
{\A1;RÖFIX Systemaufbau}
  7
ERSTELLTER_STIL_1
 73
     1
 44
1.0
  0
MTEXT
  5
24E
102
{ACAD_XDICTIONARY
360
2BF
102
}
330
74
100
AcDbEntity
  8
A1------T2_______Text_1_5
  6
Continuous
 62
     7
370
    40
100
AcDbMText
 10
142.2253385436925
 20
35.8581143366272
 30
0.0
 40
2.200000000000001
 41
0.0
 71
     4
 72
     1
  1
{\A1;47}
  7
ERSTELLTER_STIL_1
 73
     1
 44
1.0
  0
LINE
  5
24F
330
74
100
AcDbEntity
  8
A1------T2_______Text_1_5
  6
Continuous
 62
   255
 48
1000.0
370
     5
100
AcDbLine
 10
19.99999999999913
 20
224.5680793633149
 30
0.0
 11
110.8870334232923
 21
224.5680793633149
 31
0.0
  0
LINE
  5
250
330
74
100
AcDbEntity
  8
A1------T2_______Text_1_5
  6
Continuous
 62
   255
 48
1000.0
370
     5
100
AcDbLine
 10
110.8870334232923
 20
224.5680793633149
 30
0.0
 11
110.8870334232923
 21
228.0240966350076
 31
0.0
  0
LINE
  5
251
330
74
100
AcDbEntity
  8
A1------T2_______Text_1_5
  6
Continuous
 62
   255
 48
1000.0
370
     5
100
AcDbLine
 10
110.8870334232923
 20
228.0240966350076
 30
0.0
 11
19.99999999999913
 21
228.0240966350076
 31
0.0
  0
LINE
  5
252
330
74
100
AcDbEntity
  8
A1------T2_______Text_1_5
  6
Continuous
 62
   255
 48
1000.0
370
     5
100
AcDbLine
 10
19.99999999999913
 20
228.0240966350076
 30
0.0
 11
19.99999999999913
 21
224.5680793633149
 31
0.0
  0
MTEXT
  5
253
102
{ACAD_XDICTIONARY
360
2C1
102
}
330
74
100
AcDbEntity
  8
A1------T2_______Text_1_5
  6
Continuous
 62
     7
370
    25
100
AcDbMText
 10
19.99999999999913
 20
226.2796168047169
 30
0.0
 40
2.50009201388889
 41
0.0
 71
     4
 72
     1
  1
{\A1;\W0.93383x;Datum 08.04.2020}
 73
     1
 44
1.0
  0
LINE
  5
254
330
74
100
AcDbEntity
  8
A1------T2_______Text_1_5
  6
Continuous
 62
   255
 48
1000.0
370
     5
100
AcDbLine
 10
19.99999999999913
 20
246.054272789997
 30
0.0
 11
126.791666666666
 21
246.054272789997
 31
0.0
  0
LINE
  5
255
330
74
100
AcDbEntity
  8
A1------T2_______Text_1_5
  6
Continuous
 62
   255
 48
1000.0
370
     5
100
AcDbLine
 10
126.791666666666
 20
246.054272789997
 30
0.0
 11
126.791666666666
 21
251.5835589408613
 31
0.0
  0
LINE
  5
256
330
74
100
AcDbEntity
  8
A1------T2_______Text_1_5
  6
Continuous
 62
   255
 48
1000.0
370
     5
100
AcDbLine
 10
126.791666666666
 20
251.5835589408613
 30
0.0
 11
19.99999999999913
 21
251.5835589408613
 31
0.0
  0
LINE
  5
257
330
74
100
AcDbEntity
  8
A1------T2_______Text_1_5
  6
Continuous
 62
   255
 48
1000.0
370
     5
100
AcDbLine
 10
19.99999999999913
 20
251.5835589408613
 30
0.0
 11
19.99999999999913
 21
246.054272789997
 31
0.0
  0
MTEXT
  5
258
102
{ACAD_XDICTIONARY
360
2C3
102
}
330
74
100
AcDbEntity
  8
A1------T2_______Text_1_5
  6
Continuous
 62
     7
370
    25
100
AcDbMText
 10
19.99999999999913
 20
249.1026814390093
 30
0.0
 40
3.999897337962964
 41
0.0
 71
     4
 72
     1
  1
{\A1;\W0.93383x;E. Sitzplatz, Balkon, Terrasse}
 73
     1
 44
1.0
  0
LINE
  5
259
330
74
100
AcDbEntity
  8
A1------T2_______Text_1_5
  6
Continuous
 62
   255
 48
1000.0
370
     5
100
AcDbLine
 10
19.99999999999913
 20
235.2015364984443
 30
0.0
 11
197.7597883780617
 21
235.2015364984443
 31
0.0
  0
LINE
  5
25A
330
74
100
AcDbEntity
  8
A1------T2_______Text_1_5
  6
Continuous
 62
   255
 48
1000.0
370
     5
100
AcDbLine
 10
197.7597883780617
 20
235.2015364984443
 30
0.0
 11
197.7597883780617
 21
239.2603858431335
 31
0.0
  0
LINE
  5
25B
330
74
100
AcDbEntity
  8
A1------T2_______Text_1_5
  6
Continuous
 62
   255
 48
1000.0
370
     5
100
AcDbLine
 10
197.7597883780617
 20
239.2603858431335
 30
0.0
 11
19.99999999999913
 21
239.2603858431335
 31
0.0
  0
LINE
  5
25C
330
74
100
AcDbEntity
  8
A1------T2_______Text_1_5
  6
Continuous
 62
   255
 48
1000.0
370
     5
100
AcDbLine
 10
19.99999999999913
 20
239.2603858431335
 30
0.0
 11
19.99999999999913
 21
235.2015364984443
 31
0.0
  0
MTEXT
  5
25D
102
{ACAD_XDICTIONARY
360
2C5
102
}
330
74
100
AcDbEntity
  8
A1------T2_______Text_1_5
  6
Continuous
 62
     7
370
    25
100
AcDbMText
 10
19.99999999999913
 20
237.3742681960745
 30
0.0
 40
2.999999999999997
 41
0.0
 71
     4
 72
     1
  1
{\A1;\W0.93383x;E.6 ^I Fugenanschluss an Spenglersockel Abschluss mit Blechanschlussprofil}
 73
     1
 44
1.0
  0
MTEXT
  5
25E
102
{ACAD_XDICTIONARY
360
2C7
102
}
330
74
100
AcDbEntity
  8
A1------T2_______Text_1_5
  6
Continuous
 62
     7
370
    40
100
AcDbMText
 10
144.1581345582654
 20
59.54939693649434
 30
0.0
 40
2.2
 41
0.0
 71
     4
 72
     1
  1
{\A1;9}
  7
ERSTELLTER_STIL_1
 73
     1
 44
1.0
  0
WIPEOUT
  5
25F
330
74
100
AcDbEntity
  8
A1------T2_______Text_1_5
  6
Wipeout_Contour
 62
   254
 48
433.2476751275665
370
     0
 92
      296
310
28010000060000000C0000000E000000B20000000C00000016000000000000C20C00000014000000010000006C0000000700000004000000EA6CBF8B497F4140A515C0ACE70A594000000000000000002AC111B3E9304340A515C0ACE70A594000000000000000002AC111B3E93043400AEDD29E29E8594000000000000000
310
00EA6CBF8B497F41400AEDD29E29E8594000000000000000000C0000000E000000FE000000840000000600000005000000EA6CBF8B497F4140A515C0ACE70A594000000000000000002AC111B3E9304340A515C0ACE70A594000000000000000002AC111B3E93043400AEDD29E29E859400000000000000000EA6CBF8B497F
310
41400AEDD29E29E859400000000000000000EA6CBF8B497F4140A515C0ACE70A59400000000000000000
100
AcDbWipeout
 90
        0
 10
34.99443194243379
 20
100.170390307982
 30
0.0
 11
3.387699999999768
 21
0.0
 31
0.0
 12
0.0
 22
3.4571499999998
 32
0.0
 13
1.0
 23
1.0
340
0
 70
    15
280
     1
281
    50
282
    50
283
     0
360
0
 71
     2
 91
        5
 14
-0.5
 24
0.5000000000000021
 14
0.5
 24
0.5000000000000021
 14
0.5
 24
-0.4999999999999979
 14
-0.5
 24
-0.4999999999999979
 14
-0.5
 24
0.5000000000000021
  0
MTEXT
  5
261
102
{ACAD_XDICTIONARY
360
2C9
102
}
330
74
100
AcDbEntity
  8
A1------T2_______Text_1_5
  6
Continuous
 62
     7
370
    25
100
AcDbMText
 10
34.99443194243379
 20
102.0062679865531
 30
0.0
 40
2.2
 41
0.0
 71
     4
 72
     1
  1
{\A1;15}
  7
ERSTELLTER_STIL_1
 73
     1
 44
1.0
  0
MTEXT
  5
262
102
{ACAD_XDICTIONARY
360
2CB
102
}
330
74
100
AcDbEntity
  8
A1------T2_______Text_1_5
  6
Continuous
 62
     7
370
    25
100
AcDbMText
 10
19.65022236912868
 20
123.4851058443587
 30
0.0
 40
2.2
 41
0.0
 71
     4
 72
     1
  1
{\A1;max. 25 cm}
  7
ERSTELLTER_STIL_1
 11
6.123233995736766E-17
 21
1.0
 31
0.0
 73
     1
 44
1.0
  0
MTEXT
  5
263
102
{ACAD_XDICTIONARY
360
2CD
102
}
330
74
100
AcDbEntity
  8
A1------T2_______Text_1_5
  6
Continuous
 62
     7
370
    40
100
AcDbMText
 10
27.29910500852143
 20
110.4821692177379
 30
0.0
 40
2.2
 41
0.0
 71
     4
 72
     1
  1
{\A1;Gefälle mind.1.5%}
  7
ERSTELLTER_STIL_1
 11
0.999839716251794
 21
0.01790368134021516
 31
0.0
 73
     1
 44
1.0
  0
MTEXT
  5
264
102
{ACAD_XDICTIONARY
360
2CF
102
}
330
74
100
AcDbEntity
  8
A1------T2_______Text_1_5
  6
Continuous
 62
     7
370
    40
100
AcDbMText
 10
151.168701862167
 20
155.0780318270779
 30
0.0
 40
2.2
 41
0.0
 71
     4
 72
     1
  1
{\A1;10 mm Luft}
  7
ERSTELLTER_STIL_1
 11
6.123233995736766E-17
 21
1.0
 31
0.0
 73
     1
 44
1.0
  0
MTEXT
  5
265
102
{ACAD_XDICTIONARY
360
2D1
102
}
330
74
100
AcDbEntity
  8
A1------T2_______Text_1_5
  6
Continuous
 62
     7
370
    40
100
AcDbMText
 10
150.0749956610927
 20
59.55136122220852
 30
0.0
 40
2.200000000000001
 41
0.0
 71
     4
 72
     1
  1
{\A1;Kleben mit RÖFIX Collstar, }
  7
ERSTELLTER_STIL_1
 73
     1
 44
1.0
  0
MTEXT
  5
266
102
{ACAD_XDICTIONARY
360
2D3
102
}
330
74
100
AcDbEntity
  8
A1------T2_______Text_1_5
  6
Continuous
 62
     7
370
    25
100
AcDbMText
 10
150.0749956610927
 20
55.60315409882693
 30
0.0
 40
2.200120659722223
 41
0.0
 71
     4
 72
     1
  1
{\A1;RÖFIX Optiflex{\A1;\Ftxt.shx;\H0.66000x;\S®^  ;}}
  7
ERSTELLTER_STIL_1
 73
     1
 44
1.0
  0
MTEXT
  5
267
102
{ACAD_XDICTIONARY
360
2D5
102
}
330
74
100
AcDbEntity
  8
A1------T2_______Text_1_5
  6
Continuous
 62
     7
370
    25
100
AcDbMText
 10
142.1944400030126
 20
26.84904445704077
 30
0.0
 40
2.200000000000001
 41
0.0
 71
     4
 72
     1
  1
{\A1;50}
  7
ERSTELLTER_STIL_1
 73
     1
 44
1.0
  0
MTEXT
  5
268
102
{ACAD_XDICTIONARY
360
2D7
102
}
330
74
100
AcDbEntity
  8
A1------T2_______Text_1_5
  6
Continuous
 62
     7
370
    40
100
AcDbMText
 10
150.0749956610927
 20
35.54062075340107
 30
0.0
 40
2.2
 41
0.0
 71
     4
 72
     1
  1
{\A1;Vollflächige Verklebung mit}
  7
ERSTELLTER_STIL_1
 73
     1
 44
1.0
  0
MTEXT
  5
269
102
{ACAD_XDICTIONARY
360
2D9
102
}
330
74
100
AcDbEntity
  8
A1------T2_______Text_1_5
  6
Continuous
 62
     7
370
    25
100
AcDbMText
 10
150.0749956610927
 20
31.8268167578519
 30
0.0
 40
2.200120659722223
 41
0.0
 71
     4
 72
     1
  1
{\A1;RÖFIX Collstar oder }{\A1;\H0.99994x;RÖFIX Optiflex{\A1;\Ftxt.shx;\H0.66000x;\S®^  ;}}
  7
ERSTELLTER_STIL_1
 73
     1
 44
1.0
  0
MTEXT
  5
26A
102
{ACAD_XDICTIONARY
360
2DB
102
}
330
74
100
AcDbEntity
  8
A1------T2_______Text_1_5
  6
Continuous
 62
     7
370
    40
100
AcDbMText
 10
34.99443194243379
 20
114.2983759561253
 30
0.0
 40
2.2
 41
0.0
 71
     4
 72
     1
  1
{\A1;11}
  7
ERSTELLTER_STIL_1
 73
     1
 44
1.0
  0
MTEXT
  5
26B
102
{ACAD_XDICTIONARY
360
2DD
102
}
330
74
100
AcDbEntity
  8
A1------T2_______Text_1_5
  6
Continuous
 62
     7
370
    40
100
AcDbMText
 10
144.1548940256629
 20
64.47801198820284
 30
0.0
 40
2.2
 41
0.0
 71
     4
 72
     1
  1
{\A1;8}
  7
ERSTELLTER_STIL_1
 73
     1
 44
1.0
  0
MTEXT
  5
26C
102
{ACAD_XDICTIONARY
360
2DF
102
}
330
74
100
AcDbEntity
  8
A1------T2_______Text_1_5
  6
Continuous
 62
     7
370
    25
100
AcDbMText
 10
150.0749956610927
 20
64.67529690482162
 30
0.0
 40
2.200120659722222
 41
0.0
 71
     4
 72
     1
  1
{\A1;RÖFIX Dämmstoffdübel}
  7
ERSTELLTER_STIL_1
 73
     1
 44
1.0
  0
MTEXT
  5
26D
102
{ACAD_XDICTIONARY
360
2E1
102
}
330
74
100
AcDbEntity
  8
A1------T2_______Text_1_5
  6
Continuous
 62
     7
370
    25
100
AcDbMText
 10
150.0749956610927
 20
45.61271893337816
 30
0.0
 40
2.2
 41
0.0
 71
     4
 72
     1
  1
{\A1;Beschichten mit RÖFIX Optiflex{\A1;\H0.66000x;\S® ^  ;} }
  7
ERSTELLTER_STIL_1
 73
     1
 44
1.0
  0
MTEXT
  5
26E
102
{ACAD_XDICTIONARY
360
2E3
102
}
330
74
100
AcDbEntity
  8
A1------T2_______Text_1_5
  6
Continuous
 62
     7
370
    25
100
AcDbMText
 10
142.1947221353925
 20
45.71534976571522
 30
0.0
 40
2.2
 41
0.0
 71
     4
 72
     1
  1
{\A1;\W1.09140x;11}
  7
ERSTELLTER_STIL_1
 73
     1
 44
1.0
  0
MTEXT
  5
26F
102
{ACAD_XDICTIONARY
360
2E5
102
}
330
74
100
AcDbEntity
  8
A1------T2_______Text_1_5
  6
Continuous
 62
     7
370
    25
100
AcDbMText
 10
26.27487593367671
 20
113.2813520716156
 30
0.0
 40
2.200120659722222
 41
0.0
 71
     4
 72
     1
  1
{\A1;mind. 12 cm }
  7
ERSTELLTER_STIL_1
 11
6.123233995736766E-17
 21
1.0
 31
0.0
 73
     1
 44
1.0
  0
MTEXT
  5
270
102
{ACAD_XDICTIONARY
360
2E7
102
}
330
74
100
AcDbEntity
  8
A1------T2_______Text_1_5
  6
Continuous
 62
     7
370
    40
100
AcDbMText
 10
36.81067856357024
 20
126.8345957962385
 30
0.0
 40
2.2
 41
0.0
 71
     4
 72
     1
  1
{\A1;8}
  7
ERSTELLTER_STIL_1
 73
     1
 44
1.0
  0
LINE
  5
271
330
74
100
AcDbEntity
  8
A1E-----M5_______Rohbau
  6
Continuous
 62
     7
 48
1000.0
370
    20
100
AcDbLine
 10
86.10192570404185
 20
122.5424151418149
 30
0.0
 11
40.74686804703553
 21
122.5424151418149
 31
0.0
  0
CIRCLE
  5
272
330
74
100
AcDbEntity
  8
A1E-----M5_______Rohbau
  6
Continuous
 62
     7
 48
1000.0
370
    20
100
AcDbCircle
 10
86.70192570404178
 20
122.5424151418149
 30
0.0
 40
0.6000000000000001
  0
HATCH
  5
273
330
74
100
AcDbEntity
  8
A1E-----M5_______Rohbau
  6
Continuous
 62
     7
370
    20
100
AcDbHatch
 10
0.0
 20
0.0
 30
0.0
210
0.0
220
0.0
230
1.0
  2
SOLID
 70
     1
 71
     0
 91
        1
 92
        3
 72
     0
 73
     1
 93
       16
 10
86.10192570404185
 20
122.5424151418149
 10
86.14759799143168
 20
122.3128050817333
 10
86.27766163137163
 20
122.1181510691447
 10
86.47231564396019
 20
121.988087429205
 10
86.70192570404178
 20
121.9424151418149
 10
86.93153576412338
 20
121.988087429205
 10
87.12618977671194
 20
122.1181510691447
 10
87.25625341665189
 20
122.3128050817333
 10
87.30192570404172
 20
122.5424151418149
 10
87.25625341665189
 20
122.7720252018965
 10
87.12618977671194
 20
122.966679214485
 10
86.93153576412338
 20
123.0967428544247
 10
86.70192570404178
 20
123.142415141815
 10
86.47231564396019
 20
123.0967428544247
 10
86.27766163137163
 20
122.966679214485
 10
86.14759799143168
 20
122.7720252018965
 97
        0
 75
     0
 76
     1
 98
        0
  0
LINE
  5
274
330
74
100
AcDbEntity
  8
A1E-----M5_______Rohbau
  6
Continuous
 62
     7
 48
1000.0
370
    20
100
AcDbLine
 10
57.82647991428046
 20
126.7272932540582
 30
0.0
 11
40.74686804703553
 21
126.7272932540582
 31
0.0
  0
CIRCLE
  5
275
330
74
100
AcDbEntity
  8
A1E-----M5_______Rohbau
  6
Continuous
 62
     7
 48
1000.0
370
    20
100
AcDbCircle
 10
58.42647991428041
 20
126.7272932540582
 30
0.0
 40
0.6000000000000001
  0
HATCH
  5
276
330
74
100
AcDbEntity
  8
A1E-----M5_______Rohbau
  6
Continuous
 62
     7
370
    20
100
AcDbHatch
 10
0.0
 20
0.0
 30
0.0
210
0.0
220
0.0
230
1.0
  2
SOLID
 70
     1
 71
     0
 91
        1
 92
        3
 72
     0
 73
     1
 93
       16
 10
57.82647991428047
 20
126.7272932540582
 10
57.8721522016703
 20
126.4976831939766
 10
58.00221584161025
 20
126.303029181388
 10
58.19686985419881
 20
126.1729655414483
 10
58.42647991428041
 20
126.127293254058
 10
58.656089974362
 20
126.1729655414483
 10
58.85074398695056
 20
126.303029181388
 10
58.98080762689051
 20
126.4976831939766
 10
59.02647991428034
 20
126.7272932540582
 10
58.98080762689051
 20
126.9569033141398
 10
58.85074398695056
 20
127.1515573267283
 10
58.656089974362
 20
127.2816209666681
 10
58.42647991428041
 20
127.3272932540581
 10
58.19686985419881
 20
127.2816209666681
 10
58.00221584161025
 20
127.1515573267283
 10
57.8721522016703
 20
126.9569033141398
 97
        0
 75
     0
 76
     1
 98
        0
  0
HATCH
  5
277
330
74
100
AcDbEntity
  8
A1------H2_______Schraffur_Filling_1_5
  6
Continuous
 62
     7
370
    13
100
AcDbHatch
 10
0.0
 20
0.0
 30
0.0
210
0.0
220
0.0
230
1.0
  2
Dämmstoff__EPS_horizonta_F9
 70
     0
 71
     0
 91
        1
 92
        3
 72
     1
 73
     1
 93
       45
 10
178.1511179698614
 20
178.6827316056234
 42
0.0700298805065043
 10
170.3343519859641
 20
180.6214747224708
 42
0.0
 10
170.3343519859644
 20
142.6978347139989
 42
0.0
 10
179.7852830554816
 20
142.6978347139989
 42
0.0
 10
179.7852830554816
 20
131.942008258338
 42
0.0
 10
184.0305544179011
 20
131.942008258338
 42
0.0
 10
184.7780399808316
 20
132.515574103899
 42
0.0
 10
185.8585466375475
 20
133.438413969915
 42
0.0
 10
186.8892747905961
 20
134.4165384650733
 42
0.0
 10
187.8673992857545
 20
135.4472666181219
 42
0.0
 10
188.7902391517704
 20
136.5277732748378
 42
0.0
 10
189.6552649487166
 20
137.6550968415806
 42
0.0
 10
190.4601057010113
 20
138.8261474028128
 42
0.0
 10
191.2025553960956
 20
140.0377151903445
 42
0.0
 10
191.8805790309628
 20
141.2864793810857
 42
0.0
 10
192.4923181899587
 20
142.5690171991896
 42
0.0
 10
193.0360961385695
 20
143.8818132976454
 42
0.0
 10
193.5104224192359
 20
145.2212693935984
 42
0.0
 10
193.9139969365926
 20
146.5837141309936
 42
0.0
 10
194.2457135209392
 20
147.9654131435086
 42
0.0
 10
194.5046629601761
 20
149.3625792901909
 42
0.0
 10
194.6901354918893
 20
150.7713830357478
 42
0.0
 10
194.8016227487612
 20
152.1879629470384
 42
0.0
 10
194.8388191519705
 20
153.6084362769898
 42
0.0
 10
194.8016227487612
 20
155.0289096069417
 42
0.0
 10
194.6901354918893
 20
156.4454895182319
 42
0.0
 10
194.5046629601761
 20
157.854293263789
 42
0.0
 10
194.2457135209392
 20
159.2514594104713
 42
0.0
 10
193.9139969365926
 20
160.6331584229863
 42
0.0
 10
193.5104224192359
 20
161.9956031603815
 42
0.0
 10
193.0360961385695
 20
163.3350592563345
 42
0.0
 10
192.4923181899587
 20
164.6478553547901
 42
0.0
 10
191.8805790309628
 20
165.9303931728942
 42
0.0
 10
191.2025553960956
 20
167.1791573636354
 42
0.0
 10
190.4601057010113
 20
168.3907251511669
 42
0.0
 10
189.6552649487166
 20
169.5617757123993
 42
0.0
 10
188.7902391517704
 20
170.6890992791419
 42
0.0
 10
187.8673992857545
 20
171.769605935858
 42
0.0
 10
186.8892747905961
 20
172.8003340889064
 42
0.0
 10
185.8585466375475
 20
173.7784585840649
 42
0.0
 10
184.7780399808316
 20
174.7012984500809
 42
0.0
 10
183.6507164140888
 20
175.5663242470269
 42
0.0
 10
182.4796658528567
 20
176.3711649993216
 42
0.0
 10
181.2680980653249
 20
177.1136146944061
 42
0.0
 10
180.0193338745839
 20
177.7916383292732
 42
0.0
 97
        0
 75
     0
 76
     2
 52
0.0
 41
1.0
 77
     0
 78
     1
 53
0.0
 43
1693.024586529066
 44
1652.125871091721
 45
0.0
 46
4.0
 79
     0
 98
        0
  0
LWPOLYLINE
  5
278
330
74
100
AcDbEntity
  8
A1------H2_______Schraffur_Filling_1_5
  6
Continuous
 62
     7
 48
1000.0
370
    60
100
AcDbPolyline
 90
       45
 70
   129
 43
0.0
 10
178.1511179698614
 20
178.6827316056234
 42
0.0700298805065043
 10
170.3343519859641
 20
180.6214747224708
 10
170.3343519859644
 20
142.6978347139989
 10
179.7852830554816
 20
142.6978347139989
 10
179.7852830554816
 20
131.942008258338
 10
184.0305544179011
 20
131.942008258338
 10
184.7780399808316
 20
132.515574103899
 10
185.8585466375475
 20
133.438413969915
 10
186.8892747905961
 20
134.4165384650733
 10
187.8673992857545
 20
135.4472666181219
 10
188.7902391517704
 20
136.5277732748378
 10
189.6552649487166
 20
137.6550968415806
 10
190.4601057010113
 20
138.8261474028128
 10
191.2025553960956
 20
140.0377151903445
 10
191.8805790309628
 20
141.2864793810857
 10
192.4923181899587
 20
142.5690171991896
 10
193.0360961385695
 20
143.8818132976454
 10
193.5104224192359
 20
145.2212693935984
 10
193.9139969365926
 20
146.5837141309936
 10
194.2457135209392
 20
147.9654131435086
 10
194.5046629601761
 20
149.3625792901909
 10
194.6901354918893
 20
150.7713830357478
 10
194.8016227487612
 20
152.1879629470384
 10
194.8388191519705
 20
153.6084362769898
 10
194.8016227487612
 20
155.0289096069417
 10
194.6901354918893
 20
156.4454895182319
 10
194.5046629601761
 20
157.854293263789
 10
194.2457135209392
 20
159.2514594104713
 10
193.9139969365926
 20
160.6331584229863
 10
193.5104224192359
 20
161.9956031603815
 10
193.0360961385695
 20
163.3350592563345
 10
192.4923181899587
 20
164.6478553547901
 10
191.8805790309628
 20
165.9303931728942
 10
191.2025553960956
 20
167.1791573636354
 10
190.4601057010113
 20
168.3907251511669
 10
189.6552649487166
 20
169.5617757123993
 10
188.7902391517704
 20
170.6890992791419
 10
187.8673992857545
 20
171.769605935858
 10
186.8892747905961
 20
172.8003340889064
 10
185.8585466375475
 20
173.7784585840649
 10
184.7780399808316
 20
174.7012984500809
 10
183.6507164140888
 20
175.5663242470269
 10
182.4796658528567
 20
176.3711649993216
 10
181.2680980653249
 20
177.1136146944061
 10
180.0193338745839
 20
177.7916383292732
  0
LINE
  5
279
330
74
100
AcDbEntity
  8
A1E-----M5_______Rohbau
  6
Continuous
 62
     7
 48
1000.0
370
    13
100
AcDbLine
 10
179.0764632252675
 20
141.9890148837854
 30
0.0
 11
179.0764632252675
 21
128.9675296492134
 31
0.0
  0
LINE
  5
27A
330
74
100
AcDbEntity
  8
A1E-----M5_______Rohbau
  6
Continuous
 62
     7
 48
1000.0
370
    13
100
AcDbLine
 10
178.3171643295105
 20
141.9890148837854
 30
0.0
 11
178.3171643295105
 21
128.6308863597299
 31
0.0
  0
LINE
  5
27B
330
74
100
AcDbEntity
  8
A1E-----M5_______Rohbau
  6
Continuous
 62
     7
 48
1000.0
370
    13
100
AcDbLine
 10
178.3171643295105
 20
141.9890148837854
 30
0.0
 11
179.0764632252675
 21
141.9890148837854
 31
0.0
  0
LINE
  5
27C
330
74
100
AcDbEntity
  8
A1E-----M5_______Rohbau
  6
Continuous
 62
     7
 48
1000.0
370
    13
100
AcDbLine
 10
179.0764632252675
 20
131.2331884281246
 30
0.0
 11
183.0598691901644
 21
131.2331884281246
 31
0.0
  0
LINE
  5
27D
330
74
100
AcDbEntity
  8
A1E-----M5_______Rohbau
  6
Continuous
 62
     7
 48
1000.0
370
    25
100
AcDbLine
 10
179.7852830554816
 20
131.942008258338
 30
0.0
 11
184.044357744517
 21
131.942008258338
 31
0.0
  0
LINE
  5
27E
330
74
100
AcDbEntity
  8
A1E-----M5_______Rohbau
  6
Continuous
 62
     7
 48
1000.0
370
    25
100
AcDbLine
 10
179.7852830554816
 20
142.6978347139989
 30
0.0
 11
179.7852830554816
 21
131.942008258338
 31
0.0
  0
LINE
  5
27F
330
74
100
AcDbEntity
  8
A1E-----M5_______Rohbau
  6
Continuous
 62
     7
 48
1000.0
370
    25
100
AcDbLine
 10
170.3343519859644
 20
142.6978347139989
 30
0.0
 11
179.7852830554816
 21
142.6978347139989
 31
0.0
  0
LINE
  5
280
330
74
100
AcDbEntity
  8
A1E-----M5_______Rohbau
  6
Continuous
 62
     7
 48
1000.0
370
    25
100
AcDbLine
 10
177.0226262656129
 20
142.6978347139989
 30
0.0
 11
177.0226262656129
 21
128.1192697746769
 31
0.0
  0
LINE
  5
281
330
74
100
AcDbEntity
  8
A1-----1H2_______Schraffur_1_5
  6
Continuous
 62
     7
 48
1000.0
370
    13
100
AcDbLine
 10
177.0226262656138
 20
129.2287697503258
 30
0.0
 11
170.3343519859644
 21
129.2287697503258
 31
0.0
  0
LINE
  5
282
330
74
100
AcDbEntity
  8
A1-----1H2_______Schraffur_1_5
  6
Continuous
 62
     7
 48
1000.0
370
    13
100
AcDbLine
 10
170.3343519859644
 20
132.536595673947
 30
0.0
 11
177.0226262656138
 21
132.536595673947
 31
0.0
  0
LINE
  5
283
330
74
100
AcDbEntity
  8
A1-----1H2_______Schraffur_1_5
  6
Continuous
 62
     7
 48
1000.0
370
    13
100
AcDbLine
 10
177.0226262656138
 20
135.8444215975692
 30
0.0
 11
170.3343519859644
 21
135.8444215975692
 31
0.0
  0
LINE
  5
284
330
74
100
AcDbEntity
  8
A1-----1H2_______Schraffur_1_5
  6
Continuous
 62
     7
 48
1000.0
370
    13
100
AcDbLine
 10
177.0226262656138
 20
139.152247521191
 30
0.0
 11
170.3343519859644
 21
139.152247521191
 31
0.0
  0
ARC
  5
285
330
74
100
AcDbEntity
  8
A1E-----M5_______Rohbau
  6
Continuous
 62
     7
 48
1000.0
370
    13
100
AcDbCircle
 10
266.2157788266093
 20
127.8097777265625
 30
0.0
 40
89.03492122122827
100
AcDbArc
 50
170.8363561152586
 51
179.7630401382525
  0
CIRCLE
  5
286
330
74
100
AcDbEntity
  8
A1E-----M5_______Rohbau
  6
Continuous
 62
   252
 48
1000.0
370
    80
100
AcDbCircle
 10
167.6973769786796
 20
153.6084362769898
 30
0.0
 40
27.14144217329065
  0
ENDBLK
  5
76
330
74
100
AcDbEntity
  8
0
100
AcDbBlockEnd
  0
BLOCK
  5
28C
330
28B
100
AcDbEntity
  8
0
100
AcDbBlockBegin
  2
02.21 27. Detail E.6_STORY_MARKER
 70
     0
 10
0.0
 20
0.0
 30
0.0
  3
02.21 27. Detail E.6_STORY_MARKER
  1

  0
ENDBLK
  5
28D
330
28B
100
AcDbEntity
  8
0
100
AcDbBlockEnd
  0
ENDSEC
  0
SECTION
  2
ENTITIES
  0
VIEWPORT
  5
6E
102
{ACAD_XDICTIONARY
360
299
102
}
330
1B
100
AcDbEntity
 67
     1
  8
0
  6
Continuous
370
     0
100
AcDbViewport
 10
105.0
 20
148.5
 30
0.0
 40
0.252
 41
0.3564
 68
     1
 69
     1
 12
105.0
 22
148.5
 13
0.0
 23
0.0
 14
0.5
 24
0.5
 15
0.0
 25
0.0
 16
0.0
 26
0.0
 36
1.0
 17
0.0
 27
0.0
 37
0.0
 42
50.0
 43
0.0
 44
0.0
 45
0.3564
 50
0.0
 51
0.0
 72
   100
 90
   557152
  1

281
     0
 71
     1
 74
     0
110
0.0
120
0.0
130
0.0
111
1.0
121
0.0
131
0.0
112
0.0
122
1.0
132
0.0
 79
     0
146
0.0
  0
LINE
  5
6F
330
1B
100
AcDbEntity
 67
     1
  8
FORMAT
  6
Continuous
 62
     7
 48
1000.0
370
    13
100
AcDbLine
 10
20.0
 20
215.0
 30
0.0
 11
195.0
 21
215.0
 31
0.0
  0
LINE
  5
71
330
1B
100
AcDbEntity
 67
     1
  8
FORMAT
  6
Continuous
 62
     7
 48
1000.0
370
    13
100
AcDbLine
 10
195.0
 20
215.0
 30
0.0
 11
195.0
 21
25.0
 31
0.0
  0
LINE
  5
72
330
1B
100
AcDbEntity
 67
     1
  8
FORMAT
  6
Continuous
 62
     7
 48
1000.0
370
    13
100
AcDbLine
 10
195.0
 20
25.0
 30
0.0
 11
20.0
 21
25.0
 31
0.0
  0
LINE
  5
73
330
1B
100
AcDbEntity
 67
     1
  8
FORMAT
  6
Continuous
 62
     7
 48
1000.0
370
    13
100
AcDbLine
 10
20.0
 20
25.0
 30
0.0
 11
20.0
 21
215.0
 31
0.0
  0
INSERT
  5
287
102
{ACAD_XDICTIONARY
360
288
102
}
330
1B
100
AcDbEntity
 67
     1
  8
0
  6
Continuous
 62
     1
 48
1000.0
370
    35
100
AcDbBlockReference
  2
Zeichnung_1_1
 10
1693.024586529066
 20
1652.125871091721
 30
0.0
  0
ENDSEC
  0
SECTION
  2
OBJECTS
  0
DICTIONARY
  5
C
330
0
100
AcDbDictionary
281
     1
  3
ACAD_GROUP
350
D
  3
ACAD_LAYOUT
350
1A
  3
ACAD_MATERIAL
350
43
  3
ACAD_MLEADERSTYLE
350
6B
  3
ACAD_MLINESTYLE
350
17
  3
ACAD_PLOTSETTINGS
350
19
  3
ACAD_PLOTSTYLENAME
350
E
  3
ACAD_SCALELIST
350
47
  3
ACAD_TABLESTYLE
350
69
  3
ACAD_VISUALSTYLE
350
2A
  3
AcDbVariableDictionary
350
291
  3
ACDB_RECOMPOSE_DATA
350
326
  3
WATERMARKS
350
28F
  0
DICTIONARY
  5
2E9
330
8
100
AcDbDictionary
280
     1
281
     1
  3
ACAD_XREC_ROUNDTRIP
360
2EA
  0
DICTIONARY
  5
29B
330
23C
100
AcDbDictionary
280
     1
281
     1
  3
ACAD_MTEXT_RT
360
29C
  0
DICTIONARY
  5
29D
330
23D
100
AcDbDictionary
280
     1
281
     1
  3
ACAD_MTEXT_RT
360
29E
  0
DICTIONARY
  5
29F
330
23E
100
AcDbDictionary
280
     1
281
     1
  3
ACAD_MTEXT_RT
360
2A0
  0
DICTIONARY
  5
2A1
330
23F
100
AcDbDictionary
280
     1
281
     1
  3
ACAD_MTEXT_RT
360
2A2
  0
DICTIONARY
  5
2A3
330
240
100
AcDbDictionary
280
     1
281
     1
  3
ACAD_MTEXT_RT
360
2A4
  0
DICTIONARY
  5
2A5
330
241
100
AcDbDictionary
280
     1
281
     1
  3
ACAD_MTEXT_RT
360
2A6
  0
DICTIONARY
  5
2A7
330
242
100
AcDbDictionary
280
     1
281
     1
  3
ACAD_MTEXT_RT
360
2A8
  0
DICTIONARY
  5
2A9
330
243
100
AcDbDictionary
280
     1
281
     1
  3
ACAD_MTEXT_RT
360
2AA
  0
DICTIONARY
  5
2AB
330
244
100
AcDbDictionary
280
     1
281
     1
  3
ACAD_MTEXT_RT
360
2AC
  0
DICTIONARY
  5
2AD
330
245
100
AcDbDictionary
280
     1
281
     1
  3
ACAD_MTEXT_RT
360
2AE
  0
DICTIONARY
  5
2AF
330
246
100
AcDbDictionary
280
     1
281
     1
  3
ACAD_MTEXT_RT
360
2B0
  0
DICTIONARY
  5
2B1
330
247
100
AcDbDictionary
280
     1
281
     1
  3
ACAD_MTEXT_RT
360
2B2
  0
DICTIONARY
  5
2B3
330
248
100
AcDbDictionary
280
     1
281
     1
  3
ACAD_MTEXT_RT
360
2B4
  0
DICTIONARY
  5
2B5
330
249
100
AcDbDictionary
280
     1
281
     1
  3
ACAD_MTEXT_RT
360
2B6
  0
DICTIONARY
  5
2B7
330
24A
100
AcDbDictionary
280
     1
281
     1
  3
ACAD_MTEXT_RT
360
2B8
  0
DICTIONARY
  5
2B9
330
24B
100
AcDbDictionary
280
     1
281
     1
  3
ACAD_MTEXT_RT
360
2BA
  0
DICTIONARY
  5
2BB
330
24C
100
AcDbDictionary
280
     1
281
     1
  3
ACAD_MTEXT_RT
360
2BC
  0
DICTIONARY
  5
2BD
330
24D
100
AcDbDictionary
280
     1
281
     1
  3
ACAD_MTEXT_RT
360
2BE
  0
DICTIONARY
  5
2BF
330
24E
100
AcDbDictionary
280
     1
281
     1
  3
ACAD_MTEXT_RT
360
2C0
  0
DICTIONARY
  5
2C1
330
253
100
AcDbDictionary
280
     1
281
     1
  3
ACAD_MTEXT_RT
360
2C2
  0
DICTIONARY
  5
2C3
330
258
100
AcDbDictionary
280
     1
281
     1
  3
ACAD_MTEXT_RT
360
2C4
  0
DICTIONARY
  5
2C5
330
25D
100
AcDbDictionary
280
     1
281
     1
  3
ACAD_MTEXT_RT
360
2C6
  0
DICTIONARY
  5
2C7
330
25E
100
AcDbDictionary
280
     1
281
     1
  3
ACAD_MTEXT_RT
360
2C8
  0
DICTIONARY
  5
2C9
330
261
100
AcDbDictionary
280
     1
281
     1
  3
ACAD_MTEXT_RT
360
2CA
  0
DICTIONARY
  5
2CB
330
262
100
AcDbDictionary
280
     1
281
     1
  3
ACAD_MTEXT_RT
360
2CC
  0
DICTIONARY
  5
2CD
330
263
100
AcDbDictionary
280
     1
281
     1
  3
ACAD_MTEXT_RT
360
2CE
  0
DICTIONARY
  5
2CF
330
264
100
AcDbDictionary
280
     1
281
     1
  3
ACAD_MTEXT_RT
360
2D0
  0
DICTIONARY
  5
2D1
330
265
100
AcDbDictionary
280
     1
281
     1
  3
ACAD_MTEXT_RT
360
2D2
  0
DICTIONARY
  5
2D3
330
266
100
AcDbDictionary
280
     1
281
     1
  3
ACAD_MTEXT_RT
360
2D4
  0
DICTIONARY
  5
2D5
330
267
100
AcDbDictionary
280
     1
281
     1
  3
ACAD_MTEXT_RT
360
2D6
  0
DICTIONARY
  5
2D7
330
268
100
AcDbDictionary
280
     1
281
     1
  3
ACAD_MTEXT_RT
360
2D8
  0
DICTIONARY
  5
2D9
330
269
100
AcDbDictionary
280
     1
281
     1
  3
ACAD_MTEXT_RT
360
2DA
  0
DICTIONARY
  5
2DB
330
26A
100
AcDbDictionary
280
     1
281
     1
  3
ACAD_MTEXT_RT
360
2DC
  0
DICTIONARY
  5
2DD
330
26B
100
AcDbDictionary
280
     1
281
     1
  3
ACAD_MTEXT_RT
360
2DE
  0
DICTIONARY
  5
2DF
330
26C
100
AcDbDictionary
280
     1
281
     1
  3
ACAD_MTEXT_RT
360
2E0
  0
DICTIONARY
  5
2E1
330
26D
100
AcDbDictionary
280
     1
281
     1
  3
ACAD_MTEXT_RT
360
2E2
  0
DICTIONARY
  5
2E3
330
26E
100
AcDbDictionary
280
     1
281
     1
  3
ACAD_MTEXT_RT
360
2E4
  0
DICTIONARY
  5
2E5
330
26F
100
AcDbDictionary
280
     1
281
     1
  3
ACAD_MTEXT_RT
360
2E6
  0
DICTIONARY
  5
2E7
330
270
100
AcDbDictionary
280
     1
281
     1
  3
ACAD_MTEXT_RT
360
2E8
  0
DICTIONARY
  5
299
330
6E
100
AcDbDictionary
280
     1
281
     1
  3
ACAD_XREC_ROUNDTRIP
360
29A
  0
DICTIONARY
  5
288
330
287
100
AcDbDictionary
280
     1
281
     1
  3
ACAD_FILTER
360
289
  0
DICTIONARY
  5
D
102
{ACAD_REACTORS
330
C
102
}
330
C
100
AcDbDictionary
281
     1
  0
DICTIONARY
  5
1A
102
{ACAD_REACTORS
330
C
102
}
330
C
100
AcDbDictionary
281
     1
  3
02.21 27. Detail E.6
350
1E
  3
Model
350
22
  0
DICTIONARY
  5
43
102
{ACAD_REACTORS
330
C
102
}
330
C
100
AcDbDictionary
281
     1
  3
ByBlock
350
45
  3
ByLayer
350
44
  3
Global
350
46
  0
DICTIONARY
  5
6B
102
{ACAD_REACTORS
330
C
102
}
330
C
100
AcDbDictionary
281
     1
  3
Standard
350
6C
  0
DICTIONARY
  5
17
102
{ACAD_REACTORS
330
C
102
}
330
C
100
AcDbDictionary
281
     1
  3
Standard
350
18
  0
DICTIONARY
  5
19
102
{ACAD_REACTORS
330
C
102
}
330
C
100
AcDbDictionary
281
     1
  0
ACDBDICTIONARYWDFLT
  5
E
102
{ACAD_REACTORS
330
C
102
}
330
C
100
AcDbDictionary
281
     1
  3
Normal
350
F
100
AcDbDictionaryWithDefault
340
F
  0
DICTIONARY
  5
47
102
{ACAD_REACTORS
330
C
102
}
330
C
100
AcDbDictionary
281
     1
  3
A0
350
48
  3
A1
350
49
  3
A2
350
4A
  3
A3
350
4B
  3
A4
350
4C
  3
A5
350
4D
  3
A6
350
4E
  3
A7
350
4F
  3
A8
350
50
  3
A9
350
51
  3
B0
350
52
  3
B1
350
53
  3
B2
350
54
  3
B3
350
55
  3
B4
350
56
  3
B5
350
57
  3
B6
350
58
  3
B7
350
59
  3
B8
350
5A
  3
B9
350
5B
  3
C0
350
5C
  3
C1
350
5D
  3
C2
350
5E
  3
C3
350
5F
  3
C4
350
60
  3
C5
350
61
  3
C6
350
62
  3
C7
350
63
  3
C8
350
64
  3
C9
350
65
  3
D0
350
66
  3
D1
350
67
  3
D2
350
68
  0
DICTIONARY
  5
69
102
{ACAD_REACTORS
330
C
102
}
330
C
100
AcDbDictionary
281
     1
  3
Standard
350
6A
  0
DICTIONARY
  5
2A
102
{ACAD_REACTORS
330
C
102
}
330
C
100
AcDbDictionary
281
     1
  3
2dWireframe
350
2F
  3
Basic
350
32
  3
Brighten
350
36
  3
ColorChange
350
3A
  3
Conceptual
350
34
  3
Dim
350
35
  3
EdgeColorOff
350
3D
  3
Facepattern
350
39
  3
Flat
350
2B
  3
FlatWithEdges
350
2C
  3
Gouraud
350
2D
  3
GouraudWithEdges
350
2E
  3
Hidden
350
31
  3
JitterOff
350
3B
  3
Linepattern
350
38
  3
OverhangOff
350
3C
  3
Realistic
350
33
  3
Shaded
350
42
  3
Shaded with edges
350
41
  3
Shades of Gray
350
3E
  3
Sketchy
350
3F
  3
Thicken
350
37
  3
Wireframe
350
30
  3
X-Ray
350
40
  0
DICTIONARY
  5
291
102
{ACAD_REACTORS
330
C
102
}
330
C
100
AcDbDictionary
281
     1
  3
CANNOSCALE
350
2EB
  3
CMLEADERSTYLE
350
293
  3
CTABLESTYLE
350
292
  3
DIMASSOC
350
297
  3
HIDETEXT
350
298
  3
MSLTSCALE
350
2EC
  3
XCLIPFRAME
350
294
  0
XRECORD
  5
326
102
{ACAD_REACTORS
330
C
102
}
330
C
100
AcDbXrecord
280
     1
 90
        1
330
23D
330
23E
330
23C
330
23F
330
240
330
241
330
242
330
243
330
244
330
245
330
249
330
247
330
246
330
248
330
24B
330
24E
330
24A
330
24C
330
24D
330
253
330
258
330
25D
330
25E
330
261
330
262
330
263
330
264
330
265
330
26B
330
268
330
26A
330
270
330
26F
330
26E
330
26C
330
267
330
266
330
269
330
26D
  0
DICTIONARY
  5
28F
102
{ACAD_REACTORS
330
C
102
}
330
C
100
AcDbDictionary
281
     1
  3
AC_WATERMARK
350
290
  0
XRECORD
  5
2EA
102
{ACAD_REACTORS
330
2E9
102
}
330
2E9
100
AcDbXrecord
280
     1
102
VTR_0.000_0.000_1.000_1.000_VISUALSTYLE
340
2F
102
VTR_0.000_0.000_1.000_1.000_GRIDDISPLAY
 70
     3
102
VTR_0.000_0.000_1.000_1.000_GRIDMAJOR
 70
     5
102
VTR_0.000_0.000_1.000_1.000_DEFAULTLIGHTING
280
     1
102
VTR_0.000_0.000_1.000_1.000_DEFAULTLIGHTINGTYPE
 70
     1
102
VTR_0.000_0.000_1.000_1.000_BRIGHTNESS
141
0.0
102
VTR_0.000_0.000_1.000_1.000_CONTRAST
142
0.0
  0
XRECORD
  5
29C
102
{ACAD_REACTORS
330
29B
102
}
330
29B
100
AcDbXrecord
280
     1
 40
2210.0
  1
\A1;{\pql;\fArial|b0|i0|c0|p34;9}
  0
XRECORD
  5
29E
102
{ACAD_REACTORS
330
29D
102
}
330
29D
100
AcDbXrecord
280
     1
 40
2623.0
  1
\A1;{\pql;\fArial|b0|i0|c0|p34;10}
  0
XRECORD
  5
2A0
102
{ACAD_REACTORS
330
29F
102
}
330
29F
100
AcDbXrecord
280
     1
 40
2168.0
  1
\A1;{\pql;\fArial|b0|i0|c0|p34;2}
  0
XRECORD
  5
2A2
102
{ACAD_REACTORS
330
2A1
102
}
330
2A1
100
AcDbXrecord
280
     1
 40
2174.0
  1
\A1;{\pql;\fArial|b0|i0|c0|p34;3}
  0
XRECORD
  5
2A4
102
{ACAD_REACTORS
330
2A3
102
}
330
2A3
100
AcDbXrecord
280
     1
 40
2162.0
  1
\A1;{\pql;\fArial|b0|i0|c0|p34;1}
  0
XRECORD
  5
2A6
102
{ACAD_REACTORS
330
2A5
102
}
330
2A5
100
AcDbXrecord
280
     1
 40
2180.0
  1
\A1;{\pql;\fArial|b0|i0|c0|p34;4}
  0
XRECORD
  5
2A8
102
{ACAD_REACTORS
330
2A7
102
}
330
2A7
100
AcDbXrecord
280
     1
 40
2186.0
  1
\A1;{\pql;\fArial|b0|i0|c0|p34;5}
  0
XRECORD
  5
2AA
102
{ACAD_REACTORS
330
2A9
102
}
330
2A9
100
AcDbXrecord
280
     1
 40
2192.0
  1
\A1;{\pql;\fArial|b0|i0|c0|p34;6}
  0
XRECORD
  5
2AC
102
{ACAD_REACTORS
330
2AB
102
}
330
2AB
100
AcDbXrecord
280
     1
 40
2198.0
  1
\A1;{\pql;\fArial|b0|i0|c0|p34;7}
  0
XRECORD
  5
2AE
102
{ACAD_REACTORS
330
2AD
102
}
330
2AD
100
AcDbXrecord
280
     1
 40
2647.0
  1
\A1;{\pql;\fArial|b0|i0|c0|p34;50}
  0
XRECORD
  5
2B0
102
{ACAD_REACTORS
330
2AF
102
}
330
2AF
100
AcDbXrecord
280
     1
 40
55191.0
  1
\A1;{\pql;\fArial|b0|i0|c0|p34;Spenglerblech ohne Umschlag}
  0
XRECORD
  5
2B2
102
{ACAD_REACTORS
330
2B1
102
}
330
2B1
100
AcDbXrecord
280
     1
 40
2623.0
  1
\A1;{\pql;\fArial|b0|i0|c0|p34;10}
  0
XRECORD
  5
2B4
102
{ACAD_REACTORS
330
2B3
102
}
330
2B3
100
AcDbXrecord
280
     1
 40
37678.0
  1
\A1;{\pql;\fArial|b0|i0|c0|p34;RÖFIX Sockeldämmplatte}
  0
XRECORD
  5
2B6
102
{ACAD_REACTORS
330
2B5
102
}
330
2B5
100
AcDbXrecord
280
     1
 40
2658.0
  1
\A1;{\pql;\fArial|b0|i0|c0|p34;15}
  0
XRECORD
  5
2B8
102
{ACAD_REACTORS
330
2B7
102
}
330
2B7
100
AcDbXrecord
280
     1
 40
61762.0
  1
\A1;{\pql;\fArial|b0|i0|c0|p34;Bauwerksabdichtung (bauseits)}
  0
XRECORD
  5
2BA
102
{ACAD_REACTORS
330
2B9
102
}
330
2B9
100
AcDbXrecord
280
     1
 40
74824.0
  1
\A1;{\pql;\fArial|b0|i0|c0|p34;RÖFIX BAP 45 Blechanschlussprofil}
  0
XRECORD
  5
2BC
102
{ACAD_REACTORS
330
2BB
102
}
330
2BB
100
AcDbXrecord
280
     1
 40
7931.0
  1
\A1;{\pql;\fArial|b0|i0|c0|p34;1\U+22127}
  0
XRECORD
  5
2BE
102
{ACAD_REACTORS
330
2BD
102
}
330
2BD
100
AcDbXrecord
280
     1
 40
28920.0
  1
\A1;{\pql;\fArial|b0|i0|c0|p34;RÖFIX Systemaufbau}
  0
XRECORD
  5
2C0
102
{ACAD_REACTORS
330
2BF
102
}
330
2BF
100
AcDbXrecord
280
     1
 40
2690.0
  1
\A1;{\pql;\fArial|b0|i0|c0|p34;47}
  0
XRECORD
  5
2C2
102
{ACAD_REACTORS
330
2C1
102
}
330
2C1
100
AcDbXrecord
280
     1
 40
36959.0
  1
\A1;{\W0.933831x;\pql;\Ftxt.shx;Datum 08.04.2020}
  0
XRECORD
  5
2C4
102
{ACAD_REACTORS
330
2C3
102
}
330
2C3
100
AcDbXrecord
280
     1
 40
102153.0
  1
\A1;{\W0.933831x;\pql;\Ftxt.shx;E. \Ftxt.shx;Sitzplatz, Balkon, Terrasse}
  0
XRECORD
  5
2C6
102
{ACAD_REACTORS
330
2C5
102
}
330
2C5
100
AcDbXrecord
280
     1
 40
402237.0
  1
\A1;{\W0.933831x;\pql;\Ftxt.shx;E.6 ^I \Ftxt.shx;Fugenanschluss an Spenglersockel Abschluss mit Blechanschlussprofil}
  0
XRECORD
  5
2C8
102
{ACAD_REACTORS
330
2C7
102
}
330
2C7
100
AcDbXrecord
280
     1
 40
2210.0
  1
\A1;{\pql;\fArial|b0|i0|c0|p34;9}
  0
XRECORD
  5
2CA
102
{ACAD_REACTORS
330
2C9
102
}
330
2C9
100
AcDbXrecord
280
     1
 40
2658.0
  1
\A1;{\pql;\fArial|b0|i0|c0|p34;15}
  0
XRECORD
  5
2CC
102
{ACAD_REACTORS
330
2CB
102
}
330
2CB
100
AcDbXrecord
280
     1
 40
10643.0
  1
\A1;{\pql;\fArial|b0|i0|c0|p34;max. 25 cm}
  0
XRECORD
  5
2CE
102
{ACAD_REACTORS
330
2CD
102
}
330
2CD
100
AcDbXrecord
280
     1
 40
20628.0
  1
\A1;{\pql;\fArial|b0|i0|c0|p34;Gefälle mind.1.5%}
  0
XRECORD
  5
2D0
102
{ACAD_REACTORS
330
2CF
102
}
330
2CF
100
AcDbXrecord
280
     1
 40
11903.0
  1
\A1;{\pql;\fArial|b0|i0|c0|p34;10 mm Luft}
  0
XRECORD
  5
2D2
102
{ACAD_REACTORS
330
2D1
102
}
330
2D1
100
AcDbXrecord
280
     1
 40
46424.0
  1
\A1;{\pql;\fArial|b0|i0|c0|p34;Kleben mit RÖFIX Collstar, }
  0
XRECORD
  5
2D4
102
{ACAD_REACTORS
330
2D3
102
}
330
2D3
100
AcDbXrecord
280
     1
 40
107511.0
  1
\A1;{\pql;\fArial|b0|i0|c0|p34;RÖFIX Optiflex\Ftxt.shx;\A1{\H.66x;\S®^  ;}}
  0
XRECORD
  5
2D6
102
{ACAD_REACTORS
330
2D5
102
}
330
2D5
100
AcDbXrecord
280
     1
 40
2647.0
  1
\A1;{\pql;\fArial|b0|i0|c0|p34;50}
  0
XRECORD
  5
2D8
102
{ACAD_REACTORS
330
2D7
102
}
330
2D7
100
AcDbXrecord
280
     1
 40
54199.0
  1
\A1;{\pql;\fArial|b0|i0|c0|p34;Vollflächige Verklebung mit}
  0
XRECORD
  5
2DA
102
{ACAD_REACTORS
330
2D9
102
}
330
2D9
100
AcDbXrecord
280
     1
 40
312445.0
  1
\A1;{\pql;\fArial|b0|i0|c0|p34;RÖFIX Collstar oder \fArial|b0|i0|c0|p34;\H0.999945x;RÖFIX Optiflex\Ftxt.shx;\H1.000053x;\A1{\H.66x;\S®^  ;}}
  0
XRECORD
  5
2DC
102
{ACAD_REACTORS
330
2DB
102
}
330
2DB
100
AcDbXrecord
280
     1
 40
2630.0
  1
\A1;{\pql;\fArial|b0|i0|c0|p34;11}
  0
XRECORD
  5
2DE
102
{ACAD_REACTORS
330
2DD
102
}
330
2DD
100
AcDbXrecord
280
     1
 40
2204.0
  1
\A1;{\pql;\fArial|b0|i0|c0|p34;8}
  0
XRECORD
  5
2E0
102
{ACAD_REACTORS
330
2DF
102
}
330
2DF
100
AcDbXrecord
280
     1
 40
29681.0
  1
\A1;{\pql;\fArial|b0|i0|c0|p34;RÖFIX Dämmstoffdübel}
  0
XRECORD
  5
2E2
102
{ACAD_REACTORS
330
2E1
102
}
330
2E1
100
AcDbXrecord
280
     1
 40
135423.0
  1
\A1;{\pql;\fArial|b0|i0|c0|p34;Beschichten mit RÖFIX Optiflex\fArial|b0|i0|c0|p34;\A1{\H.66x;\S® ^  ;}\fArial|b0|i0|c0|p34; }
  0
XRECORD
  5
2E4
102
{ACAD_REACTORS
330
2E3
102
}
330
2E3
100
AcDbXrecord
280
     1
 40
12837.0
  1
\A1;{\W1.091396x;\pql;\fArial|b0|i0|c0|p34;11}
  0
XRECORD
  5
2E6
102
{ACAD_REACTORS
330
2E5
102
}
330
2E5
100
AcDbXrecord
280
     1
 40
12683.0
  1
\A1;{\pql;\fArial|b0|i0|c0|p34;mind. 12 cm }
  0
XRECORD
  5
2E8
102
{ACAD_REACTORS
330
2E7
102
}
330
2E7
100
AcDbXrecord
280
     1
 40
2204.0
  1
\A1;{\pql;\fArial|b0|i0|c0|p34;8}
  0
XRECORD
  5
29A
102
{ACAD_REACTORS
330
299
102
}
330
299
100
AcDbXrecord
280
     1
102
VISUALSTYLE
340
2F
102
GRIDDISPLAY
 70
     2
102
GRIDMAJOR
 70
     5
102
DEFAULTLIGHTING
280
     1
102
DEFAULTLIGHTINGTYPE
 70
     1
102
BRIGHTNESS
141
0.0
102
CONTRAST
142
0.0
  0
DICTIONARY
  5
289
102
{ACAD_REACTORS
330
288
102
}
330
288
100
AcDbDictionary
280
     1
281
     1
  3
SPATIAL
360
28A
  0
LAYOUT
  5
1E
102
{ACAD_REACTORS
330
1A
102
}
330
1A
100
AcDbPlotSettings
  1

  2
none_device
  4

  6

 40
0.0
 41
0.0
 42
0.0
 43
0.0
 44
210.0
 45
297.0
 46
0.0
 47
0.0
 48
0.0
 49
0.0
140
0.0
141
0.0
142
1.0
143
1.0
 70
   688
 72
     1
 73
     0
 74
     5
  7

 75
    16
147
1.0
148
0.0
149
0.0
100
AcDbLayout
  1
02.21 27. Detail E.6
 70
     0
 71
     1
 10
0.0
 20
0.0
 11
12.0
 21
9.0
 12
0.0
 22
0.0
 32
0.0
 14
1.000000000000000E+20
 24
1.000000000000000E+20
 34
1.000000000000000E+20
 15
-1.000000000000000E+20
 25
-1.000000000000000E+20
 35
-1.000000000000000E+20
146
0.0
 13
0.0
 23
0.0
 33
0.0
 16
1.0
 26
0.0
 36
0.0
 17
0.0
 27
1.0
 37
0.0
 76
     0
330
1B
331
6E
  0
LAYOUT
  5
22
102
{ACAD_REACTORS
330
1A
102
}
330
1A
100
AcDbPlotSettings
  1

  2
none_device
  4
Letter_(8.50_x_11.00_Inches)
  6

 40
6.35
 41
6.35
 42
6.35000508
 43
6.35000508
 44
215.9
 45
279.4
 46
0.0
 47
0.0
 48
0.0
 49
0.0
140
0.0
141
0.0
142
1.0
143
1.0
 70
  1712
 72
     0
 73
     0
 74
     0
  7

 75
     0
147
1.0
148
0.0
149
0.0
100
AcDbLayout
  1
Model
 70
     1
 71
     0
 10
0.0
 20
0.0
 11
12.0
 21
9.0
 12
0.0
 22
0.0
 32
0.0
 14
1.000000000000000E+20
 24
1.000000000000000E+20
 34
1.000000000000000E+20
 15
-1.000000000000000E+20
 25
-1.000000000000000E+20
 35
-1.000000000000000E+20
146
0.0
 13
0.0
 23
0.0
 33
0.0
 16
1.0
 26
0.0
 36
0.0
 17
0.0
 27
1.0
 37
0.0
 76
     0
330
1F
331
29
  0
MATERIAL
  5
45
102
{ACAD_REACTORS
330
43
102
}
102
{ACAD_XDICTIONARY
360
31F
102
}
330
43
100
AcDbMaterial
  1
ByBlock
  0
MATERIAL
  5
44
102
{ACAD_REACTORS
330
43
102
}
102
{ACAD_XDICTIONARY
360
31D
102
}
330
43
100
AcDbMaterial
  1
ByLayer
  0
MATERIAL
  5
46
102
{ACAD_REACTORS
330
43
102
}
102
{ACAD_XDICTIONARY
360
321
102
}
330
43
100
AcDbMaterial
  1
Global
  0
MLEADERSTYLE
  5
6C
102
{ACAD_REACTORS
330
6B
102
}
102
{ACAD_XDICTIONARY
360
324
102
}
330
6B
100
AcDbMLeaderStyle
170
     2
171
     1
172
     0
 90
        2
 40
0.0
 41
0.0
173
     1
 91
-1056964608
340
14
 92
       -2
290
     1
 42
0.09
291
     1
 43
0.36
  3
Standard
341
0
 44
0.18
300

342
11
174
     1
178
     6
175
     1
176
     0
 93
-1056964608
 45
0.18
292
     0
297
     0
 46
0.18
343
0
 94
-1056964608
 47
1.0
 49
1.0
140
1.0
293
     1
141
0.0
294
     1
177
     0
142
1.0
295
     0
296
     0
143
0.125
1001
ACAD_MLEADERVER
1070
     2
  0
MLINESTYLE
  5
18
102
{ACAD_REACTORS
330
17
102
}
330
17
100
AcDbMlineStyle
  2
Standard
 70
     0
  3

 62
   256
 51
90.0
 52
90.0
 71
     2
 49
0.5
 62
   256
  6
BYLAYER
 49
-0.5
 62
   256
  6
BYLAYER
  0
ACDBPLACEHOLDER
  5
F
102
{ACAD_REACTORS
330
E
102
}
330
E
  0
SCALE
  5
48
102
{ACAD_REACTORS
330
47
102
}
330
47
100
AcDbScale
 70
     0
300
1:1
140
1.0
141
1.0
290
     1
  0
SCALE
  5
49
102
{ACAD_REACTORS
330
47
102
}
330
47
100
AcDbScale
 70
     0
300
1:2
140
1.0
141
2.0
290
     0
  0
SCALE
  5
4A
102
{ACAD_REACTORS
330
47
102
}
330
47
100
AcDbScale
 70
     0
300
1:4
140
1.0
141
4.0
290
     0
  0
SCALE
  5
4B
102
{ACAD_REACTORS
330
47
102
}
330
47
100
AcDbScale
 70
     0
300
1:5
140
1.0
141
5.0
290
     0
  0
SCALE
  5
4C
102
{ACAD_REACTORS
330
47
102
}
330
47
100
AcDbScale
 70
     0
300
1:8
140
1.0
141
8.0
290
     0
  0
SCALE
  5
4D
102
{ACAD_REACTORS
330
47
102
}
330
47
100
AcDbScale
 70
     0
300
1:10
140
1.0
141
10.0
290
     0
  0
SCALE
  5
4E
102
{ACAD_REACTORS
330
47
102
}
330
47
100
AcDbScale
 70
     0
300
1:16
140
1.0
141
16.0
290
     0
  0
SCALE
  5
4F
102
{ACAD_REACTORS
330
47
102
}
330
47
100
AcDbScale
 70
     0
300
1:20
140
1.0
141
20.0
290
     0
  0
SCALE
  5
50
102
{ACAD_REACTORS
330
47
102
}
330
47
100
AcDbScale
 70
     0
300
1:30
140
1.0
141
30.0
290
     0
  0
SCALE
  5
51
102
{ACAD_REACTORS
330
47
102
}
330
47
100
AcDbScale
 70
     0
300
1:40
140
1.0
141
40.0
290
     0
  0
SCALE
  5
52
102
{ACAD_REACTORS
330
47
102
}
330
47
100
AcDbScale
 70
     0
300
1:50
140
1.0
141
50.0
290
     0
  0
SCALE
  5
53
102
{ACAD_REACTORS
330
47
102
}
330
47
100
AcDbScale
 70
     0
300
1:100
140
1.0
141
100.0
290
     0
  0
SCALE
  5
54
102
{ACAD_REACTORS
330
47
102
}
330
47
100
AcDbScale
 70
     0
300
2:1
140
2.0
141
1.0
290
     0
  0
SCALE
  5
55
102
{ACAD_REACTORS
330
47
102
}
330
47
100
AcDbScale
 70
     0
300
4:1
140
4.0
141
1.0
290
     0
  0
SCALE
  5
56
102
{ACAD_REACTORS
330
47
102
}
330
47
100
AcDbScale
 70
     0
300
8:1
140
8.0
141
1.0
290
     0
  0
SCALE
  5
57
102
{ACAD_REACTORS
330
47
102
}
330
47
100
AcDbScale
 70
     0
300
10:1
140
10.0
141
1.0
290
     0
  0
SCALE
  5
58
102
{ACAD_REACTORS
330
47
102
}
330
47
100
AcDbScale
 70
     0
300
100:1
140
100.0
141
1.0
290
     0
  0
SCALE
  5
59
102
{ACAD_REACTORS
330
47
102
}
330
47
100
AcDbScale
 70
     0
300
1/128" = 1'-0"
140
0.0078125
141
12.0
290
     0
  0
SCALE
  5
5A
102
{ACAD_REACTORS
330
47
102
}
330
47
100
AcDbScale
 70
     0
300
1/64" = 1'-0"
140
0.015625
141
12.0
290
     0
  0
SCALE
  5
5B
102
{ACAD_REACTORS
330
47
102
}
330
47
100
AcDbScale
 70
     0
300
1/32" = 1'-0"
140
0.03125
141
12.0
290
     0
  0
SCALE
  5
5C
102
{ACAD_REACTORS
330
47
102
}
330
47
100
AcDbScale
 70
     0
300
1/16" = 1'-0"
140
0.0625
141
12.0
290
     0
  0
SCALE
  5
5D
102
{ACAD_REACTORS
330
47
102
}
330
47
100
AcDbScale
 70
     0
300
3/32" = 1'-0"
140
0.09375
141
12.0
290
     0
  0
SCALE
  5
5E
102
{ACAD_REACTORS
330
47
102
}
330
47
100
AcDbScale
 70
     0
300
1/8" = 1'-0"
140
0.125
141
12.0
290
     0
  0
SCALE
  5
5F
102
{ACAD_REACTORS
330
47
102
}
330
47
100
AcDbScale
 70
     0
300
3/16" = 1'-0"
140
0.1875
141
12.0
290
     0
  0
SCALE
  5
60
102
{ACAD_REACTORS
330
47
102
}
330
47
100
AcDbScale
 70
     0
300
1/4" = 1'-0"
140
0.25
141
12.0
290
     0
  0
SCALE
  5
61
102
{ACAD_REACTORS
330
47
102
}
330
47
100
AcDbScale
 70
     0
300
3/8" = 1'-0"
140
0.375
141
12.0
290
     0
  0
SCALE
  5
62
102
{ACAD_REACTORS
330
47
102
}
330
47
100
AcDbScale
 70
     0
300
1/2" = 1'-0"
140
0.5
141
12.0
290
     0
  0
SCALE
  5
63
102
{ACAD_REACTORS
330
47
102
}
330
47
100
AcDbScale
 70
     0
300
3/4" = 1'-0"
140
0.75
141
12.0
290
     0
  0
SCALE
  5
64
102
{ACAD_REACTORS
330
47
102
}
330
47
100
AcDbScale
 70
     0
300
1" = 1'-0"
140
1.0
141
12.0
290
     0
  0
SCALE
  5
65
102
{ACAD_REACTORS
330
47
102
}
330
47
100
AcDbScale
 70
     0
300
1-1/2" = 1'-0"
140
1.5
141
12.0
290
     0
  0
SCALE
  5
66
102
{ACAD_REACTORS
330
47
102
}
330
47
100
AcDbScale
 70
     0
300
3" = 1'-0"
140
3.0
141
12.0
290
     0
  0
SCALE
  5
67
102
{ACAD_REACTORS
330
47
102
}
330
47
100
AcDbScale
 70
     0
300
6" = 1'-0"
140
6.0
141
12.0
290
     0
  0
SCALE
  5
68
102
{ACAD_REACTORS
330
47
102
}
330
47
100
AcDbScale
 70
     0
300
1'-0" = 1'-0"
140
12.0
141
12.0
290
     0
  0
TABLESTYLE
  5
6A
102
{ACAD_REACTORS
330
69
102
}
330
69
100
AcDbTableStyle
  3
Standard
 70
     0
 71
     0
 40
0.06
 41
0.06
280
     0
281
     0
  7
Standard
140
0.18
170
     2
 62
     0
 63
   257
283
     0
274
    -2
284
     1
 64
     0
275
    -2
285
     1
 65
     0
276
    -2
286
     1
 66
     0
277
    -2
287
     1
 67
     0
278
    -2
288
     1
 68
     0
279
    -2
289
     1
 69
     0
  7
Standard
140
0.25
170
     5
 62
     0
 63
   257
283
     0
274
    -2
284
     1
 64
     0
275
    -2
285
     1
 65
     0
276
    -2
286
     1
 66
     0
277
    -2
287
     1
 67
     0
278
    -2
288
     1
 68
     0
279
    -2
289
     1
 69
     0
  7
Standard
140
0.18
170
     5
 62
     0
 63
   257
283
     0
274
    -2
284
     1
 64
     0
275
    -2
285
     1
 65
     0
276
    -2
286
     1
 66
     0
277
    -2
287
     1
 67
     0
278
    -2
288
     1
 68
     0
279
    -2
289
     1
 69
     0
  0
VISUALSTYLE
  5
2F
102
{ACAD_REACTORS
330
2A
102
}
102
{ACAD_XDICTIONARY
360
2F5
102
}
330
2A
100
AcDbVisualStyle
  2
2dWireframe
 70
     4
 71
     0
 72
     2
 73
     0
 90
        0
 40
0.6
 41
30.0
 62
     5
 63
     7
 74
     1
 91
        4
 64
     7
 65
   257
 75
     1
175
     1
 42
1.0
 92
        0
 66
   257
 43
1.0
 76
     1
 77
     6
 78
     2
 67
     7
 79
     5
170
     0
171
     0
290
     0
174
     0
 93
        1
 44
0.0
173
     0
291
     0
 45
0.0
1001
ACAD
1000
AcDbSavedByObjectVersion
1070
     0
  0
VISUALSTYLE
  5
32
102
{ACAD_REACTORS
330
2A
102
}
102
{ACAD_XDICTIONARY
360
2FB
102
}
330
2A
100
AcDbVisualStyle
  2
Basic
 70
     7
 71
     1
 72
     0
 73
     1
 90
        0
 40
0.6
 41
30.0
 62
     5
 63
     7
 74
     0
 91
        4
 64
     7
 65
   257
 75
     1
175
     1
 42
1.0
 92
        8
 66
     7
 43
1.0
 76
     1
 77
     6
 78
     2
 67
     7
 79
     5
170
     0
171
     0
290
     0
174
     0
 93
        1
 44
0.0
173
     0
291
     1
 45
0.0
1001
ACAD
1000
AcDbSavedByObjectVersion
1070
     0
  0
VISUALSTYLE
  5
36
102
{ACAD_REACTORS
330
2A
102
}
102
{ACAD_XDICTIONARY
360
303
102
}
330
2A
100
AcDbVisualStyle
  2
Brighten
 70
    12
 71
     2
 72
     2
 73
     0
 90
        0
 40
0.6
 41
30.0
 62
     5
 63
     7
 74
     1
 91
        4
 64
     7
 65
   257
 75
     1
175
     1
 42
1.0
 92
        8
 66
     7
 43
1.0
 76
     1
 77
     6
 78
     2
 67
     7
 79
     5
170
     0
171
     0
290
     0
174
     0
 93
        1
 44
50.0
173
     0
291
     1
 45
0.0
1001
ACAD
1000
AcDbSavedByObjectVersion
1070
     0
  0
VISUALSTYLE
  5
3A
102
{ACAD_REACTORS
330
2A
102
}
102
{ACAD_XDICTIONARY
360
30B
102
}
330
2A
100
AcDbVisualStyle
  2
ColorChange
 70
    16
 71
     2
 72
     2
 73
     3
 90
        0
 40
0.6
 41
30.0
 62
     5
 63
     8
 74
     1
 91
        4
 64
     7
 65
   257
 75
     1
175
     1
 42
1.0
 92
        8
 66
     8
 43
1.0
 76
     1
 77
     6
 78
     2
 67
     7
 79
     5
170
     0
171
     0
290
     0
174
     0
 93
        1
 44
0.0
173
     0
291
     1
 45
0.0
1001
ACAD
1000
AcDbSavedByObjectVersion
1070
     0
  0
VISUALSTYLE
  5
34
102
{ACAD_REACTORS
330
2A
102
}
102
{ACAD_XDICTIONARY
360
2FF
102
}
330
2A
100
AcDbVisualStyle
  2
Conceptual
 70
     9
 71
     3
 72
     2
 73
     0
 90
        0
 40
0.6
 41
30.0
 62
     5
 63
     7
 74
     2
 91
        2
 64
     7
 65
   257
 75
     1
175
     1
 42
179.0
 92
        8
 66
     7
 43
1.0
 76
     1
 77
     6
 78
     2
 67
     7
 79
     3
170
     0
171
     0
290
     0
174
     0
 93
        1
 44
0.0
173
     0
291
     0
 45
0.0
1001
ACAD
1000
AcDbSavedByObjectVersion
1070
     0
  0
VISUALSTYLE
  5
35
102
{ACAD_REACTORS
330
2A
102
}
102
{ACAD_XDICTIONARY
360
301
102
}
330
2A
100
AcDbVisualStyle
  2
Dim
 70
    11
 71
     2
 72
     2
 73
     0
 90
        0
 40
0.6
 41
30.0
 62
     5
 63
     7
 74
     1
 91
        4
 64
     7
 65
   257
 75
     1
175
     1
 42
1.0
 92
        8
 66
     7
 43
1.0
 76
     1
 77
     6
 78
     2
 67
     7
 79
     5
170
     0
171
     0
290
     0
174
     0
 93
        1
 44
-50.0
173
     0
291
     1
 45
0.0
1001
ACAD
1000
AcDbSavedByObjectVersion
1070
     0
  0
VISUALSTYLE
  5
3D
102
{ACAD_REACTORS
330
2A
102
}
102
{ACAD_XDICTIONARY
360
311
102
}
330
2A
100
AcDbVisualStyle
  2
EdgeColorOff
 70
    22
 71
     2
 72
     2
 73
     0
 90
        0
 40
0.6
 41
30.0
 62
     5
 63
     7
 74
     1
 91
        4
 64
     7
 65
   257
 75
     1
175
     1
 42
1.0
 92
        8
 66
     7
 43
1.0
 76
     1
 77
     6
 78
     2
 67
     7
 79
     5
170
     0
171
     0
290
     0
174
     0
 93
        1
 44
0.0
173
     0
291
     1
 45
0.0
1001
ACAD
1000
AcDbSavedByObjectVersion
1070
     0
  0
VISUALSTYLE
  5
39
102
{ACAD_REACTORS
330
2A
102
}
102
{ACAD_XDICTIONARY
360
309
102
}
330
2A
100
AcDbVisualStyle
  2
Facepattern
 70
    15
 71
     2
 72
     2
 73
     0
 90
        0
 40
0.6
 41
30.0
 62
     5
 63
     7
 74
     1
 91
        4
 64
     7
 65
   257
 75
     1
175
     1
 42
1.0
 92
        8
 66
     7
 43
1.0
 76
     1
 77
     6
 78
     2
 67
     7
 79
     5
170
     0
171
     0
290
     0
174
     0
 93
        1
 44
0.0
173
     0
291
     1
 45
0.0
1001
ACAD
1000
AcDbSavedByObjectVersion
1070
     0
  0
VISUALSTYLE
  5
2B
102
{ACAD_REACTORS
330
2A
102
}
102
{ACAD_XDICTIONARY
360
2ED
102
}
330
2A
100
AcDbVisualStyle
  2
Flat
 70
     0
 71
     2
 72
     1
 73
     1
 90
        2
 40
0.6
 41
30.0
 62
     5
 63
     7
 74
     0
 91
        0
 64
     7
 65
   257
 75
     1
175
     1
 42
1.0
 92
        8
 66
     7
 43
1.0
 76
     1
 77
     6
 78
     2
 67
     7
 79
     5
170
     0
171
     0
290
     0
174
     0
 93
       13
 44
0.0
173
     0
291
     1
 45
0.0
1001
ACAD
1000
AcDbSavedByObjectVersion
1070
     0
  0
VISUALSTYLE
  5
2C
102
{ACAD_REACTORS
330
2A
102
}
102
{ACAD_XDICTIONARY
360
2EF
102
}
330
2A
100
AcDbVisualStyle
  2
FlatWithEdges
 70
     1
 71
     2
 72
     1
 73
     1
 90
        2
 40
0.6
 41
30.0
 62
     5
 63
     7
 74
     1
 91
        0
 64
     7
 65
   257
 75
     1
175
     1
 42
1.0
 92
        0
 66
   257
 43
1.0
 76
     1
 77
     6
 78
     2
 67
     7
 79
     5
170
     0
171
     0
290
     0
174
     0
 93
       13
 44
0.0
173
     0
291
     1
 45
0.0
1001
ACAD
1000
AcDbSavedByObjectVersion
1070
     0
  0
VISUALSTYLE
  5
2D
102
{ACAD_REACTORS
330
2A
102
}
102
{ACAD_XDICTIONARY
360
2F1
102
}
330
2A
100
AcDbVisualStyle
  2
Gouraud
 70
     2
 71
     2
 72
     2
 73
     1
 90
        2
 40
0.6
 41
30.0
 62
     5
 63
     7
 74
     0
 91
        0
 64
     7
 65
   257
 75
     1
175
     1
 42
1.0
 92
        0
 66
     7
 43
1.0
 76
     1
 77
     6
 78
     2
 67
     7
 79
     5
170
     0
171
     0
290
     0
174
     0
 93
       13
 44
0.0
173
     0
291
     1
 45
0.0
1001
ACAD
1000
AcDbSavedByObjectVersion
1070
     0
  0
VISUALSTYLE
  5
2E
102
{ACAD_REACTORS
330
2A
102
}
102
{ACAD_XDICTIONARY
360
2F3
102
}
330
2A
100
AcDbVisualStyle
  2
GouraudWithEdges
 70
     3
 71
     2
 72
     2
 73
     1
 90
        2
 40
0.6
 41
30.0
 62
     5
 63
     7
 74
     1
 91
        0
 64
     7
 65
   257
 75
     1
175
     1
 42
1.0
 92
        0
 66
   257
 43
1.0
 76
     1
 77
     6
 78
     2
 67
     7
 79
     5
170
     0
171
     0
290
     0
174
     0
 93
       13
 44
0.0
173
     0
291
     1
 45
0.0
1001
ACAD
1000
AcDbSavedByObjectVersion
1070
     0
  0
VISUALSTYLE
  5
31
102
{ACAD_REACTORS
330
2A
102
}
102
{ACAD_XDICTIONARY
360
2F9
102
}
330
2A
100
AcDbVisualStyle
  2
Hidden
 70
     6
 71
     1
 72
     2
 73
     2
 90
        0
 40
0.6
 41
30.0
 62
     5
 63
     7
 74
     2
 91
        2
 64
     7
 65
   257
 75
     2
175
     1
 42
40.0
 92
        0
 66
   257
 43
1.0
 76
     1
 77
     6
 78
     2
 67
     7
 79
     3
170
     0
171
     0
290
     0
174
     0
 93
        1
 44
0.0
173
     0
291
     0
 45
0.0
1001
ACAD
1000
AcDbSavedByObjectVersion
1070
     0
  0
VISUALSTYLE
  5
3B
102
{ACAD_REACTORS
330
2A
102
}
102
{ACAD_XDICTIONARY
360
30D
102
}
330
2A
100
AcDbVisualStyle
  2
JitterOff
 70
    20
 71
     2
 72
     2
 73
     0
 90
        0
 40
0.6
 41
30.0
 62
     5
 63
     7
 74
     1
 91
        4
 64
     7
 65
   257
 75
     1
175
     1
 42
1.0
 92
       10
 66
     7
 43
1.0
 76
     1
 77
     6
 78
     2
 67
     7
 79
     5
170
     0
171
     0
290
     0
174
     0
 93
        1
 44
0.0
173
     0
291
     1
 45
0.0
1001
ACAD
1000
AcDbSavedByObjectVersion
1070
     0
  0
VISUALSTYLE
  5
38
102
{ACAD_REACTORS
330
2A
102
}
102
{ACAD_XDICTIONARY
360
307
102
}
330
2A
100
AcDbVisualStyle
  2
Linepattern
 70
    14
 71
     2
 72
     2
 73
     0
 90
        0
 40
0.6
 41
30.0
 62
     5
 63
     7
 74
     1
 91
        4
 64
     7
 65
   257
 75
     7
175
     7
 42
1.0
 92
        8
 66
     7
 43
1.0
 76
     1
 77
     6
 78
     2
 67
     7
 79
     5
170
     0
171
     0
290
     0
174
     0
 93
        1
 44
0.0
173
     0
291
     1
 45
0.0
1001
ACAD
1000
AcDbSavedByObjectVersion
1070
     0
  0
VISUALSTYLE
  5
3C
102
{ACAD_REACTORS
330
2A
102
}
102
{ACAD_XDICTIONARY
360
30F
102
}
330
2A
100
AcDbVisualStyle
  2
OverhangOff
 70
    21
 71
     2
 72
     2
 73
     0
 90
        0
 40
0.6
 41
30.0
 62
     5
 63
     7
 74
     1
 91
        4
 64
     7
 65
   257
 75
     1
175
     1
 42
1.0
 92
        9
 66
     7
 43
1.0
 76
     1
 77
     6
 78
     2
 67
     7
 79
     5
170
     0
171
     0
290
     0
174
     0
 93
        1
 44
0.0
173
     0
291
     1
 45
0.0
1001
ACAD
1000
AcDbSavedByObjectVersion
1070
     0
  0
VISUALSTYLE
  5
33
102
{ACAD_REACTORS
330
2A
102
}
102
{ACAD_XDICTIONARY
360
2FD
102
}
330
2A
100
AcDbVisualStyle
  2
Realistic
 70
     8
 71
     2
 72
     3
 73
     0
 90
        2
 40
0.6
 41
30.0
 62
     5
 63
     7
 74
     0
 91
        0
 64
     7
 65
   257
 75
     1
175
     1
 42
1.0
 92
        8
 66
   257
 43
1.0
 76
     1
 77
     6
 78
     2
 67
     7
 79
     3
170
     0
171
     0
290
     0
174
     0
 93
       13
 44
0.0
173
     0
291
     0
 45
0.0
1001
ACAD
1000
AcDbSavedByObjectVersion
1070
     0
  0
VISUALSTYLE
  5
42
102
{ACAD_REACTORS
330
2A
102
}
102
{ACAD_XDICTIONARY
360
31B
102
}
330
2A
100
AcDbVisualStyle
  2
Shaded
 70
    27
 71
     2
 72
     2
 73
     1
 90
        2
 40
0.6
 41
30.0
 62
     5
 63
     7
 74
     0
 91
        4
 64
     7
 65
   257
 75
     1
175
     1
 42
1.0
 92
        8
 66
   257
 43
1.0
 76
     1
 77
     6
 78
     2
 67
     8
 79
     3
170
     0
171
     0
290
     0
174
     0
 93
        5
 44
0.0
173
     0
291
     0
 45
0.0
1001
ACAD
1000
AcDbSavedByObjectVersion
1070
     0
  0
VISUALSTYLE
  5
41
102
{ACAD_REACTORS
330
2A
102
}
102
{ACAD_XDICTIONARY
360
319
102
}
330
2A
100
AcDbVisualStyle
  2
Shaded with edges
 70
    26
 71
     2
 72
     2
 73
     1
 90
        2
 40
0.6
 41
30.0
 62
     5
 63
     7
 74
     1
 91
       10
 64
     7
 65
   257
 75
     2
175
     1
 42
1.0
 92
        8
 66
   257
 43
1.0
 76
     1
 77
     6
 78
     2
 67
     7
 79
     3
170
     0
171
     0
290
     0
174
     0
 93
        5
 44
0.0
173
     0
291
     0
 45
0.0
1001
ACAD
1000
AcDbSavedByObjectVersion
1070
     0
  0
VISUALSTYLE
  5
3E
102
{ACAD_REACTORS
330
2A
102
}
102
{ACAD_XDICTIONARY
360
313
102
}
330
2A
100
AcDbVisualStyle
  2
Shades of Gray
 70
    23
 71
     2
 72
     2
 73
     3
 90
        0
 40
0.6
 41
30.0
 62
     5
 63
     7
 74
     2
 91
        2
 64
     7
 65
     7
 75
     1
175
     1
 42
40.0
 92
        8
 66
     7
 43
1.0
 76
     1
 77
     6
 78
     2
 67
     7
 79
     3
170
     0
171
     0
290
     0
174
     0
 93
        1
 44
0.0
173
     0
291
     0
 45
0.0
1001
ACAD
1000
AcDbSavedByObjectVersion
1070
     0
  0
VISUALSTYLE
  5
3F
102
{ACAD_REACTORS
330
2A
102
}
102
{ACAD_XDICTIONARY
360
315
102
}
330
2A
100
AcDbVisualStyle
  2
Sketchy
 70
    24
 71
     1
 72
     2
 73
     2
 90
        0
 40
0.6
 41
30.0
 62
     5
 63
     7
 74
     2
 91
        2
 64
     7
 65
     7
 75
     1
175
     1
 42
40.0
 92
       11
 66
     7
 43
1.0
 76
     1
 77
     6
 78
     2
 67
     7
 79
     6
170
     0
171
     0
290
     0
174
     0
 93
        1
 44
0.0
173
     0
291
     0
 45
0.0
1001
ACAD
1000
AcDbSavedByObjectVersion
1070
     0
  0
VISUALSTYLE
  5
37
102
{ACAD_REACTORS
330
2A
102
}
102
{ACAD_XDICTIONARY
360
305
102
}
330
2A
100
AcDbVisualStyle
  2
Thicken
 70
    13
 71
     2
 72
     2
 73
     0
 90
        0
 40
0.6
 41
30.0
 62
     5
 63
     7
 74
     1
 91
        4
 64
     7
 65
   257
 75
     1
175
     1
 42
1.0
 92
       12
 66
     7
 43
1.0
 76
     1
 77
     6
 78
     2
 67
     7
 79
     5
170
     0
171
     0
290
     0
174
     0
 93
        1
 44
0.0
173
     0
291
     1
 45
0.0
1001
ACAD
1000
AcDbSavedByObjectVersion
1070
     0
  0
VISUALSTYLE
  5
30
102
{ACAD_REACTORS
330
2A
102
}
102
{ACAD_XDICTIONARY
360
2F7
102
}
330
2A
100
AcDbVisualStyle
  2
Wireframe
 70
     5
 71
     0
 72
     2
 73
     0
 90
        0
 40
0.6
 41
30.0
 62
     5
 63
     7
 74
     1
 91
        4
 64
     7
 65
   257
 75
     1
175
     1
 42
1.0
 92
        0
 66
   257
 43
1.0
 76
     1
 77
     6
 78
     2
 67
     7
 79
     3
170
     0
171
     0
290
     0
174
     0
 93
        1
 44
0.0
173
     0
291
     0
 45
0.0
1001
ACAD
1000
AcDbSavedByObjectVersion
1070
     0
  0
VISUALSTYLE
  5
40
102
{ACAD_REACTORS
330
2A
102
}
102
{ACAD_XDICTIONARY
360
317
102
}
330
2A
100
AcDbVisualStyle
  2
X-Ray
 70
    25
 71
     2
 72
     2
 73
     1
 90
        1
 40
0.5
 41
30.0
 62
     5
 63
     7
 74
     1
 91
        0
 64
     7
 65
   257
 75
     1
175
     1
 42
1.0
 92
        8
 66
     7
 43
1.0
 76
     1
 77
     6
 78
     2
 67
     7
 79
     3
170
     0
171
     0
290
     0
174
     0
 93
       13
 44
0.0
173
     0
291
     0
 45
0.0
1001
ACAD
1000
AcDbSavedByObjectVersion
1070
     0
  0
DICTIONARYVAR
  5
2EB
102
{ACAD_REACTORS
330
291
102
}
330
291
100
DictionaryVariables
280
     0
  1
1:1
  0
DICTIONARYVAR
  5
293
102
{ACAD_REACTORS
330
291
102
}
330
291
100
DictionaryVariables
280
     0
  1
Standard
  0
DICTIONARYVAR
  5
292
102
{ACAD_REACTORS
330
291
102
}
330
291
100
DictionaryVariables
280
     0
  1
Standard
  0
DICTIONARYVAR
  5
297
102
{ACAD_REACTORS
330
291
102
}
330
291
100
DictionaryVariables
280
     0
  1
2
  0
DICTIONARYVAR
  5
298
102
{ACAD_REACTORS
330
291
102
}
330
291
100
DictionaryVariables
280
     0
  1
1
  0
DICTIONARYVAR
  5
2EC
102
{ACAD_REACTORS
330
291
102
}
330
291
100
DictionaryVariables
280
     0
  1
1
  0
DICTIONARYVAR
  5
294
102
{ACAD_REACTORS
330
291
102
}
330
291
100
DictionaryVariables
280
     0
  1
0
  0
XRECORD
  5
290
102
{ACAD_REACTORS
330
28F
102
}
330
28F
100
AcDbXrecord
280
     1
1000
Diese DWG-Datei wurde mit ARCHICAD(TM)® erstellt
  0
SPATIAL_FILTER
  5
28A
102
{ACAD_REACTORS
330
289
102
}
330
289
100
AcDbFilter
100
AcDbSpatialFilter
 70
     4
 10
0.0
 20
0.0
 10
210.0
 20
0.0
 10
210.0
 20
296.9999023437504
 10
0.0
 20
296.9999023437504
210
0.0
220
0.0
230
1.0
 11
0.0
 21
0.0
 31
0.0
 71
     1
 72
     0
 73
     0
 40
1.0
 40
0.0
 40
0.0
 40
0.0
 40
0.0
 40
1.0
 40
0.0
 40
0.0
 40
0.0
 40
0.0
 40
1.0
 40
0.0
 40
1.0
 40
0.0
 40
0.0
 40
0.0
 40
0.0
 40
1.0
 40
0.0
 40
0.0
 40
0.0
 40
0.0
 40
1.0
 40
0.0
  0
DICTIONARY
  5
31F
330
45
100
AcDbDictionary
280
     1
281
     1
  3
ACAD_XREC_ROUNDTRIP
360
320
  0
DICTIONARY
  5
31D
330
44
100
AcDbDictionary
280
     1
281
     1
  3
ACAD_XREC_ROUNDTRIP
360
31E
  0
DICTIONARY
  5
321
330
46
100
AcDbDictionary
280
     1
281
     1
  3
ACAD_XREC_ROUNDTRIP
360
322
  0
DICTIONARY
  5
324
330
6C
100
AcDbDictionary
280
     1
281
     1
  3
ACAD_XREC_ROUNDTRIP
360
325
  0
DICTIONARY
  5
2F5
330
2F
100
AcDbDictionary
280
     1
281
     1
  3
ACAD_XREC_ROUNDTRIP
360
2F6
  0
DICTIONARY
  5
2FB
330
32
100
AcDbDictionary
280
     1
281
     1
  3
ACAD_XREC_ROUNDTRIP
360
2FC
  0
DICTIONARY
  5
303
330
36
100
AcDbDictionary
280
     1
281
     1
  3
ACAD_XREC_ROUNDTRIP
360
304
  0
DICTIONARY
  5
30B
330
3A
100
AcDbDictionary
280
     1
281
     1
  3
ACAD_XREC_ROUNDTRIP
360
30C
  0
DICTIONARY
  5
2FF
330
34
100
AcDbDictionary
280
     1
281
     1
  3
ACAD_XREC_ROUNDTRIP
360
300
  0
DICTIONARY
  5
301
330
35
100
AcDbDictionary
280
     1
281
     1
  3
ACAD_XREC_ROUNDTRIP
360
302
  0
DICTIONARY
  5
311
330
3D
100
AcDbDictionary
280
     1
281
     1
  3
ACAD_XREC_ROUNDTRIP
360
312
  0
DICTIONARY
  5
309
330
39
100
AcDbDictionary
280
     1
281
     1
  3
ACAD_XREC_ROUNDTRIP
360
30A
  0
DICTIONARY
  5
2ED
330
2B
100
AcDbDictionary
280
     1
281
     1
  3
ACAD_XREC_ROUNDTRIP
360
2EE
  0
DICTIONARY
  5
2EF
330
2C
100
AcDbDictionary
280
     1
281
     1
  3
ACAD_XREC_ROUNDTRIP
360
2F0
  0
DICTIONARY
  5
2F1
330
2D
100
AcDbDictionary
280
     1
281
     1
  3
ACAD_XREC_ROUNDTRIP
360
2F2
  0
DICTIONARY
  5
2F3
330
2E
100
AcDbDictionary
280
     1
281
     1
  3
ACAD_XREC_ROUNDTRIP
360
2F4
  0
DICTIONARY
  5
2F9
330
31
100
AcDbDictionary
280
     1
281
     1
  3
ACAD_XREC_ROUNDTRIP
360
2FA
  0
DICTIONARY
  5
30D
330
3B
100
AcDbDictionary
280
     1
281
     1
  3
ACAD_XREC_ROUNDTRIP
360
30E
  0
DICTIONARY
  5
307
330
38
100
AcDbDictionary
280
     1
281
     1
  3
ACAD_XREC_ROUNDTRIP
360
308
  0
DICTIONARY
  5
30F
330
3C
100
AcDbDictionary
280
     1
281
     1
  3
ACAD_XREC_ROUNDTRIP
360
310
  0
DICTIONARY
  5
2FD
330
33
100
AcDbDictionary
280
     1
281
     1
  3
ACAD_XREC_ROUNDTRIP
360
2FE
  0
DICTIONARY
  5
31B
330
42
100
AcDbDictionary
280
     1
281
     1
  3
ACAD_XREC_ROUNDTRIP
360
31C
  0
DICTIONARY
  5
319
330
41
100
AcDbDictionary
280
     1
281
     1
  3
ACAD_XREC_ROUNDTRIP
360
31A
  0
DICTIONARY
  5
313
330
3E
100
AcDbDictionary
280
     1
281
     1
  3
ACAD_XREC_ROUNDTRIP
360
314
  0
DICTIONARY
  5
315
330
3F
100
AcDbDictionary
280
     1
281
     1
  3
ACAD_XREC_ROUNDTRIP
360
316
  0
DICTIONARY
  5
305
330
37
100
AcDbDictionary
280
     1
281
     1
  3
ACAD_XREC_ROUNDTRIP
360
306
  0
DICTIONARY
  5
2F7
330
30
100
AcDbDictionary
280
     1
281
     1
  3
ACAD_XREC_ROUNDTRIP
360
2F8
  0
DICTIONARY
  5
317
330
40
100
AcDbDictionary
280
     1
281
     1
  3
ACAD_XREC_ROUNDTRIP
360
318
  0
XRECORD
  5
320
102
{ACAD_REACTORS
330
31F
102
}
330
31F
100
AcDbXrecord
280
     1
102
MATERIAL
148
0.0
149
0.0
149
0.0
 93
        0
 94
      127
282
     0
 72
     1
 77
     1
171
     1
175
     1
179
     1
273
     0
  0
XRECORD
  5
31E
102
{ACAD_REACTORS
330
31D
102
}
330
31D
100
AcDbXrecord
280
     1
102
MATERIAL
148
0.0
149
0.0
149
0.0
 93
        0
 94
      127
282
     0
 72
     1
 77
     1
171
     1
175
     1
179
     1
273
     0
  0
XRECORD
  5
322
102
{ACAD_REACTORS
330
321
102
}
330
321
100
AcDbXrecord
280
     1
102
MATERIAL
148
0.0
149
0.0
149
0.0
 93
        0
 94
      127
282
     0
 72
     1
 77
     1
171
     1
175
     1
179
     1
273
     0
  0
XRECORD
  5
325
102
{ACAD_REACTORS
330
324
102
}
330
324
100
AcDbXrecord
280
     1
102
ACAD_ROUNDTRIP_2010_MLEADER_STYLE
  0
XRECORD
  5
2F6
102
{ACAD_REACTORS
330
2F5
102
}
330
2F5
100
AcDbXrecord
280
     1
102
RTVSPropertyOp0
 70
     1
102
RTVSPropertyOp1
 70
     1
102
RTVSPropertyOp2
 70
     1
102
RTVSPropertyOp3
 70
     1
102
RTVSPropertyOp4
 70
     1
102
RTVSPropertyOp5
 70
     1
102
RTVSPropertyOp6
 70
     1
102
RTVSPropertyOp7
 70
     1
102
RTVSPropertyOp8
 70
     1
102
RTVSPropertyOp9
 70
     1
102
RTVSPropertyOp10
 70
     1
102
RTVSPropertyOp11
 70
     1
102
RTVSPropertyOp12
 70
     1
102
RTVSPropertyOp13
 70
     1
102
RTVSPropertyOp14
 70
     1
102
RTVSPropertyOp15
 70
     1
102
RTVSPropertyOp16
 70
     1
102
RTVSPropertyOp17
 70
     1
102
RTVSPropertyOp18
 70
     1
102
RTVSPropertyOp19
 70
     1
102
RTVSPropertyOp20
 70
     1
102
RTVSPropertyOp21
 70
     1
102
RTVSPropertyOp22
 70
     1
102
RTVSPropertyOp23
 70
     1
102
RTVSPropertyOp24
 70
     1
102
RTVSPropertyOp25
 70
     1
102
RTVSPropertyOp26
 70
     1
102
RTVSPropertyOp27
 70
     1
102
RTVSPropertyOp28
 70
     1
102
RTVSPropertyOp29
 70
     1
102
RTVSPropertyOp30
 70
     1
102
RTVSPropertyOp31
 70
     1
102
RTVSPropertyOp32
 70
     1
102
RTVSPropertyOp33
 70
     1
102
RTVSPropertyOp34
 70
     1
102
RTVSPropertyOp35
 70
     1
102
RTVSPropertyOp36
 70
     1
102
RTVSPropertyOp37
 70
     1
102
RTVSPropertyOp38
 70
     1
102
RTVSPropertyOp39
 70
     1
102
RTVSPropertyOp40
 70
     1
102
RTVSPropertyOp41
 70
     1
102
RTVSPropertyOp42
 70
     1
102
RTVSPropertyOp43
 70
     1
102
RTVSPropertyOp44
 70
     1
102
RTVSPropertyOp45
 70
     1
102
RTVSPropertyOp46
 70
     1
102
RTVSPropertyOp47
 70
     1
102
RTVSPropertyOp48
 70
     1
102
RTVSPropertyOp49
 70
     1
102
RTVSPropertyOp50
 70
     1
102
RTVSPropertyOp51
 70
     0
102
RTVSPropertyOp52
 70
     0
102
RTVSPropertyOp53
 70
     1
102
RTVSPropertyOp54
 70
     1
102
RTVSPropertyOp55
 70
     1
102
RTVSPropertyOp56
 70
     1
102
RTVSPropertyOp57
 70
     1
102
RTVSPost2010Prop28
280
     1
102
RTVSPost2010PropOp28
 70
     1
102
RTVSPost2010Prop29
280
     1
102
RTVSPost2010PropOp29
 70
     1
102
RTVSPost2010Prop30
280
     0
102
RTVSPost2010PropOp30
 70
     1
102
RTVSPost2010Prop31
280
     0
102
RTVSPost2010PropOp31
 70
     1
102
RTVSPost2010Prop32
280
     0
102
RTVSPost2010PropOp32
 70
     1
102
RTVSPost2010Prop33
280
     0
102
RTVSPost2010PropOp33
 70
     1
102
RTVSPost2010Prop34
280
     0
102
RTVSPost2010PropOp34
 70
     1
102
RTVSPost2010Prop35
280
     0
102
RTVSPost2010PropOp35
 70
     1
102
RTVSPost2010Prop36
280
     0
102
RTVSPost2010PropOp36
 70
     1
102
RTVSPost2010Prop37
 90
       50
102
RTVSPost2010PropOp37
 70
     1
102
RTVSPost2010Prop38
140
0.0
102
RTVSPost2010PropOp38
 70
     1
102
RTVSPost2010Prop39
140
1.0
102
RTVSPost2010PropOp39
 70
     1
102
RTVSPost2010Prop40
 90
        0
102
RTVSPost2010PropOp40
 70
     1
102
RTVSPost2010Prop41ColorIndex
 90
      178
102
RTVSPost2010Prop41ColorRGB
 90
        0
102
RTVSPost2010PropOp41
 70
     1
102
RTVSPost2010Prop42
 90
       50
102
RTVSPost2010PropOp42
 70
     1
102
RTVSPost2010Prop43
 90
        3
102
RTVSPost2010PropOp43
 70
     1
102
RTVSPost2010Prop44ColorIndex
 90
        5
102
RTVSPost2010Prop44ColorRGB
 90
      255
102
RTVSPost2010PropOp44
 70
     1
102
RTVSPost2010Prop45
280
     0
102
RTVSPost2010PropOp45
 70
     1
102
RTVSPost2010Prop46
 90
       50
102
RTVSPost2010PropOp46
 70
     1
102
RTVSPost2010Prop47
 90
       50
102
RTVSPost2010PropOp47
 70
     1
102
RTVSPost2010Prop48
 90
       50
102
RTVSPost2010PropOp48
 70
     1
102
RTVSPost2010Prop49
280
     0
102
RTVSPost2010PropOp49
 70
     1
102
RTVSPost2010Prop50
 90
       50
102
RTVSPost2010PropOp50
 70
     1
102
RTVSPost2010Prop51ColorIndex
 90
      256
102
RTVSPost2010Prop51ColorRGB
 90
-16777216
102
RTVSPost2010PropOp51
 70
     0
102
RTVSPost2010Prop52
140
1.0
102
RTVSPost2010PropOp52
 70
     0
102
RTVSPost2010Prop53
 90
        2
102
RTVSPost2010PropOp53
 70
     1
102
RTVSPost2010Prop54
  1
strokes_ogs.tif
102
RTVSPost2010PropOp54
 70
     1
102
RTVSPost2010Prop55
280
     0
102
RTVSPost2010PropOp55
 70
     1
102
RTVSPost2010Prop56
140
1.0
102
RTVSPost2010PropOp56
 70
     1
102
RTVSPost2010Prop57
140
1.0
102
RTVSPost2010PropOp57
 70
     1
  0
XRECORD
  5
2FC
102
{ACAD_REACTORS
330
2FB
102
}
330
2FB
100
AcDbXrecord
280
     1
102
RTVSPropertyOp0
 70
     1
102
RTVSPropertyOp1
 70
     1
102
RTVSPropertyOp2
 70
     1
102
RTVSPropertyOp3
 70
     1
102
RTVSPropertyOp4
 70
     1
102
RTVSPropertyOp5
 70
     1
102
RTVSPropertyOp6
 70
     1
102
RTVSPropertyOp7
 70
     1
102
RTVSPropertyOp8
 70
     1
102
RTVSPropertyOp9
 70
     1
102
RTVSPropertyOp10
 70
     1
102
RTVSPropertyOp11
 70
     1
102
RTVSPropertyOp12
 70
     1
102
RTVSPropertyOp13
 70
     1
102
RTVSPropertyOp14
 70
     1
102
RTVSPropertyOp15
 70
     1
102
RTVSPropertyOp16
 70
     1
102
RTVSPropertyOp17
 70
     1
102
RTVSPropertyOp18
 70
     1
102
RTVSPropertyOp19
 70
     1
102
RTVSPropertyOp20
 70
     1
102
RTVSPropertyOp21
 70
     1
102
RTVSPropertyOp22
 70
     1
102
RTVSPropertyOp23
 70
     1
102
RTVSPropertyOp24
 70
     1
102
RTVSPropertyOp25
 70
     1
102
RTVSPropertyOp26
 70
     1
102
RTVSPropertyOp27
 70
     1
102
RTVSPropertyOp28
 70
     1
102
RTVSPropertyOp29
 70
     1
102
RTVSPropertyOp30
 70
     1
102
RTVSPropertyOp31
 70
     1
102
RTVSPropertyOp32
 70
     1
102
RTVSPropertyOp33
 70
     1
102
RTVSPropertyOp34
 70
     1
102
RTVSPropertyOp35
 70
     1
102
RTVSPropertyOp36
 70
     1
102
RTVSPropertyOp37
 70
     1
102
RTVSPropertyOp38
 70
     1
102
RTVSPropertyOp39
 70
     1
102
RTVSPropertyOp40
 70
     1
102
RTVSPropertyOp41
 70
     1
102
RTVSPropertyOp42
 70
     1
102
RTVSPropertyOp43
 70
     1
102
RTVSPropertyOp44
 70
     1
102
RTVSPropertyOp45
 70
     1
102
RTVSPropertyOp46
 70
     1
102
RTVSPropertyOp47
 70
     1
102
RTVSPropertyOp48
 70
     1
102
RTVSPropertyOp49
 70
     1
102
RTVSPropertyOp50
 70
     1
102
RTVSPropertyOp51
 70
     0
102
RTVSPropertyOp52
 70
     0
102
RTVSPropertyOp53
 70
     1
102
RTVSPropertyOp54
 70
     1
102
RTVSPropertyOp55
 70
     1
102
RTVSPropertyOp56
 70
     1
102
RTVSPropertyOp57
 70
     1
102
RTVSPost2010Prop28
280
     0
102
RTVSPost2010PropOp28
 70
     1
102
RTVSPost2010Prop29
280
     1
102
RTVSPost2010PropOp29
 70
     1
102
RTVSPost2010Prop30
280
     1
102
RTVSPost2010PropOp30
 70
     1
102
RTVSPost2010Prop31
280
     0
102
RTVSPost2010PropOp31
 70
     1
102
RTVSPost2010Prop32
280
     0
102
RTVSPost2010PropOp32
 70
     1
102
RTVSPost2010Prop33
280
     0
102
RTVSPost2010PropOp33
 70
     1
102
RTVSPost2010Prop34
280
     0
102
RTVSPost2010PropOp34
 70
     1
102
RTVSPost2010Prop35
280
     0
102
RTVSPost2010PropOp35
 70
     1
102
RTVSPost2010Prop36
280
     0
102
RTVSPost2010PropOp36
 70
     1
102
RTVSPost2010Prop37
 90
       50
102
RTVSPost2010PropOp37
 70
     1
102
RTVSPost2010Prop38
140
0.0
102
RTVSPost2010PropOp38
 70
     1
102
RTVSPost2010Prop39
140
1.0
102
RTVSPost2010PropOp39
 70
     1
102
RTVSPost2010Prop40
 90
        0
102
RTVSPost2010PropOp40
 70
     1
102
RTVSPost2010Prop41ColorIndex
 90
      178
102
RTVSPost2010Prop41ColorRGB
 90
        0
102
RTVSPost2010PropOp41
 70
     1
102
RTVSPost2010Prop42
 90
       50
102
RTVSPost2010PropOp42
 70
     1
102
RTVSPost2010Prop43
 90
        3
102
RTVSPost2010PropOp43
 70
     1
102
RTVSPost2010Prop44ColorIndex
 90
        5
102
RTVSPost2010Prop44ColorRGB
 90
      255
102
RTVSPost2010PropOp44
 70
     1
102
RTVSPost2010Prop45
280
     0
102
RTVSPost2010PropOp45
 70
     1
102
RTVSPost2010Prop46
 90
       50
102
RTVSPost2010PropOp46
 70
     1
102
RTVSPost2010Prop47
 90
       50
102
RTVSPost2010PropOp47
 70
     1
102
RTVSPost2010Prop48
 90
       50
102
RTVSPost2010PropOp48
 70
     1
102
RTVSPost2010Prop49
280
     0
102
RTVSPost2010PropOp49
 70
     1
102
RTVSPost2010Prop50
 90
       50
102
RTVSPost2010PropOp50
 70
     1
102
RTVSPost2010Prop51ColorIndex
 90
      256
102
RTVSPost2010Prop51ColorRGB
 90
-16777216
102
RTVSPost2010PropOp51
 70
     0
102
RTVSPost2010Prop52
140
1.0
102
RTVSPost2010PropOp52
 70
     0
102
RTVSPost2010Prop53
 90
        2
102
RTVSPost2010PropOp53
 70
     1
102
RTVSPost2010Prop54
  1
strokes_ogs.tif
102
RTVSPost2010PropOp54
 70
     1
102
RTVSPost2010Prop55
280
     0
102
RTVSPost2010PropOp55
 70
     1
102
RTVSPost2010Prop56
140
1.0
102
RTVSPost2010PropOp56
 70
     1
102
RTVSPost2010Prop57
140
1.0
102
RTVSPost2010PropOp57
 70
     1
  0
XRECORD
  5
304
102
{ACAD_REACTORS
330
303
102
}
330
303
100
AcDbXrecord
280
     1
102
RTVSPropertyOp0
 70
     1
102
RTVSPropertyOp1
 70
     1
102
RTVSPropertyOp2
 70
     1
102
RTVSPropertyOp3
 70
     1
102
RTVSPropertyOp4
 70
     1
102
RTVSPropertyOp5
 70
     1
102
RTVSPropertyOp6
 70
     1
102
RTVSPropertyOp7
 70
     1
102
RTVSPropertyOp8
 70
     1
102
RTVSPropertyOp9
 70
     1
102
RTVSPropertyOp10
 70
     1
102
RTVSPropertyOp11
 70
     1
102
RTVSPropertyOp12
 70
     1
102
RTVSPropertyOp13
 70
     1
102
RTVSPropertyOp14
 70
     1
102
RTVSPropertyOp15
 70
     1
102
RTVSPropertyOp16
 70
     1
102
RTVSPropertyOp17
 70
     1
102
RTVSPropertyOp18
 70
     1
102
RTVSPropertyOp19
 70
     1
102
RTVSPropertyOp20
 70
     1
102
RTVSPropertyOp21
 70
     1
102
RTVSPropertyOp22
 70
     1
102
RTVSPropertyOp23
 70
     1
102
RTVSPropertyOp24
 70
     1
102
RTVSPropertyOp25
 70
     1
102
RTVSPropertyOp26
 70
     1
102
RTVSPropertyOp27
 70
     1
102
RTVSPropertyOp28
 70
     1
102
RTVSPropertyOp29
 70
     1
102
RTVSPropertyOp30
 70
     1
102
RTVSPropertyOp31
 70
     1
102
RTVSPropertyOp32
 70
     1
102
RTVSPropertyOp33
 70
     1
102
RTVSPropertyOp34
 70
     1
102
RTVSPropertyOp35
 70
     1
102
RTVSPropertyOp36
 70
     1
102
RTVSPropertyOp37
 70
     1
102
RTVSPropertyOp38
 70
     1
102
RTVSPropertyOp39
 70
     1
102
RTVSPropertyOp40
 70
     1
102
RTVSPropertyOp41
 70
     1
102
RTVSPropertyOp42
 70
     1
102
RTVSPropertyOp43
 70
     1
102
RTVSPropertyOp44
 70
     1
102
RTVSPropertyOp45
 70
     1
102
RTVSPropertyOp46
 70
     1
102
RTVSPropertyOp47
 70
     1
102
RTVSPropertyOp48
 70
     1
102
RTVSPropertyOp49
 70
     1
102
RTVSPropertyOp50
 70
     1
102
RTVSPropertyOp51
 70
     0
102
RTVSPropertyOp52
 70
     0
102
RTVSPropertyOp53
 70
     1
102
RTVSPropertyOp54
 70
     1
102
RTVSPropertyOp55
 70
     1
102
RTVSPropertyOp56
 70
     1
102
RTVSPropertyOp57
 70
     1
102
RTVSPost2010Prop28
280
     0
102
RTVSPost2010PropOp28
 70
     1
102
RTVSPost2010Prop29
280
     1
102
RTVSPost2010PropOp29
 70
     1
102
RTVSPost2010Prop30
280
     1
102
RTVSPost2010PropOp30
 70
     1
102
RTVSPost2010Prop31
280
     0
102
RTVSPost2010PropOp31
 70
     1
102
RTVSPost2010Prop32
280
     0
102
RTVSPost2010PropOp32
 70
     1
102
RTVSPost2010Prop33
280
     0
102
RTVSPost2010PropOp33
 70
     1
102
RTVSPost2010Prop34
280
     0
102
RTVSPost2010PropOp34
 70
     1
102
RTVSPost2010Prop35
280
     0
102
RTVSPost2010PropOp35
 70
     1
102
RTVSPost2010Prop36
280
     0
102
RTVSPost2010PropOp36
 70
     1
102
RTVSPost2010Prop37
 90
       50
102
RTVSPost2010PropOp37
 70
     1
102
RTVSPost2010Prop38
140
0.0
102
RTVSPost2010PropOp38
 70
     1
102
RTVSPost2010Prop39
140
1.0
102
RTVSPost2010PropOp39
 70
     1
102
RTVSPost2010Prop40
 90
        0
102
RTVSPost2010PropOp40
 70
     1
102
RTVSPost2010Prop41ColorIndex
 90
      178
102
RTVSPost2010Prop41ColorRGB
 90
        0
102
RTVSPost2010PropOp41
 70
     1
102
RTVSPost2010Prop42
 90
       50
102
RTVSPost2010PropOp42
 70
     1
102
RTVSPost2010Prop43
 90
        3
102
RTVSPost2010PropOp43
 70
     1
102
RTVSPost2010Prop44ColorIndex
 90
        5
102
RTVSPost2010Prop44ColorRGB
 90
      255
102
RTVSPost2010PropOp44
 70
     1
102
RTVSPost2010Prop45
280
     0
102
RTVSPost2010PropOp45
 70
     1
102
RTVSPost2010Prop46
 90
       50
102
RTVSPost2010PropOp46
 70
     1
102
RTVSPost2010Prop47
 90
       50
102
RTVSPost2010PropOp47
 70
     1
102
RTVSPost2010Prop48
 90
       50
102
RTVSPost2010PropOp48
 70
     1
102
RTVSPost2010Prop49
280
     0
102
RTVSPost2010PropOp49
 70
     1
102
RTVSPost2010Prop50
 90
       50
102
RTVSPost2010PropOp50
 70
     1
102
RTVSPost2010Prop51ColorIndex
 90
      256
102
RTVSPost2010Prop51ColorRGB
 90
-16777216
102
RTVSPost2010PropOp51
 70
     0
102
RTVSPost2010Prop52
140
1.0
102
RTVSPost2010PropOp52
 70
     0
102
RTVSPost2010Prop53
 90
        2
102
RTVSPost2010PropOp53
 70
     1
102
RTVSPost2010Prop54
  1
strokes_ogs.tif
102
RTVSPost2010PropOp54
 70
     1
102
RTVSPost2010Prop55
280
     0
102
RTVSPost2010PropOp55
 70
     1
102
RTVSPost2010Prop56
140
1.0
102
RTVSPost2010PropOp56
 70
     1
102
RTVSPost2010Prop57
140
1.0
102
RTVSPost2010PropOp57
 70
     1
  0
XRECORD
  5
30C
102
{ACAD_REACTORS
330
30B
102
}
330
30B
100
AcDbXrecord
280
     1
102
RTVSPropertyOp0
 70
     1
102
RTVSPropertyOp1
 70
     1
102
RTVSPropertyOp2
 70
     1
102
RTVSPropertyOp3
 70
     1
102
RTVSPropertyOp4
 70
     1
102
RTVSPropertyOp5
 70
     1
102
RTVSPropertyOp6
 70
     1
102
RTVSPropertyOp7
 70
     1
102
RTVSPropertyOp8
 70
     1
102
RTVSPropertyOp9
 70
     1
102
RTVSPropertyOp10
 70
     1
102
RTVSPropertyOp11
 70
     1
102
RTVSPropertyOp12
 70
     1
102
RTVSPropertyOp13
 70
     1
102
RTVSPropertyOp14
 70
     1
102
RTVSPropertyOp15
 70
     1
102
RTVSPropertyOp16
 70
     1
102
RTVSPropertyOp17
 70
     1
102
RTVSPropertyOp18
 70
     1
102
RTVSPropertyOp19
 70
     1
102
RTVSPropertyOp20
 70
     1
102
RTVSPropertyOp21
 70
     1
102
RTVSPropertyOp22
 70
     1
102
RTVSPropertyOp23
 70
     1
102
RTVSPropertyOp24
 70
     1
102
RTVSPropertyOp25
 70
     1
102
RTVSPropertyOp26
 70
     1
102
RTVSPropertyOp27
 70
     1
102
RTVSPropertyOp28
 70
     1
102
RTVSPropertyOp29
 70
     1
102
RTVSPropertyOp30
 70
     1
102
RTVSPropertyOp31
 70
     1
102
RTVSPropertyOp32
 70
     1
102
RTVSPropertyOp33
 70
     1
102
RTVSPropertyOp34
 70
     1
102
RTVSPropertyOp35
 70
     1
102
RTVSPropertyOp36
 70
     1
102
RTVSPropertyOp37
 70
     1
102
RTVSPropertyOp38
 70
     1
102
RTVSPropertyOp39
 70
     1
102
RTVSPropertyOp40
 70
     1
102
RTVSPropertyOp41
 70
     1
102
RTVSPropertyOp42
 70
     1
102
RTVSPropertyOp43
 70
     1
102
RTVSPropertyOp44
 70
     1
102
RTVSPropertyOp45
 70
     1
102
RTVSPropertyOp46
 70
     1
102
RTVSPropertyOp47
 70
     1
102
RTVSPropertyOp48
 70
     1
102
RTVSPropertyOp49
 70
     1
102
RTVSPropertyOp50
 70
     1
102
RTVSPropertyOp51
 70
     0
102
RTVSPropertyOp52
 70
     0
102
RTVSPropertyOp53
 70
     1
102
RTVSPropertyOp54
 70
     1
102
RTVSPropertyOp55
 70
     1
102
RTVSPropertyOp56
 70
     1
102
RTVSPropertyOp57
 70
     1
102
RTVSPost2010Prop28
280
     0
102
RTVSPost2010PropOp28
 70
     1
102
RTVSPost2010Prop29
280
     1
102
RTVSPost2010PropOp29
 70
     1
102
RTVSPost2010Prop30
280
     1
102
RTVSPost2010PropOp30
 70
     1
102
RTVSPost2010Prop31
280
     0
102
RTVSPost2010PropOp31
 70
     1
102
RTVSPost2010Prop32
280
     0
102
RTVSPost2010PropOp32
 70
     1
102
RTVSPost2010Prop33
280
     0
102
RTVSPost2010PropOp33
 70
     1
102
RTVSPost2010Prop34
280
     0
102
RTVSPost2010PropOp34
 70
     1
102
RTVSPost2010Prop35
280
     0
102
RTVSPost2010PropOp35
 70
     1
102
RTVSPost2010Prop36
280
     0
102
RTVSPost2010PropOp36
 70
     1
102
RTVSPost2010Prop37
 90
       50
102
RTVSPost2010PropOp37
 70
     1
102
RTVSPost2010Prop38
140
0.0
102
RTVSPost2010PropOp38
 70
     1
102
RTVSPost2010Prop39
140
1.0
102
RTVSPost2010PropOp39
 70
     1
102
RTVSPost2010Prop40
 90
        0
102
RTVSPost2010PropOp40
 70
     1
102
RTVSPost2010Prop41ColorIndex
 90
      178
102
RTVSPost2010Prop41ColorRGB
 90
        0
102
RTVSPost2010PropOp41
 70
     1
102
RTVSPost2010Prop42
 90
       50
102
RTVSPost2010PropOp42
 70
     1
102
RTVSPost2010Prop43
 90
        3
102
RTVSPost2010PropOp43
 70
     1
102
RTVSPost2010Prop44ColorIndex
 90
        5
102
RTVSPost2010Prop44ColorRGB
 90
      255
102
RTVSPost2010PropOp44
 70
     1
102
RTVSPost2010Prop45
280
     0
102
RTVSPost2010PropOp45
 70
     1
102
RTVSPost2010Prop46
 90
       50
102
RTVSPost2010PropOp46
 70
     1
102
RTVSPost2010Prop47
 90
       50
102
RTVSPost2010PropOp47
 70
     1
102
RTVSPost2010Prop48
 90
       50
102
RTVSPost2010PropOp48
 70
     1
102
RTVSPost2010Prop49
280
     0
102
RTVSPost2010PropOp49
 70
     1
102
RTVSPost2010Prop50
 90
       50
102
RTVSPost2010PropOp50
 70
     1
102
RTVSPost2010Prop51ColorIndex
 90
      256
102
RTVSPost2010Prop51ColorRGB
 90
-16777216
102
RTVSPost2010PropOp51
 70
     0
102
RTVSPost2010Prop52
140
1.0
102
RTVSPost2010PropOp52
 70
     0
102
RTVSPost2010Prop53
 90
        2
102
RTVSPost2010PropOp53
 70
     1
102
RTVSPost2010Prop54
  1
strokes_ogs.tif
102
RTVSPost2010PropOp54
 70
     1
102
RTVSPost2010Prop55
280
     0
102
RTVSPost2010PropOp55
 70
     1
102
RTVSPost2010Prop56
140
1.0
102
RTVSPost2010PropOp56
 70
     1
102
RTVSPost2010Prop57
140
1.0
102
RTVSPost2010PropOp57
 70
     1
  0
XRECORD
  5
300
102
{ACAD_REACTORS
330
2FF
102
}
330
2FF
100
AcDbXrecord
280
     1
102
RTVSPropertyOp0
 70
     1
102
RTVSPropertyOp1
 70
     1
102
RTVSPropertyOp2
 70
     1
102
RTVSPropertyOp3
 70
     1
102
RTVSPropertyOp4
 70
     1
102
RTVSPropertyOp5
 70
     1
102
RTVSPropertyOp6
 70
     1
102
RTVSPropertyOp7
 70
     1
102
RTVSPropertyOp8
 70
     1
102
RTVSPropertyOp9
 70
     1
102
RTVSPropertyOp10
 70
     1
102
RTVSPropertyOp11
 70
     1
102
RTVSPropertyOp12
 70
     1
102
RTVSPropertyOp13
 70
     1
102
RTVSPropertyOp14
 70
     1
102
RTVSPropertyOp15
 70
     1
102
RTVSPropertyOp16
 70
     1
102
RTVSPropertyOp17
 70
     1
102
RTVSPropertyOp18
 70
     1
102
RTVSPropertyOp19
 70
     1
102
RTVSPropertyOp20
 70
     1
102
RTVSPropertyOp21
 70
     1
102
RTVSPropertyOp22
 70
     1
102
RTVSPropertyOp23
 70
     1
102
RTVSPropertyOp24
 70
     1
102
RTVSPropertyOp25
 70
     1
102
RTVSPropertyOp26
 70
     1
102
RTVSPropertyOp27
 70
     1
102
RTVSPropertyOp28
 70
     1
102
RTVSPropertyOp29
 70
     1
102
RTVSPropertyOp30
 70
     1
102
RTVSPropertyOp31
 70
     1
102
RTVSPropertyOp32
 70
     1
102
RTVSPropertyOp33
 70
     1
102
RTVSPropertyOp34
 70
     1
102
RTVSPropertyOp35
 70
     1
102
RTVSPropertyOp36
 70
     1
102
RTVSPropertyOp37
 70
     1
102
RTVSPropertyOp38
 70
     1
102
RTVSPropertyOp39
 70
     1
102
RTVSPropertyOp40
 70
     1
102
RTVSPropertyOp41
 70
     1
102
RTVSPropertyOp42
 70
     1
102
RTVSPropertyOp43
 70
     1
102
RTVSPropertyOp44
 70
     1
102
RTVSPropertyOp45
 70
     1
102
RTVSPropertyOp46
 70
     1
102
RTVSPropertyOp47
 70
     1
102
RTVSPropertyOp48
 70
     1
102
RTVSPropertyOp49
 70
     1
102
RTVSPropertyOp50
 70
     1
102
RTVSPropertyOp51
 70
     0
102
RTVSPropertyOp52
 70
     0
102
RTVSPropertyOp53
 70
     1
102
RTVSPropertyOp54
 70
     1
102
RTVSPropertyOp55
 70
     1
102
RTVSPropertyOp56
 70
     1
102
RTVSPropertyOp57
 70
     1
102
RTVSPost2010Prop28
280
     0
102
RTVSPost2010PropOp28
 70
     1
102
RTVSPost2010Prop29
280
     1
102
RTVSPost2010PropOp29
 70
     1
102
RTVSPost2010Prop30
280
     1
102
RTVSPost2010PropOp30
 70
     1
102
RTVSPost2010Prop31
280
     0
102
RTVSPost2010PropOp31
 70
     1
102
RTVSPost2010Prop32
280
     0
102
RTVSPost2010PropOp32
 70
     1
102
RTVSPost2010Prop33
280
     0
102
RTVSPost2010PropOp33
 70
     1
102
RTVSPost2010Prop34
280
     0
102
RTVSPost2010PropOp34
 70
     1
102
RTVSPost2010Prop35
280
     0
102
RTVSPost2010PropOp35
 70
     1
102
RTVSPost2010Prop36
280
     0
102
RTVSPost2010PropOp36
 70
     1
102
RTVSPost2010Prop37
 90
       50
102
RTVSPost2010PropOp37
 70
     1
102
RTVSPost2010Prop38
140
0.0
102
RTVSPost2010PropOp38
 70
     1
102
RTVSPost2010Prop39
140
1.0
102
RTVSPost2010PropOp39
 70
     1
102
RTVSPost2010Prop40
 90
        0
102
RTVSPost2010PropOp40
 70
     1
102
RTVSPost2010Prop41ColorIndex
 90
      178
102
RTVSPost2010Prop41ColorRGB
 90
        0
102
RTVSPost2010PropOp41
 70
     1
102
RTVSPost2010Prop42
 90
       50
102
RTVSPost2010PropOp42
 70
     1
102
RTVSPost2010Prop43
 90
        3
102
RTVSPost2010PropOp43
 70
     1
102
RTVSPost2010Prop44ColorIndex
 90
        5
102
RTVSPost2010Prop44ColorRGB
 90
      255
102
RTVSPost2010PropOp44
 70
     1
102
RTVSPost2010Prop45
280
     0
102
RTVSPost2010PropOp45
 70
     1
102
RTVSPost2010Prop46
 90
       50
102
RTVSPost2010PropOp46
 70
     1
102
RTVSPost2010Prop47
 90
       50
102
RTVSPost2010PropOp47
 70
     1
102
RTVSPost2010Prop48
 90
       50
102
RTVSPost2010PropOp48
 70
     1
102
RTVSPost2010Prop49
280
     0
102
RTVSPost2010PropOp49
 70
     1
102
RTVSPost2010Prop50
 90
       50
102
RTVSPost2010PropOp50
 70
     1
102
RTVSPost2010Prop51ColorIndex
 90
      256
102
RTVSPost2010Prop51ColorRGB
 90
-16777216
102
RTVSPost2010PropOp51
 70
     0
102
RTVSPost2010Prop52
140
1.0
102
RTVSPost2010PropOp52
 70
     0
102
RTVSPost2010Prop53
 90
        2
102
RTVSPost2010PropOp53
 70
     1
102
RTVSPost2010Prop54
  1
strokes_ogs.tif
102
RTVSPost2010PropOp54
 70
     1
102
RTVSPost2010Prop55
280
     0
102
RTVSPost2010PropOp55
 70
     1
102
RTVSPost2010Prop56
140
1.0
102
RTVSPost2010PropOp56
 70
     1
102
RTVSPost2010Prop57
140
1.0
102
RTVSPost2010PropOp57
 70
     1
  0
XRECORD
  5
302
102
{ACAD_REACTORS
330
301
102
}
330
301
100
AcDbXrecord
280
     1
102
RTVSPropertyOp0
 70
     1
102
RTVSPropertyOp1
 70
     1
102
RTVSPropertyOp2
 70
     1
102
RTVSPropertyOp3
 70
     1
102
RTVSPropertyOp4
 70
     1
102
RTVSPropertyOp5
 70
     1
102
RTVSPropertyOp6
 70
     1
102
RTVSPropertyOp7
 70
     1
102
RTVSPropertyOp8
 70
     1
102
RTVSPropertyOp9
 70
     1
102
RTVSPropertyOp10
 70
     1
102
RTVSPropertyOp11
 70
     1
102
RTVSPropertyOp12
 70
     1
102
RTVSPropertyOp13
 70
     1
102
RTVSPropertyOp14
 70
     1
102
RTVSPropertyOp15
 70
     1
102
RTVSPropertyOp16
 70
     1
102
RTVSPropertyOp17
 70
     1
102
RTVSPropertyOp18
 70
     1
102
RTVSPropertyOp19
 70
     1
102
RTVSPropertyOp20
 70
     1
102
RTVSPropertyOp21
 70
     1
102
RTVSPropertyOp22
 70
     1
102
RTVSPropertyOp23
 70
     1
102
RTVSPropertyOp24
 70
     1
102
RTVSPropertyOp25
 70
     1
102
RTVSPropertyOp26
 70
     1
102
RTVSPropertyOp27
 70
     1
102
RTVSPropertyOp28
 70
     1
102
RTVSPropertyOp29
 70
     1
102
RTVSPropertyOp30
 70
     1
102
RTVSPropertyOp31
 70
     1
102
RTVSPropertyOp32
 70
     1
102
RTVSPropertyOp33
 70
     1
102
RTVSPropertyOp34
 70
     1
102
RTVSPropertyOp35
 70
     1
102
RTVSPropertyOp36
 70
     1
102
RTVSPropertyOp37
 70
     1
102
RTVSPropertyOp38
 70
     1
102
RTVSPropertyOp39
 70
     1
102
RTVSPropertyOp40
 70
     1
102
RTVSPropertyOp41
 70
     1
102
RTVSPropertyOp42
 70
     1
102
RTVSPropertyOp43
 70
     1
102
RTVSPropertyOp44
 70
     1
102
RTVSPropertyOp45
 70
     1
102
RTVSPropertyOp46
 70
     1
102
RTVSPropertyOp47
 70
     1
102
RTVSPropertyOp48
 70
     1
102
RTVSPropertyOp49
 70
     1
102
RTVSPropertyOp50
 70
     1
102
RTVSPropertyOp51
 70
     0
102
RTVSPropertyOp52
 70
     0
102
RTVSPropertyOp53
 70
     1
102
RTVSPropertyOp54
 70
     1
102
RTVSPropertyOp55
 70
     1
102
RTVSPropertyOp56
 70
     1
102
RTVSPropertyOp57
 70
     1
102
RTVSPost2010Prop28
280
     0
102
RTVSPost2010PropOp28
 70
     1
102
RTVSPost2010Prop29
280
     1
102
RTVSPost2010PropOp29
 70
     1
102
RTVSPost2010Prop30
280
     1
102
RTVSPost2010PropOp30
 70
     1
102
RTVSPost2010Prop31
280
     0
102
RTVSPost2010PropOp31
 70
     1
102
RTVSPost2010Prop32
280
     0
102
RTVSPost2010PropOp32
 70
     1
102
RTVSPost2010Prop33
280
     0
102
RTVSPost2010PropOp33
 70
     1
102
RTVSPost2010Prop34
280
     0
102
RTVSPost2010PropOp34
 70
     1
102
RTVSPost2010Prop35
280
     0
102
RTVSPost2010PropOp35
 70
     1
102
RTVSPost2010Prop36
280
     0
102
RTVSPost2010PropOp36
 70
     1
102
RTVSPost2010Prop37
 90
       50
102
RTVSPost2010PropOp37
 70
     1
102
RTVSPost2010Prop38
140
0.0
102
RTVSPost2010PropOp38
 70
     1
102
RTVSPost2010Prop39
140
1.0
102
RTVSPost2010PropOp39
 70
     1
102
RTVSPost2010Prop40
 90
        0
102
RTVSPost2010PropOp40
 70
     1
102
RTVSPost2010Prop41ColorIndex
 90
      178
102
RTVSPost2010Prop41ColorRGB
 90
        0
102
RTVSPost2010PropOp41
 70
     1
102
RTVSPost2010Prop42
 90
       50
102
RTVSPost2010PropOp42
 70
     1
102
RTVSPost2010Prop43
 90
        3
102
RTVSPost2010PropOp43
 70
     1
102
RTVSPost2010Prop44ColorIndex
 90
        5
102
RTVSPost2010Prop44ColorRGB
 90
      255
102
RTVSPost2010PropOp44
 70
     1
102
RTVSPost2010Prop45
280
     0
102
RTVSPost2010PropOp45
 70
     1
102
RTVSPost2010Prop46
 90
       50
102
RTVSPost2010PropOp46
 70
     1
102
RTVSPost2010Prop47
 90
       50
102
RTVSPost2010PropOp47
 70
     1
102
RTVSPost2010Prop48
 90
       50
102
RTVSPost2010PropOp48
 70
     1
102
RTVSPost2010Prop49
280
     0
102
RTVSPost2010PropOp49
 70
     1
102
RTVSPost2010Prop50
 90
       50
102
RTVSPost2010PropOp50
 70
     1
102
RTVSPost2010Prop51ColorIndex
 90
      256
102
RTVSPost2010Prop51ColorRGB
 90
-16777216
102
RTVSPost2010PropOp51
 70
     0
102
RTVSPost2010Prop52
140
1.0
102
RTVSPost2010PropOp52
 70
     0
102
RTVSPost2010Prop53
 90
        2
102
RTVSPost2010PropOp53
 70
     1
102
RTVSPost2010Prop54
  1
strokes_ogs.tif
102
RTVSPost2010PropOp54
 70
     1
102
RTVSPost2010Prop55
280
     0
102
RTVSPost2010PropOp55
 70
     1
102
RTVSPost2010Prop56
140
1.0
102
RTVSPost2010PropOp56
 70
     1
102
RTVSPost2010Prop57
140
1.0
102
RTVSPost2010PropOp57
 70
     1
  0
XRECORD
  5
312
102
{ACAD_REACTORS
330
311
102
}
330
311
100
AcDbXrecord
280
     1
102
RTVSPropertyOp0
 70
     0
102
RTVSPropertyOp1
 70
     0
102
RTVSPropertyOp2
 70
     0
102
RTVSPropertyOp3
 70
     0
102
RTVSPropertyOp4
 70
     0
102
RTVSPropertyOp5
 70
     0
102
RTVSPropertyOp6
 70
     0
102
RTVSPropertyOp7
 70
     0
102
RTVSPropertyOp8
 70
     0
102
RTVSPropertyOp9
 70
     0
102
RTVSPropertyOp10
 70
     0
102
RTVSPropertyOp11
 70
     0
102
RTVSPropertyOp12
 70
     0
102
RTVSPropertyOp13
 70
     0
102
RTVSPropertyOp14
 70
     2
102
RTVSPropertyOp15
 70
     0
102
RTVSPropertyOp16
 70
     0
102
RTVSPropertyOp17
 70
     0
102
RTVSPropertyOp18
 70
     0
102
RTVSPropertyOp19
 70
     0
102
RTVSPropertyOp20
 70
     0
102
RTVSPropertyOp21
 70
     0
102
RTVSPropertyOp22
 70
     0
102
RTVSPropertyOp23
 70
     0
102
RTVSPropertyOp24
 70
     0
102
RTVSPropertyOp25
 70
     0
102
RTVSPropertyOp26
 70
     0
102
RTVSPropertyOp27
 70
     0
102
RTVSPropertyOp28
 70
     0
102
RTVSPropertyOp29
 70
     0
102
RTVSPropertyOp30
 70
     0
102
RTVSPropertyOp31
 70
     0
102
RTVSPropertyOp32
 70
     0
102
RTVSPropertyOp33
 70
     0
102
RTVSPropertyOp34
 70
     0
102
RTVSPropertyOp35
 70
     0
102
RTVSPropertyOp36
 70
     0
102
RTVSPropertyOp37
 70
     0
102
RTVSPropertyOp38
 70
     0
102
RTVSPropertyOp39
 70
     0
102
RTVSPropertyOp40
 70
     0
102
RTVSPropertyOp41
 70
     0
102
RTVSPropertyOp42
 70
     0
102
RTVSPropertyOp43
 70
     0
102
RTVSPropertyOp44
 70
     0
102
RTVSPropertyOp45
 70
     0
102
RTVSPropertyOp46
 70
     0
102
RTVSPropertyOp47
 70
     0
102
RTVSPropertyOp48
 70
     0
102
RTVSPropertyOp49
 70
     0
102
RTVSPropertyOp50
 70
     0
102
RTVSPropertyOp51
 70
     0
102
RTVSPropertyOp52
 70
     0
102
RTVSPropertyOp53
 70
     0
102
RTVSPropertyOp54
 70
     0
102
RTVSPropertyOp55
 70
     0
102
RTVSPropertyOp56
 70
     0
102
RTVSPropertyOp57
 70
     0
102
RTVSPost2010Prop28
280
     0
102
RTVSPost2010PropOp28
 70
     0
102
RTVSPost2010Prop29
280
     1
102
RTVSPost2010PropOp29
 70
     0
102
RTVSPost2010Prop30
280
     1
102
RTVSPost2010PropOp30
 70
     0
102
RTVSPost2010Prop31
280
     0
102
RTVSPost2010PropOp31
 70
     0
102
RTVSPost2010Prop32
280
     0
102
RTVSPost2010PropOp32
 70
     0
102
RTVSPost2010Prop33
280
     0
102
RTVSPost2010PropOp33
 70
     0
102
RTVSPost2010Prop34
280
     0
102
RTVSPost2010PropOp34
 70
     0
102
RTVSPost2010Prop35
280
     0
102
RTVSPost2010PropOp35
 70
     0
102
RTVSPost2010Prop36
280
     0
102
RTVSPost2010PropOp36
 70
     0
102
RTVSPost2010Prop37
 90
       50
102
RTVSPost2010PropOp37
 70
     0
102
RTVSPost2010Prop38
140
0.0
102
RTVSPost2010PropOp38
 70
     0
102
RTVSPost2010Prop39
140
1.0
102
RTVSPost2010PropOp39
 70
     0
102
RTVSPost2010Prop40
 90
        0
102
RTVSPost2010PropOp40
 70
     0
102
RTVSPost2010Prop41ColorIndex
 90
      178
102
RTVSPost2010Prop41ColorRGB
 90
        0
102
RTVSPost2010PropOp41
 70
     0
102
RTVSPost2010Prop42
 90
       50
102
RTVSPost2010PropOp42
 70
     0
102
RTVSPost2010Prop43
 90
        3
102
RTVSPost2010PropOp43
 70
     0
102
RTVSPost2010Prop44ColorIndex
 90
        5
102
RTVSPost2010Prop44ColorRGB
 90
      255
102
RTVSPost2010PropOp44
 70
     0
102
RTVSPost2010Prop45
280
     0
102
RTVSPost2010PropOp45
 70
     0
102
RTVSPost2010Prop46
 90
       50
102
RTVSPost2010PropOp46
 70
     0
102
RTVSPost2010Prop47
 90
       50
102
RTVSPost2010PropOp47
 70
     0
102
RTVSPost2010Prop48
 90
       50
102
RTVSPost2010PropOp48
 70
     0
102
RTVSPost2010Prop49
280
     0
102
RTVSPost2010PropOp49
 70
     0
102
RTVSPost2010Prop50
 90
       50
102
RTVSPost2010PropOp50
 70
     0
102
RTVSPost2010Prop51ColorIndex
 90
      256
102
RTVSPost2010Prop51ColorRGB
 90
-16777216
102
RTVSPost2010PropOp51
 70
     0
102
RTVSPost2010Prop52
140
1.0
102
RTVSPost2010PropOp52
 70
     0
102
RTVSPost2010Prop53
 90
        2
102
RTVSPost2010PropOp53
 70
     0
102
RTVSPost2010Prop54
  1
strokes_ogs.tif
102
RTVSPost2010PropOp54
 70
     0
102
RTVSPost2010Prop55
280
     0
102
RTVSPost2010PropOp55
 70
     0
102
RTVSPost2010Prop56
140
1.0
102
RTVSPost2010PropOp56
 70
     0
102
RTVSPost2010Prop57
140
1.0
102
RTVSPost2010PropOp57
 70
     0
  0
XRECORD
  5
30A
102
{ACAD_REACTORS
330
309
102
}
330
309
100
AcDbXrecord
280
     1
102
RTVSPropertyOp0
 70
     1
102
RTVSPropertyOp1
 70
     1
102
RTVSPropertyOp2
 70
     1
102
RTVSPropertyOp3
 70
     1
102
RTVSPropertyOp4
 70
     1
102
RTVSPropertyOp5
 70
     1
102
RTVSPropertyOp6
 70
     1
102
RTVSPropertyOp7
 70
     1
102
RTVSPropertyOp8
 70
     1
102
RTVSPropertyOp9
 70
     1
102
RTVSPropertyOp10
 70
     1
102
RTVSPropertyOp11
 70
     1
102
RTVSPropertyOp12
 70
     1
102
RTVSPropertyOp13
 70
     1
102
RTVSPropertyOp14
 70
     1
102
RTVSPropertyOp15
 70
     1
102
RTVSPropertyOp16
 70
     1
102
RTVSPropertyOp17
 70
     1
102
RTVSPropertyOp18
 70
     1
102
RTVSPropertyOp19
 70
     1
102
RTVSPropertyOp20
 70
     1
102
RTVSPropertyOp21
 70
     1
102
RTVSPropertyOp22
 70
     1
102
RTVSPropertyOp23
 70
     1
102
RTVSPropertyOp24
 70
     1
102
RTVSPropertyOp25
 70
     1
102
RTVSPropertyOp26
 70
     1
102
RTVSPropertyOp27
 70
     1
102
RTVSPropertyOp28
 70
     1
102
RTVSPropertyOp29
 70
     1
102
RTVSPropertyOp30
 70
     1
102
RTVSPropertyOp31
 70
     1
102
RTVSPropertyOp32
 70
     1
102
RTVSPropertyOp33
 70
     1
102
RTVSPropertyOp34
 70
     1
102
RTVSPropertyOp35
 70
     1
102
RTVSPropertyOp36
 70
     1
102
RTVSPropertyOp37
 70
     1
102
RTVSPropertyOp38
 70
     1
102
RTVSPropertyOp39
 70
     1
102
RTVSPropertyOp40
 70
     1
102
RTVSPropertyOp41
 70
     1
102
RTVSPropertyOp42
 70
     1
102
RTVSPropertyOp43
 70
     1
102
RTVSPropertyOp44
 70
     1
102
RTVSPropertyOp45
 70
     1
102
RTVSPropertyOp46
 70
     1
102
RTVSPropertyOp47
 70
     1
102
RTVSPropertyOp48
 70
     1
102
RTVSPropertyOp49
 70
     1
102
RTVSPropertyOp50
 70
     1
102
RTVSPropertyOp51
 70
     0
102
RTVSPropertyOp52
 70
     0
102
RTVSPropertyOp53
 70
     1
102
RTVSPropertyOp54
 70
     1
102
RTVSPropertyOp55
 70
     1
102
RTVSPropertyOp56
 70
     1
102
RTVSPropertyOp57
 70
     1
102
RTVSPost2010Prop28
280
     0
102
RTVSPost2010PropOp28
 70
     1
102
RTVSPost2010Prop29
280
     1
102
RTVSPost2010PropOp29
 70
     1
102
RTVSPost2010Prop30
280
     1
102
RTVSPost2010PropOp30
 70
     1
102
RTVSPost2010Prop31
280
     0
102
RTVSPost2010PropOp31
 70
     1
102
RTVSPost2010Prop32
280
     0
102
RTVSPost2010PropOp32
 70
     1
102
RTVSPost2010Prop33
280
     0
102
RTVSPost2010PropOp33
 70
     1
102
RTVSPost2010Prop34
280
     0
102
RTVSPost2010PropOp34
 70
     1
102
RTVSPost2010Prop35
280
     0
102
RTVSPost2010PropOp35
 70
     1
102
RTVSPost2010Prop36
280
     0
102
RTVSPost2010PropOp36
 70
     1
102
RTVSPost2010Prop37
 90
       50
102
RTVSPost2010PropOp37
 70
     1
102
RTVSPost2010Prop38
140
0.0
102
RTVSPost2010PropOp38
 70
     1
102
RTVSPost2010Prop39
140
1.0
102
RTVSPost2010PropOp39
 70
     1
102
RTVSPost2010Prop40
 90
        0
102
RTVSPost2010PropOp40
 70
     1
102
RTVSPost2010Prop41ColorIndex
 90
      178
102
RTVSPost2010Prop41ColorRGB
 90
        0
102
RTVSPost2010PropOp41
 70
     1
102
RTVSPost2010Prop42
 90
       50
102
RTVSPost2010PropOp42
 70
     1
102
RTVSPost2010Prop43
 90
        3
102
RTVSPost2010PropOp43
 70
     1
102
RTVSPost2010Prop44ColorIndex
 90
        5
102
RTVSPost2010Prop44ColorRGB
 90
      255
102
RTVSPost2010PropOp44
 70
     1
102
RTVSPost2010Prop45
280
     0
102
RTVSPost2010PropOp45
 70
     1
102
RTVSPost2010Prop46
 90
       50
102
RTVSPost2010PropOp46
 70
     1
102
RTVSPost2010Prop47
 90
       50
102
RTVSPost2010PropOp47
 70
     1
102
RTVSPost2010Prop48
 90
       50
102
RTVSPost2010PropOp48
 70
     1
102
RTVSPost2010Prop49
280
     0
102
RTVSPost2010PropOp49
 70
     1
102
RTVSPost2010Prop50
 90
       50
102
RTVSPost2010PropOp50
 70
     1
102
RTVSPost2010Prop51ColorIndex
 90
      256
102
RTVSPost2010Prop51ColorRGB
 90
-16777216
102
RTVSPost2010PropOp51
 70
     0
102
RTVSPost2010Prop52
140
1.0
102
RTVSPost2010PropOp52
 70
     0
102
RTVSPost2010Prop53
 90
        2
102
RTVSPost2010PropOp53
 70
     1
102
RTVSPost2010Prop54
  1
strokes_ogs.tif
102
RTVSPost2010PropOp54
 70
     1
102
RTVSPost2010Prop55
280
     0
102
RTVSPost2010PropOp55
 70
     1
102
RTVSPost2010Prop56
140
1.0
102
RTVSPost2010PropOp56
 70
     1
102
RTVSPost2010Prop57
140
1.0
102
RTVSPost2010PropOp57
 70
     1
  0
XRECORD
  5
2EE
102
{ACAD_REACTORS
330
2ED
102
}
330
2ED
100
AcDbXrecord
280
     1
102
RTVSPropertyOp0
 70
     1
102
RTVSPropertyOp1
 70
     1
102
RTVSPropertyOp2
 70
     1
102
RTVSPropertyOp3
 70
     1
102
RTVSPropertyOp4
 70
     1
102
RTVSPropertyOp5
 70
     1
102
RTVSPropertyOp6
 70
     1
102
RTVSPropertyOp7
 70
     1
102
RTVSPropertyOp8
 70
     1
102
RTVSPropertyOp9
 70
     1
102
RTVSPropertyOp10
 70
     1
102
RTVSPropertyOp11
 70
     1
102
RTVSPropertyOp12
 70
     1
102
RTVSPropertyOp13
 70
     1
102
RTVSPropertyOp14
 70
     1
102
RTVSPropertyOp15
 70
     1
102
RTVSPropertyOp16
 70
     1
102
RTVSPropertyOp17
 70
     1
102
RTVSPropertyOp18
 70
     1
102
RTVSPropertyOp19
 70
     1
102
RTVSPropertyOp20
 70
     1
102
RTVSPropertyOp21
 70
     1
102
RTVSPropertyOp22
 70
     1
102
RTVSPropertyOp23
 70
     1
102
RTVSPropertyOp24
 70
     1
102
RTVSPropertyOp25
 70
     1
102
RTVSPropertyOp26
 70
     1
102
RTVSPropertyOp27
 70
     1
102
RTVSPropertyOp28
 70
     1
102
RTVSPropertyOp29
 70
     1
102
RTVSPropertyOp30
 70
     1
102
RTVSPropertyOp31
 70
     1
102
RTVSPropertyOp32
 70
     1
102
RTVSPropertyOp33
 70
     1
102
RTVSPropertyOp34
 70
     1
102
RTVSPropertyOp35
 70
     1
102
RTVSPropertyOp36
 70
     1
102
RTVSPropertyOp37
 70
     1
102
RTVSPropertyOp38
 70
     1
102
RTVSPropertyOp39
 70
     1
102
RTVSPropertyOp40
 70
     1
102
RTVSPropertyOp41
 70
     1
102
RTVSPropertyOp42
 70
     1
102
RTVSPropertyOp43
 70
     1
102
RTVSPropertyOp44
 70
     1
102
RTVSPropertyOp45
 70
     1
102
RTVSPropertyOp46
 70
     1
102
RTVSPropertyOp47
 70
     1
102
RTVSPropertyOp48
 70
     1
102
RTVSPropertyOp49
 70
     1
102
RTVSPropertyOp50
 70
     1
102
RTVSPropertyOp51
 70
     0
102
RTVSPropertyOp52
 70
     0
102
RTVSPropertyOp53
 70
     1
102
RTVSPropertyOp54
 70
     1
102
RTVSPropertyOp55
 70
     1
102
RTVSPropertyOp56
 70
     1
102
RTVSPropertyOp57
 70
     1
102
RTVSPost2010Prop28
280
     0
102
RTVSPost2010PropOp28
 70
     1
102
RTVSPost2010Prop29
280
     1
102
RTVSPost2010PropOp29
 70
     1
102
RTVSPost2010Prop30
280
     1
102
RTVSPost2010PropOp30
 70
     1
102
RTVSPost2010Prop31
280
     0
102
RTVSPost2010PropOp31
 70
     1
102
RTVSPost2010Prop32
280
     0
102
RTVSPost2010PropOp32
 70
     1
102
RTVSPost2010Prop33
280
     0
102
RTVSPost2010PropOp33
 70
     1
102
RTVSPost2010Prop34
280
     0
102
RTVSPost2010PropOp34
 70
     1
102
RTVSPost2010Prop35
280
     0
102
RTVSPost2010PropOp35
 70
     1
102
RTVSPost2010Prop36
280
     0
102
RTVSPost2010PropOp36
 70
     1
102
RTVSPost2010Prop37
 90
       50
102
RTVSPost2010PropOp37
 70
     1
102
RTVSPost2010Prop38
140
0.0
102
RTVSPost2010PropOp38
 70
     1
102
RTVSPost2010Prop39
140
1.0
102
RTVSPost2010PropOp39
 70
     1
102
RTVSPost2010Prop40
 90
        0
102
RTVSPost2010PropOp40
 70
     1
102
RTVSPost2010Prop41ColorIndex
 90
      178
102
RTVSPost2010Prop41ColorRGB
 90
        0
102
RTVSPost2010PropOp41
 70
     1
102
RTVSPost2010Prop42
 90
       50
102
RTVSPost2010PropOp42
 70
     1
102
RTVSPost2010Prop43
 90
        3
102
RTVSPost2010PropOp43
 70
     1
102
RTVSPost2010Prop44ColorIndex
 90
        5
102
RTVSPost2010Prop44ColorRGB
 90
      255
102
RTVSPost2010PropOp44
 70
     1
102
RTVSPost2010Prop45
280
     0
102
RTVSPost2010PropOp45
 70
     1
102
RTVSPost2010Prop46
 90
       50
102
RTVSPost2010PropOp46
 70
     1
102
RTVSPost2010Prop47
 90
       50
102
RTVSPost2010PropOp47
 70
     1
102
RTVSPost2010Prop48
 90
       50
102
RTVSPost2010PropOp48
 70
     1
102
RTVSPost2010Prop49
280
     0
102
RTVSPost2010PropOp49
 70
     1
102
RTVSPost2010Prop50
 90
       50
102
RTVSPost2010PropOp50
 70
     1
102
RTVSPost2010Prop51ColorIndex
 90
      256
102
RTVSPost2010Prop51ColorRGB
 90
-16777216
102
RTVSPost2010PropOp51
 70
     0
102
RTVSPost2010Prop52
140
1.0
102
RTVSPost2010PropOp52
 70
     0
102
RTVSPost2010Prop53
 90
        2
102
RTVSPost2010PropOp53
 70
     1
102
RTVSPost2010Prop54
  1
strokes_ogs.tif
102
RTVSPost2010PropOp54
 70
     1
102
RTVSPost2010Prop55
280
     0
102
RTVSPost2010PropOp55
 70
     1
102
RTVSPost2010Prop56
140
1.0
102
RTVSPost2010PropOp56
 70
     1
102
RTVSPost2010Prop57
140
1.0
102
RTVSPost2010PropOp57
 70
     1
  0
XRECORD
  5
2F0
102
{ACAD_REACTORS
330
2EF
102
}
330
2EF
100
AcDbXrecord
280
     1
102
RTVSPropertyOp0
 70
     1
102
RTVSPropertyOp1
 70
     1
102
RTVSPropertyOp2
 70
     1
102
RTVSPropertyOp3
 70
     1
102
RTVSPropertyOp4
 70
     1
102
RTVSPropertyOp5
 70
     1
102
RTVSPropertyOp6
 70
     1
102
RTVSPropertyOp7
 70
     1
102
RTVSPropertyOp8
 70
     1
102
RTVSPropertyOp9
 70
     1
102
RTVSPropertyOp10
 70
     1
102
RTVSPropertyOp11
 70
     1
102
RTVSPropertyOp12
 70
     1
102
RTVSPropertyOp13
 70
     1
102
RTVSPropertyOp14
 70
     1
102
RTVSPropertyOp15
 70
     1
102
RTVSPropertyOp16
 70
     1
102
RTVSPropertyOp17
 70
     1
102
RTVSPropertyOp18
 70
     1
102
RTVSPropertyOp19
 70
     1
102
RTVSPropertyOp20
 70
     1
102
RTVSPropertyOp21
 70
     1
102
RTVSPropertyOp22
 70
     1
102
RTVSPropertyOp23
 70
     1
102
RTVSPropertyOp24
 70
     1
102
RTVSPropertyOp25
 70
     1
102
RTVSPropertyOp26
 70
     1
102
RTVSPropertyOp27
 70
     1
102
RTVSPropertyOp28
 70
     1
102
RTVSPropertyOp29
 70
     1
102
RTVSPropertyOp30
 70
     1
102
RTVSPropertyOp31
 70
     1
102
RTVSPropertyOp32
 70
     1
102
RTVSPropertyOp33
 70
     1
102
RTVSPropertyOp34
 70
     1
102
RTVSPropertyOp35
 70
     1
102
RTVSPropertyOp36
 70
     1
102
RTVSPropertyOp37
 70
     1
102
RTVSPropertyOp38
 70
     1
102
RTVSPropertyOp39
 70
     1
102
RTVSPropertyOp40
 70
     1
102
RTVSPropertyOp41
 70
     1
102
RTVSPropertyOp42
 70
     1
102
RTVSPropertyOp43
 70
     1
102
RTVSPropertyOp44
 70
     1
102
RTVSPropertyOp45
 70
     1
102
RTVSPropertyOp46
 70
     1
102
RTVSPropertyOp47
 70
     1
102
RTVSPropertyOp48
 70
     1
102
RTVSPropertyOp49
 70
     1
102
RTVSPropertyOp50
 70
     1
102
RTVSPropertyOp51
 70
     0
102
RTVSPropertyOp52
 70
     0
102
RTVSPropertyOp53
 70
     1
102
RTVSPropertyOp54
 70
     1
102
RTVSPropertyOp55
 70
     1
102
RTVSPropertyOp56
 70
     1
102
RTVSPropertyOp57
 70
     1
102
RTVSPost2010Prop28
280
     0
102
RTVSPost2010PropOp28
 70
     1
102
RTVSPost2010Prop29
280
     1
102
RTVSPost2010PropOp29
 70
     1
102
RTVSPost2010Prop30
280
     1
102
RTVSPost2010PropOp30
 70
     1
102
RTVSPost2010Prop31
280
     0
102
RTVSPost2010PropOp31
 70
     1
102
RTVSPost2010Prop32
280
     0
102
RTVSPost2010PropOp32
 70
     1
102
RTVSPost2010Prop33
280
     0
102
RTVSPost2010PropOp33
 70
     1
102
RTVSPost2010Prop34
280
     0
102
RTVSPost2010PropOp34
 70
     1
102
RTVSPost2010Prop35
280
     0
102
RTVSPost2010PropOp35
 70
     1
102
RTVSPost2010Prop36
280
     0
102
RTVSPost2010PropOp36
 70
     1
102
RTVSPost2010Prop37
 90
       50
102
RTVSPost2010PropOp37
 70
     1
102
RTVSPost2010Prop38
140
0.0
102
RTVSPost2010PropOp38
 70
     1
102
RTVSPost2010Prop39
140
1.0
102
RTVSPost2010PropOp39
 70
     1
102
RTVSPost2010Prop40
 90
        0
102
RTVSPost2010PropOp40
 70
     1
102
RTVSPost2010Prop41ColorIndex
 90
      178
102
RTVSPost2010Prop41ColorRGB
 90
        0
102
RTVSPost2010PropOp41
 70
     1
102
RTVSPost2010Prop42
 90
       50
102
RTVSPost2010PropOp42
 70
     1
102
RTVSPost2010Prop43
 90
        3
102
RTVSPost2010PropOp43
 70
     1
102
RTVSPost2010Prop44ColorIndex
 90
        5
102
RTVSPost2010Prop44ColorRGB
 90
      255
102
RTVSPost2010PropOp44
 70
     1
102
RTVSPost2010Prop45
280
     0
102
RTVSPost2010PropOp45
 70
     1
102
RTVSPost2010Prop46
 90
       50
102
RTVSPost2010PropOp46
 70
     1
102
RTVSPost2010Prop47
 90
       50
102
RTVSPost2010PropOp47
 70
     1
102
RTVSPost2010Prop48
 90
       50
102
RTVSPost2010PropOp48
 70
     1
102
RTVSPost2010Prop49
280
     0
102
RTVSPost2010PropOp49
 70
     1
102
RTVSPost2010Prop50
 90
       50
102
RTVSPost2010PropOp50
 70
     1
102
RTVSPost2010Prop51ColorIndex
 90
      256
102
RTVSPost2010Prop51ColorRGB
 90
-16777216
102
RTVSPost2010PropOp51
 70
     0
102
RTVSPost2010Prop52
140
1.0
102
RTVSPost2010PropOp52
 70
     0
102
RTVSPost2010Prop53
 90
        2
102
RTVSPost2010PropOp53
 70
     1
102
RTVSPost2010Prop54
  1
strokes_ogs.tif
102
RTVSPost2010PropOp54
 70
     1
102
RTVSPost2010Prop55
280
     0
102
RTVSPost2010PropOp55
 70
     1
102
RTVSPost2010Prop56
140
1.0
102
RTVSPost2010PropOp56
 70
     1
102
RTVSPost2010Prop57
140
1.0
102
RTVSPost2010PropOp57
 70
     1
  0
XRECORD
  5
2F2
102
{ACAD_REACTORS
330
2F1
102
}
330
2F1
100
AcDbXrecord
280
     1
102
RTVSPropertyOp0
 70
     1
102
RTVSPropertyOp1
 70
     1
102
RTVSPropertyOp2
 70
     1
102
RTVSPropertyOp3
 70
     1
102
RTVSPropertyOp4
 70
     1
102
RTVSPropertyOp5
 70
     1
102
RTVSPropertyOp6
 70
     1
102
RTVSPropertyOp7
 70
     1
102
RTVSPropertyOp8
 70
     1
102
RTVSPropertyOp9
 70
     1
102
RTVSPropertyOp10
 70
     1
102
RTVSPropertyOp11
 70
     1
102
RTVSPropertyOp12
 70
     1
102
RTVSPropertyOp13
 70
     1
102
RTVSPropertyOp14
 70
     1
102
RTVSPropertyOp15
 70
     1
102
RTVSPropertyOp16
 70
     1
102
RTVSPropertyOp17
 70
     1
102
RTVSPropertyOp18
 70
     1
102
RTVSPropertyOp19
 70
     1
102
RTVSPropertyOp20
 70
     1
102
RTVSPropertyOp21
 70
     1
102
RTVSPropertyOp22
 70
     1
102
RTVSPropertyOp23
 70
     1
102
RTVSPropertyOp24
 70
     1
102
RTVSPropertyOp25
 70
     1
102
RTVSPropertyOp26
 70
     1
102
RTVSPropertyOp27
 70
     1
102
RTVSPropertyOp28
 70
     1
102
RTVSPropertyOp29
 70
     1
102
RTVSPropertyOp30
 70
     1
102
RTVSPropertyOp31
 70
     1
102
RTVSPropertyOp32
 70
     1
102
RTVSPropertyOp33
 70
     1
102
RTVSPropertyOp34
 70
     1
102
RTVSPropertyOp35
 70
     1
102
RTVSPropertyOp36
 70
     1
102
RTVSPropertyOp37
 70
     1
102
RTVSPropertyOp38
 70
     1
102
RTVSPropertyOp39
 70
     1
102
RTVSPropertyOp40
 70
     1
102
RTVSPropertyOp41
 70
     1
102
RTVSPropertyOp42
 70
     1
102
RTVSPropertyOp43
 70
     1
102
RTVSPropertyOp44
 70
     1
102
RTVSPropertyOp45
 70
     1
102
RTVSPropertyOp46
 70
     1
102
RTVSPropertyOp47
 70
     1
102
RTVSPropertyOp48
 70
     1
102
RTVSPropertyOp49
 70
     1
102
RTVSPropertyOp50
 70
     1
102
RTVSPropertyOp51
 70
     0
102
RTVSPropertyOp52
 70
     0
102
RTVSPropertyOp53
 70
     1
102
RTVSPropertyOp54
 70
     1
102
RTVSPropertyOp55
 70
     1
102
RTVSPropertyOp56
 70
     1
102
RTVSPropertyOp57
 70
     1
102
RTVSPost2010Prop28
280
     0
102
RTVSPost2010PropOp28
 70
     1
102
RTVSPost2010Prop29
280
     1
102
RTVSPost2010PropOp29
 70
     1
102
RTVSPost2010Prop30
280
     1
102
RTVSPost2010PropOp30
 70
     1
102
RTVSPost2010Prop31
280
     0
102
RTVSPost2010PropOp31
 70
     1
102
RTVSPost2010Prop32
280
     0
102
RTVSPost2010PropOp32
 70
     1
102
RTVSPost2010Prop33
280
     0
102
RTVSPost2010PropOp33
 70
     1
102
RTVSPost2010Prop34
280
     0
102
RTVSPost2010PropOp34
 70
     1
102
RTVSPost2010Prop35
280
     0
102
RTVSPost2010PropOp35
 70
     1
102
RTVSPost2010Prop36
280
     0
102
RTVSPost2010PropOp36
 70
     1
102
RTVSPost2010Prop37
 90
       50
102
RTVSPost2010PropOp37
 70
     1
102
RTVSPost2010Prop38
140
0.0
102
RTVSPost2010PropOp38
 70
     1
102
RTVSPost2010Prop39
140
1.0
102
RTVSPost2010PropOp39
 70
     1
102
RTVSPost2010Prop40
 90
        0
102
RTVSPost2010PropOp40
 70
     1
102
RTVSPost2010Prop41ColorIndex
 90
      178
102
RTVSPost2010Prop41ColorRGB
 90
        0
102
RTVSPost2010PropOp41
 70
     1
102
RTVSPost2010Prop42
 90
       50
102
RTVSPost2010PropOp42
 70
     1
102
RTVSPost2010Prop43
 90
        3
102
RTVSPost2010PropOp43
 70
     1
102
RTVSPost2010Prop44ColorIndex
 90
        5
102
RTVSPost2010Prop44ColorRGB
 90
      255
102
RTVSPost2010PropOp44
 70
     1
102
RTVSPost2010Prop45
280
     0
102
RTVSPost2010PropOp45
 70
     1
102
RTVSPost2010Prop46
 90
       50
102
RTVSPost2010PropOp46
 70
     1
102
RTVSPost2010Prop47
 90
       50
102
RTVSPost2010PropOp47
 70
     1
102
RTVSPost2010Prop48
 90
       50
102
RTVSPost2010PropOp48
 70
     1
102
RTVSPost2010Prop49
280
     0
102
RTVSPost2010PropOp49
 70
     1
102
RTVSPost2010Prop50
 90
       50
102
RTVSPost2010PropOp50
 70
     1
102
RTVSPost2010Prop51ColorIndex
 90
      256
102
RTVSPost2010Prop51ColorRGB
 90
-16777216
102
RTVSPost2010PropOp51
 70
     0
102
RTVSPost2010Prop52
140
1.0
102
RTVSPost2010PropOp52
 70
     0
102
RTVSPost2010Prop53
 90
        2
102
RTVSPost2010PropOp53
 70
     1
102
RTVSPost2010Prop54
  1
strokes_ogs.tif
102
RTVSPost2010PropOp54
 70
     1
102
RTVSPost2010Prop55
280
     0
102
RTVSPost2010PropOp55
 70
     1
102
RTVSPost2010Prop56
140
1.0
102
RTVSPost2010PropOp56
 70
     1
102
RTVSPost2010Prop57
140
1.0
102
RTVSPost2010PropOp57
 70
     1
  0
XRECORD
  5
2F4
102
{ACAD_REACTORS
330
2F3
102
}
330
2F3
100
AcDbXrecord
280
     1
102
RTVSPropertyOp0
 70
     1
102
RTVSPropertyOp1
 70
     1
102
RTVSPropertyOp2
 70
     1
102
RTVSPropertyOp3
 70
     1
102
RTVSPropertyOp4
 70
     1
102
RTVSPropertyOp5
 70
     1
102
RTVSPropertyOp6
 70
     1
102
RTVSPropertyOp7
 70
     1
102
RTVSPropertyOp8
 70
     1
102
RTVSPropertyOp9
 70
     1
102
RTVSPropertyOp10
 70
     1
102
RTVSPropertyOp11
 70
     1
102
RTVSPropertyOp12
 70
     1
102
RTVSPropertyOp13
 70
     1
102
RTVSPropertyOp14
 70
     1
102
RTVSPropertyOp15
 70
     1
102
RTVSPropertyOp16
 70
     1
102
RTVSPropertyOp17
 70
     1
102
RTVSPropertyOp18
 70
     1
102
RTVSPropertyOp19
 70
     1
102
RTVSPropertyOp20
 70
     1
102
RTVSPropertyOp21
 70
     1
102
RTVSPropertyOp22
 70
     1
102
RTVSPropertyOp23
 70
     1
102
RTVSPropertyOp24
 70
     1
102
RTVSPropertyOp25
 70
     1
102
RTVSPropertyOp26
 70
     1
102
RTVSPropertyOp27
 70
     1
102
RTVSPropertyOp28
 70
     1
102
RTVSPropertyOp29
 70
     1
102
RTVSPropertyOp30
 70
     1
102
RTVSPropertyOp31
 70
     1
102
RTVSPropertyOp32
 70
     1
102
RTVSPropertyOp33
 70
     1
102
RTVSPropertyOp34
 70
     1
102
RTVSPropertyOp35
 70
     1
102
RTVSPropertyOp36
 70
     1
102
RTVSPropertyOp37
 70
     1
102
RTVSPropertyOp38
 70
     1
102
RTVSPropertyOp39
 70
     1
102
RTVSPropertyOp40
 70
     1
102
RTVSPropertyOp41
 70
     1
102
RTVSPropertyOp42
 70
     1
102
RTVSPropertyOp43
 70
     1
102
RTVSPropertyOp44
 70
     1
102
RTVSPropertyOp45
 70
     1
102
RTVSPropertyOp46
 70
     1
102
RTVSPropertyOp47
 70
     1
102
RTVSPropertyOp48
 70
     1
102
RTVSPropertyOp49
 70
     1
102
RTVSPropertyOp50
 70
     1
102
RTVSPropertyOp51
 70
     0
102
RTVSPropertyOp52
 70
     0
102
RTVSPropertyOp53
 70
     1
102
RTVSPropertyOp54
 70
     1
102
RTVSPropertyOp55
 70
     1
102
RTVSPropertyOp56
 70
     1
102
RTVSPropertyOp57
 70
     1
102
RTVSPost2010Prop28
280
     0
102
RTVSPost2010PropOp28
 70
     1
102
RTVSPost2010Prop29
280
     1
102
RTVSPost2010PropOp29
 70
     1
102
RTVSPost2010Prop30
280
     1
102
RTVSPost2010PropOp30
 70
     1
102
RTVSPost2010Prop31
280
     0
102
RTVSPost2010PropOp31
 70
     1
102
RTVSPost2010Prop32
280
     0
102
RTVSPost2010PropOp32
 70
     1
102
RTVSPost2010Prop33
280
     0
102
RTVSPost2010PropOp33
 70
     1
102
RTVSPost2010Prop34
280
     0
102
RTVSPost2010PropOp34
 70
     1
102
RTVSPost2010Prop35
280
     0
102
RTVSPost2010PropOp35
 70
     1
102
RTVSPost2010Prop36
280
     0
102
RTVSPost2010PropOp36
 70
     1
102
RTVSPost2010Prop37
 90
       50
102
RTVSPost2010PropOp37
 70
     1
102
RTVSPost2010Prop38
140
0.0
102
RTVSPost2010PropOp38
 70
     1
102
RTVSPost2010Prop39
140
1.0
102
RTVSPost2010PropOp39
 70
     1
102
RTVSPost2010Prop40
 90
        0
102
RTVSPost2010PropOp40
 70
     1
102
RTVSPost2010Prop41ColorIndex
 90
      178
102
RTVSPost2010Prop41ColorRGB
 90
        0
102
RTVSPost2010PropOp41
 70
     1
102
RTVSPost2010Prop42
 90
       50
102
RTVSPost2010PropOp42
 70
     1
102
RTVSPost2010Prop43
 90
        3
102
RTVSPost2010PropOp43
 70
     1
102
RTVSPost2010Prop44ColorIndex
 90
        5
102
RTVSPost2010Prop44ColorRGB
 90
      255
102
RTVSPost2010PropOp44
 70
     1
102
RTVSPost2010Prop45
280
     0
102
RTVSPost2010PropOp45
 70
     1
102
RTVSPost2010Prop46
 90
       50
102
RTVSPost2010PropOp46
 70
     1
102
RTVSPost2010Prop47
 90
       50
102
RTVSPost2010PropOp47
 70
     1
102
RTVSPost2010Prop48
 90
       50
102
RTVSPost2010PropOp48
 70
     1
102
RTVSPost2010Prop49
280
     0
102
RTVSPost2010PropOp49
 70
     1
102
RTVSPost2010Prop50
 90
       50
102
RTVSPost2010PropOp50
 70
     1
102
RTVSPost2010Prop51ColorIndex
 90
      256
102
RTVSPost2010Prop51ColorRGB
 90
-16777216
102
RTVSPost2010PropOp51
 70
     0
102
RTVSPost2010Prop52
140
1.0
102
RTVSPost2010PropOp52
 70
     0
102
RTVSPost2010Prop53
 90
        2
102
RTVSPost2010PropOp53
 70
     1
102
RTVSPost2010Prop54
  1
strokes_ogs.tif
102
RTVSPost2010PropOp54
 70
     1
102
RTVSPost2010Prop55
280
     0
102
RTVSPost2010PropOp55
 70
     1
102
RTVSPost2010Prop56
140
1.0
102
RTVSPost2010PropOp56
 70
     1
102
RTVSPost2010Prop57
140
1.0
102
RTVSPost2010PropOp57
 70
     1
  0
XRECORD
  5
2FA
102
{ACAD_REACTORS
330
2F9
102
}
330
2F9
100
AcDbXrecord
280
     1
102
RTVSPropertyOp0
 70
     1
102
RTVSPropertyOp1
 70
     1
102
RTVSPropertyOp2
 70
     1
102
RTVSPropertyOp3
 70
     1
102
RTVSPropertyOp4
 70
     1
102
RTVSPropertyOp5
 70
     1
102
RTVSPropertyOp6
 70
     1
102
RTVSPropertyOp7
 70
     1
102
RTVSPropertyOp8
 70
     1
102
RTVSPropertyOp9
 70
     1
102
RTVSPropertyOp10
 70
     1
102
RTVSPropertyOp11
 70
     1
102
RTVSPropertyOp12
 70
     1
102
RTVSPropertyOp13
 70
     1
102
RTVSPropertyOp14
 70
     1
102
RTVSPropertyOp15
 70
     1
102
RTVSPropertyOp16
 70
     1
102
RTVSPropertyOp17
 70
     1
102
RTVSPropertyOp18
 70
     1
102
RTVSPropertyOp19
 70
     1
102
RTVSPropertyOp20
 70
     1
102
RTVSPropertyOp21
 70
     1
102
RTVSPropertyOp22
 70
     1
102
RTVSPropertyOp23
 70
     1
102
RTVSPropertyOp24
 70
     1
102
RTVSPropertyOp25
 70
     1
102
RTVSPropertyOp26
 70
     1
102
RTVSPropertyOp27
 70
     1
102
RTVSPropertyOp28
 70
     1
102
RTVSPropertyOp29
 70
     1
102
RTVSPropertyOp30
 70
     1
102
RTVSPropertyOp31
 70
     1
102
RTVSPropertyOp32
 70
     1
102
RTVSPropertyOp33
 70
     1
102
RTVSPropertyOp34
 70
     1
102
RTVSPropertyOp35
 70
     1
102
RTVSPropertyOp36
 70
     1
102
RTVSPropertyOp37
 70
     1
102
RTVSPropertyOp38
 70
     1
102
RTVSPropertyOp39
 70
     1
102
RTVSPropertyOp40
 70
     1
102
RTVSPropertyOp41
 70
     1
102
RTVSPropertyOp42
 70
     1
102
RTVSPropertyOp43
 70
     1
102
RTVSPropertyOp44
 70
     1
102
RTVSPropertyOp45
 70
     1
102
RTVSPropertyOp46
 70
     1
102
RTVSPropertyOp47
 70
     1
102
RTVSPropertyOp48
 70
     1
102
RTVSPropertyOp49
 70
     1
102
RTVSPropertyOp50
 70
     1
102
RTVSPropertyOp51
 70
     0
102
RTVSPropertyOp52
 70
     0
102
RTVSPropertyOp53
 70
     1
102
RTVSPropertyOp54
 70
     1
102
RTVSPropertyOp55
 70
     1
102
RTVSPropertyOp56
 70
     1
102
RTVSPropertyOp57
 70
     1
102
RTVSPost2010Prop28
280
     0
102
RTVSPost2010PropOp28
 70
     1
102
RTVSPost2010Prop29
280
     1
102
RTVSPost2010PropOp29
 70
     1
102
RTVSPost2010Prop30
280
     1
102
RTVSPost2010PropOp30
 70
     1
102
RTVSPost2010Prop31
280
     0
102
RTVSPost2010PropOp31
 70
     1
102
RTVSPost2010Prop32
280
     0
102
RTVSPost2010PropOp32
 70
     1
102
RTVSPost2010Prop33
280
     0
102
RTVSPost2010PropOp33
 70
     1
102
RTVSPost2010Prop34
280
     0
102
RTVSPost2010PropOp34
 70
     1
102
RTVSPost2010Prop35
280
     0
102
RTVSPost2010PropOp35
 70
     1
102
RTVSPost2010Prop36
280
     0
102
RTVSPost2010PropOp36
 70
     1
102
RTVSPost2010Prop37
 90
       50
102
RTVSPost2010PropOp37
 70
     1
102
RTVSPost2010Prop38
140
0.0
102
RTVSPost2010PropOp38
 70
     1
102
RTVSPost2010Prop39
140
1.0
102
RTVSPost2010PropOp39
 70
     1
102
RTVSPost2010Prop40
 90
        0
102
RTVSPost2010PropOp40
 70
     1
102
RTVSPost2010Prop41ColorIndex
 90
      178
102
RTVSPost2010Prop41ColorRGB
 90
        0
102
RTVSPost2010PropOp41
 70
     1
102
RTVSPost2010Prop42
 90
       50
102
RTVSPost2010PropOp42
 70
     1
102
RTVSPost2010Prop43
 90
        3
102
RTVSPost2010PropOp43
 70
     1
102
RTVSPost2010Prop44ColorIndex
 90
        5
102
RTVSPost2010Prop44ColorRGB
 90
      255
102
RTVSPost2010PropOp44
 70
     1
102
RTVSPost2010Prop45
280
     0
102
RTVSPost2010PropOp45
 70
     1
102
RTVSPost2010Prop46
 90
       50
102
RTVSPost2010PropOp46
 70
     1
102
RTVSPost2010Prop47
 90
       50
102
RTVSPost2010PropOp47
 70
     1
102
RTVSPost2010Prop48
 90
       50
102
RTVSPost2010PropOp48
 70
     1
102
RTVSPost2010Prop49
280
     0
102
RTVSPost2010PropOp49
 70
     1
102
RTVSPost2010Prop50
 90
       50
102
RTVSPost2010PropOp50
 70
     1
102
RTVSPost2010Prop51ColorIndex
 90
      256
102
RTVSPost2010Prop51ColorRGB
 90
-16777216
102
RTVSPost2010PropOp51
 70
     0
102
RTVSPost2010Prop52
140
1.0
102
RTVSPost2010PropOp52
 70
     0
102
RTVSPost2010Prop53
 90
        2
102
RTVSPost2010PropOp53
 70
     1
102
RTVSPost2010Prop54
  1
strokes_ogs.tif
102
RTVSPost2010PropOp54
 70
     1
102
RTVSPost2010Prop55
280
     0
102
RTVSPost2010PropOp55
 70
     1
102
RTVSPost2010Prop56
140
1.0
102
RTVSPost2010PropOp56
 70
     1
102
RTVSPost2010Prop57
140
1.0
102
RTVSPost2010PropOp57
 70
     1
  0
XRECORD
  5
30E
102
{ACAD_REACTORS
330
30D
102
}
330
30D
100
AcDbXrecord
280
     1
102
RTVSPropertyOp0
 70
     0
102
RTVSPropertyOp1
 70
     0
102
RTVSPropertyOp2
 70
     0
102
RTVSPropertyOp3
 70
     0
102
RTVSPropertyOp4
 70
     0
102
RTVSPropertyOp5
 70
     0
102
RTVSPropertyOp6
 70
     0
102
RTVSPropertyOp7
 70
     0
102
RTVSPropertyOp8
 70
     0
102
RTVSPropertyOp9
 70
     0
102
RTVSPropertyOp10
 70
     0
102
RTVSPropertyOp11
 70
     0
102
RTVSPropertyOp12
 70
     0
102
RTVSPropertyOp13
 70
     0
102
RTVSPropertyOp14
 70
     2
102
RTVSPropertyOp15
 70
     0
102
RTVSPropertyOp16
 70
     0
102
RTVSPropertyOp17
 70
     0
102
RTVSPropertyOp18
 70
     0
102
RTVSPropertyOp19
 70
     0
102
RTVSPropertyOp20
 70
     0
102
RTVSPropertyOp21
 70
     0
102
RTVSPropertyOp22
 70
     0
102
RTVSPropertyOp23
 70
     0
102
RTVSPropertyOp24
 70
     0
102
RTVSPropertyOp25
 70
     0
102
RTVSPropertyOp26
 70
     0
102
RTVSPropertyOp27
 70
     0
102
RTVSPropertyOp28
 70
     0
102
RTVSPropertyOp29
 70
     0
102
RTVSPropertyOp30
 70
     0
102
RTVSPropertyOp31
 70
     0
102
RTVSPropertyOp32
 70
     0
102
RTVSPropertyOp33
 70
     0
102
RTVSPropertyOp34
 70
     0
102
RTVSPropertyOp35
 70
     0
102
RTVSPropertyOp36
 70
     0
102
RTVSPropertyOp37
 70
     0
102
RTVSPropertyOp38
 70
     0
102
RTVSPropertyOp39
 70
     0
102
RTVSPropertyOp40
 70
     0
102
RTVSPropertyOp41
 70
     0
102
RTVSPropertyOp42
 70
     0
102
RTVSPropertyOp43
 70
     0
102
RTVSPropertyOp44
 70
     0
102
RTVSPropertyOp45
 70
     0
102
RTVSPropertyOp46
 70
     0
102
RTVSPropertyOp47
 70
     0
102
RTVSPropertyOp48
 70
     0
102
RTVSPropertyOp49
 70
     0
102
RTVSPropertyOp50
 70
     0
102
RTVSPropertyOp51
 70
     0
102
RTVSPropertyOp52
 70
     0
102
RTVSPropertyOp53
 70
     0
102
RTVSPropertyOp54
 70
     0
102
RTVSPropertyOp55
 70
     0
102
RTVSPropertyOp56
 70
     0
102
RTVSPropertyOp57
 70
     0
102
RTVSPost2010Prop28
280
     0
102
RTVSPost2010PropOp28
 70
     0
102
RTVSPost2010Prop29
280
     1
102
RTVSPost2010PropOp29
 70
     0
102
RTVSPost2010Prop30
280
     1
102
RTVSPost2010PropOp30
 70
     0
102
RTVSPost2010Prop31
280
     0
102
RTVSPost2010PropOp31
 70
     0
102
RTVSPost2010Prop32
280
     0
102
RTVSPost2010PropOp32
 70
     0
102
RTVSPost2010Prop33
280
     0
102
RTVSPost2010PropOp33
 70
     0
102
RTVSPost2010Prop34
280
     0
102
RTVSPost2010PropOp34
 70
     0
102
RTVSPost2010Prop35
280
     0
102
RTVSPost2010PropOp35
 70
     0
102
RTVSPost2010Prop36
280
     0
102
RTVSPost2010PropOp36
 70
     0
102
RTVSPost2010Prop37
 90
       50
102
RTVSPost2010PropOp37
 70
     0
102
RTVSPost2010Prop38
140
0.0
102
RTVSPost2010PropOp38
 70
     0
102
RTVSPost2010Prop39
140
1.0
102
RTVSPost2010PropOp39
 70
     0
102
RTVSPost2010Prop40
 90
        0
102
RTVSPost2010PropOp40
 70
     0
102
RTVSPost2010Prop41ColorIndex
 90
      178
102
RTVSPost2010Prop41ColorRGB
 90
        0
102
RTVSPost2010PropOp41
 70
     0
102
RTVSPost2010Prop42
 90
       50
102
RTVSPost2010PropOp42
 70
     0
102
RTVSPost2010Prop43
 90
        3
102
RTVSPost2010PropOp43
 70
     0
102
RTVSPost2010Prop44ColorIndex
 90
        5
102
RTVSPost2010Prop44ColorRGB
 90
      255
102
RTVSPost2010PropOp44
 70
     0
102
RTVSPost2010Prop45
280
     0
102
RTVSPost2010PropOp45
 70
     0
102
RTVSPost2010Prop46
 90
       50
102
RTVSPost2010PropOp46
 70
     0
102
RTVSPost2010Prop47
 90
       50
102
RTVSPost2010PropOp47
 70
     0
102
RTVSPost2010Prop48
 90
       50
102
RTVSPost2010PropOp48
 70
     0
102
RTVSPost2010Prop49
280
     0
102
RTVSPost2010PropOp49
 70
     0
102
RTVSPost2010Prop50
 90
       50
102
RTVSPost2010PropOp50
 70
     0
102
RTVSPost2010Prop51ColorIndex
 90
      256
102
RTVSPost2010Prop51ColorRGB
 90
-16777216
102
RTVSPost2010PropOp51
 70
     0
102
RTVSPost2010Prop52
140
1.0
102
RTVSPost2010PropOp52
 70
     0
102
RTVSPost2010Prop53
 90
        2
102
RTVSPost2010PropOp53
 70
     0
102
RTVSPost2010Prop54
  1
strokes_ogs.tif
102
RTVSPost2010PropOp54
 70
     0
102
RTVSPost2010Prop55
280
     0
102
RTVSPost2010PropOp55
 70
     0
102
RTVSPost2010Prop56
140
1.0
102
RTVSPost2010PropOp56
 70
     0
102
RTVSPost2010Prop57
140
1.0
102
RTVSPost2010PropOp57
 70
     0
  0
XRECORD
  5
308
102
{ACAD_REACTORS
330
307
102
}
330
307
100
AcDbXrecord
280
     1
102
RTVSPropertyOp0
 70
     1
102
RTVSPropertyOp1
 70
     1
102
RTVSPropertyOp2
 70
     1
102
RTVSPropertyOp3
 70
     1
102
RTVSPropertyOp4
 70
     1
102
RTVSPropertyOp5
 70
     1
102
RTVSPropertyOp6
 70
     1
102
RTVSPropertyOp7
 70
     1
102
RTVSPropertyOp8
 70
     1
102
RTVSPropertyOp9
 70
     1
102
RTVSPropertyOp10
 70
     1
102
RTVSPropertyOp11
 70
     1
102
RTVSPropertyOp12
 70
     1
102
RTVSPropertyOp13
 70
     1
102
RTVSPropertyOp14
 70
     1
102
RTVSPropertyOp15
 70
     1
102
RTVSPropertyOp16
 70
     1
102
RTVSPropertyOp17
 70
     1
102
RTVSPropertyOp18
 70
     1
102
RTVSPropertyOp19
 70
     1
102
RTVSPropertyOp20
 70
     1
102
RTVSPropertyOp21
 70
     1
102
RTVSPropertyOp22
 70
     1
102
RTVSPropertyOp23
 70
     1
102
RTVSPropertyOp24
 70
     1
102
RTVSPropertyOp25
 70
     1
102
RTVSPropertyOp26
 70
     1
102
RTVSPropertyOp27
 70
     1
102
RTVSPropertyOp28
 70
     1
102
RTVSPropertyOp29
 70
     1
102
RTVSPropertyOp30
 70
     1
102
RTVSPropertyOp31
 70
     1
102
RTVSPropertyOp32
 70
     1
102
RTVSPropertyOp33
 70
     1
102
RTVSPropertyOp34
 70
     1
102
RTVSPropertyOp35
 70
     1
102
RTVSPropertyOp36
 70
     1
102
RTVSPropertyOp37
 70
     1
102
RTVSPropertyOp38
 70
     1
102
RTVSPropertyOp39
 70
     1
102
RTVSPropertyOp40
 70
     1
102
RTVSPropertyOp41
 70
     1
102
RTVSPropertyOp42
 70
     1
102
RTVSPropertyOp43
 70
     1
102
RTVSPropertyOp44
 70
     1
102
RTVSPropertyOp45
 70
     1
102
RTVSPropertyOp46
 70
     1
102
RTVSPropertyOp47
 70
     1
102
RTVSPropertyOp48
 70
     1
102
RTVSPropertyOp49
 70
     1
102
RTVSPropertyOp50
 70
     1
102
RTVSPropertyOp51
 70
     0
102
RTVSPropertyOp52
 70
     0
102
RTVSPropertyOp53
 70
     1
102
RTVSPropertyOp54
 70
     1
102
RTVSPropertyOp55
 70
     1
102
RTVSPropertyOp56
 70
     1
102
RTVSPropertyOp57
 70
     1
102
RTVSPost2010Prop28
280
     0
102
RTVSPost2010PropOp28
 70
     1
102
RTVSPost2010Prop29
280
     1
102
RTVSPost2010PropOp29
 70
     1
102
RTVSPost2010Prop30
280
     1
102
RTVSPost2010PropOp30
 70
     1
102
RTVSPost2010Prop31
280
     0
102
RTVSPost2010PropOp31
 70
     1
102
RTVSPost2010Prop32
280
     0
102
RTVSPost2010PropOp32
 70
     1
102
RTVSPost2010Prop33
280
     0
102
RTVSPost2010PropOp33
 70
     1
102
RTVSPost2010Prop34
280
     0
102
RTVSPost2010PropOp34
 70
     1
102
RTVSPost2010Prop35
280
     0
102
RTVSPost2010PropOp35
 70
     1
102
RTVSPost2010Prop36
280
     0
102
RTVSPost2010PropOp36
 70
     1
102
RTVSPost2010Prop37
 90
       50
102
RTVSPost2010PropOp37
 70
     1
102
RTVSPost2010Prop38
140
0.0
102
RTVSPost2010PropOp38
 70
     1
102
RTVSPost2010Prop39
140
1.0
102
RTVSPost2010PropOp39
 70
     1
102
RTVSPost2010Prop40
 90
        0
102
RTVSPost2010PropOp40
 70
     1
102
RTVSPost2010Prop41ColorIndex
 90
      178
102
RTVSPost2010Prop41ColorRGB
 90
        0
102
RTVSPost2010PropOp41
 70
     1
102
RTVSPost2010Prop42
 90
       50
102
RTVSPost2010PropOp42
 70
     1
102
RTVSPost2010Prop43
 90
        3
102
RTVSPost2010PropOp43
 70
     1
102
RTVSPost2010Prop44ColorIndex
 90
        5
102
RTVSPost2010Prop44ColorRGB
 90
      255
102
RTVSPost2010PropOp44
 70
     1
102
RTVSPost2010Prop45
280
     0
102
RTVSPost2010PropOp45
 70
     1
102
RTVSPost2010Prop46
 90
       50
102
RTVSPost2010PropOp46
 70
     1
102
RTVSPost2010Prop47
 90
       50
102
RTVSPost2010PropOp47
 70
     1
102
RTVSPost2010Prop48
 90
       50
102
RTVSPost2010PropOp48
 70
     1
102
RTVSPost2010Prop49
280
     0
102
RTVSPost2010PropOp49
 70
     1
102
RTVSPost2010Prop50
 90
       50
102
RTVSPost2010PropOp50
 70
     1
102
RTVSPost2010Prop51ColorIndex
 90
      256
102
RTVSPost2010Prop51ColorRGB
 90
-16777216
102
RTVSPost2010PropOp51
 70
     0
102
RTVSPost2010Prop52
140
1.0
102
RTVSPost2010PropOp52
 70
     0
102
RTVSPost2010Prop53
 90
        2
102
RTVSPost2010PropOp53
 70
     1
102
RTVSPost2010Prop54
  1
strokes_ogs.tif
102
RTVSPost2010PropOp54
 70
     1
102
RTVSPost2010Prop55
280
     0
102
RTVSPost2010PropOp55
 70
     1
102
RTVSPost2010Prop56
140
1.0
102
RTVSPost2010PropOp56
 70
     1
102
RTVSPost2010Prop57
140
1.0
102
RTVSPost2010PropOp57
 70
     1
  0
XRECORD
  5
310
102
{ACAD_REACTORS
330
30F
102
}
330
30F
100
AcDbXrecord
280
     1
102
RTVSPropertyOp0
 70
     0
102
RTVSPropertyOp1
 70
     0
102
RTVSPropertyOp2
 70
     0
102
RTVSPropertyOp3
 70
     0
102
RTVSPropertyOp4
 70
     0
102
RTVSPropertyOp5
 70
     0
102
RTVSPropertyOp6
 70
     0
102
RTVSPropertyOp7
 70
     0
102
RTVSPropertyOp8
 70
     0
102
RTVSPropertyOp9
 70
     0
102
RTVSPropertyOp10
 70
     0
102
RTVSPropertyOp11
 70
     0
102
RTVSPropertyOp12
 70
     0
102
RTVSPropertyOp13
 70
     0
102
RTVSPropertyOp14
 70
     2
102
RTVSPropertyOp15
 70
     0
102
RTVSPropertyOp16
 70
     0
102
RTVSPropertyOp17
 70
     0
102
RTVSPropertyOp18
 70
     0
102
RTVSPropertyOp19
 70
     0
102
RTVSPropertyOp20
 70
     0
102
RTVSPropertyOp21
 70
     0
102
RTVSPropertyOp22
 70
     0
102
RTVSPropertyOp23
 70
     0
102
RTVSPropertyOp24
 70
     0
102
RTVSPropertyOp25
 70
     0
102
RTVSPropertyOp26
 70
     0
102
RTVSPropertyOp27
 70
     0
102
RTVSPropertyOp28
 70
     0
102
RTVSPropertyOp29
 70
     0
102
RTVSPropertyOp30
 70
     0
102
RTVSPropertyOp31
 70
     0
102
RTVSPropertyOp32
 70
     0
102
RTVSPropertyOp33
 70
     0
102
RTVSPropertyOp34
 70
     0
102
RTVSPropertyOp35
 70
     0
102
RTVSPropertyOp36
 70
     0
102
RTVSPropertyOp37
 70
     0
102
RTVSPropertyOp38
 70
     0
102
RTVSPropertyOp39
 70
     0
102
RTVSPropertyOp40
 70
     0
102
RTVSPropertyOp41
 70
     0
102
RTVSPropertyOp42
 70
     0
102
RTVSPropertyOp43
 70
     0
102
RTVSPropertyOp44
 70
     0
102
RTVSPropertyOp45
 70
     0
102
RTVSPropertyOp46
 70
     0
102
RTVSPropertyOp47
 70
     0
102
RTVSPropertyOp48
 70
     0
102
RTVSPropertyOp49
 70
     0
102
RTVSPropertyOp50
 70
     0
102
RTVSPropertyOp51
 70
     0
102
RTVSPropertyOp52
 70
     0
102
RTVSPropertyOp53
 70
     0
102
RTVSPropertyOp54
 70
     0
102
RTVSPropertyOp55
 70
     0
102
RTVSPropertyOp56
 70
     0
102
RTVSPropertyOp57
 70
     0
102
RTVSPost2010Prop28
280
     0
102
RTVSPost2010PropOp28
 70
     0
102
RTVSPost2010Prop29
280
     1
102
RTVSPost2010PropOp29
 70
     0
102
RTVSPost2010Prop30
280
     1
102
RTVSPost2010PropOp30
 70
     0
102
RTVSPost2010Prop31
280
     0
102
RTVSPost2010PropOp31
 70
     0
102
RTVSPost2010Prop32
280
     0
102
RTVSPost2010PropOp32
 70
     0
102
RTVSPost2010Prop33
280
     0
102
RTVSPost2010PropOp33
 70
     0
102
RTVSPost2010Prop34
280
     0
102
RTVSPost2010PropOp34
 70
     0
102
RTVSPost2010Prop35
280
     0
102
RTVSPost2010PropOp35
 70
     0
102
RTVSPost2010Prop36
280
     0
102
RTVSPost2010PropOp36
 70
     0
102
RTVSPost2010Prop37
 90
       50
102
RTVSPost2010PropOp37
 70
     0
102
RTVSPost2010Prop38
140
0.0
102
RTVSPost2010PropOp38
 70
     0
102
RTVSPost2010Prop39
140
1.0
102
RTVSPost2010PropOp39
 70
     0
102
RTVSPost2010Prop40
 90
        0
102
RTVSPost2010PropOp40
 70
     0
102
RTVSPost2010Prop41ColorIndex
 90
      178
102
RTVSPost2010Prop41ColorRGB
 90
        0
102
RTVSPost2010PropOp41
 70
     0
102
RTVSPost2010Prop42
 90
       50
102
RTVSPost2010PropOp42
 70
     0
102
RTVSPost2010Prop43
 90
        3
102
RTVSPost2010PropOp43
 70
     0
102
RTVSPost2010Prop44ColorIndex
 90
        5
102
RTVSPost2010Prop44ColorRGB
 90
      255
102
RTVSPost2010PropOp44
 70
     0
102
RTVSPost2010Prop45
280
     0
102
RTVSPost2010PropOp45
 70
     0
102
RTVSPost2010Prop46
 90
       50
102
RTVSPost2010PropOp46
 70
     0
102
RTVSPost2010Prop47
 90
       50
102
RTVSPost2010PropOp47
 70
     0
102
RTVSPost2010Prop48
 90
       50
102
RTVSPost2010PropOp48
 70
     0
102
RTVSPost2010Prop49
280
     0
102
RTVSPost2010PropOp49
 70
     0
102
RTVSPost2010Prop50
 90
       50
102
RTVSPost2010PropOp50
 70
     0
102
RTVSPost2010Prop51ColorIndex
 90
      256
102
RTVSPost2010Prop51ColorRGB
 90
-16777216
102
RTVSPost2010PropOp51
 70
     0
102
RTVSPost2010Prop52
140
1.0
102
RTVSPost2010PropOp52
 70
     0
102
RTVSPost2010Prop53
 90
        2
102
RTVSPost2010PropOp53
 70
     0
102
RTVSPost2010Prop54
  1
strokes_ogs.tif
102
RTVSPost2010PropOp54
 70
     0
102
RTVSPost2010Prop55
280
     0
102
RTVSPost2010PropOp55
 70
     0
102
RTVSPost2010Prop56
140
1.0
102
RTVSPost2010PropOp56
 70
     0
102
RTVSPost2010Prop57
140
1.0
102
RTVSPost2010PropOp57
 70
     0
  0
XRECORD
  5
2FE
102
{ACAD_REACTORS
330
2FD
102
}
330
2FD
100
AcDbXrecord
280
     1
102
RTVSPropertyOp0
 70
     1
102
RTVSPropertyOp1
 70
     1
102
RTVSPropertyOp2
 70
     1
102
RTVSPropertyOp3
 70
     1
102
RTVSPropertyOp4
 70
     1
102
RTVSPropertyOp5
 70
     1
102
RTVSPropertyOp6
 70
     1
102
RTVSPropertyOp7
 70
     1
102
RTVSPropertyOp8
 70
     1
102
RTVSPropertyOp9
 70
     1
102
RTVSPropertyOp10
 70
     1
102
RTVSPropertyOp11
 70
     1
102
RTVSPropertyOp12
 70
     1
102
RTVSPropertyOp13
 70
     1
102
RTVSPropertyOp14
 70
     1
102
RTVSPropertyOp15
 70
     1
102
RTVSPropertyOp16
 70
     1
102
RTVSPropertyOp17
 70
     1
102
RTVSPropertyOp18
 70
     1
102
RTVSPropertyOp19
 70
     1
102
RTVSPropertyOp20
 70
     1
102
RTVSPropertyOp21
 70
     1
102
RTVSPropertyOp22
 70
     1
102
RTVSPropertyOp23
 70
     1
102
RTVSPropertyOp24
 70
     1
102
RTVSPropertyOp25
 70
     1
102
RTVSPropertyOp26
 70
     1
102
RTVSPropertyOp27
 70
     1
102
RTVSPropertyOp28
 70
     1
102
RTVSPropertyOp29
 70
     1
102
RTVSPropertyOp30
 70
     1
102
RTVSPropertyOp31
 70
     1
102
RTVSPropertyOp32
 70
     1
102
RTVSPropertyOp33
 70
     1
102
RTVSPropertyOp34
 70
     1
102
RTVSPropertyOp35
 70
     1
102
RTVSPropertyOp36
 70
     1
102
RTVSPropertyOp37
 70
     1
102
RTVSPropertyOp38
 70
     1
102
RTVSPropertyOp39
 70
     1
102
RTVSPropertyOp40
 70
     1
102
RTVSPropertyOp41
 70
     1
102
RTVSPropertyOp42
 70
     1
102
RTVSPropertyOp43
 70
     1
102
RTVSPropertyOp44
 70
     1
102
RTVSPropertyOp45
 70
     1
102
RTVSPropertyOp46
 70
     1
102
RTVSPropertyOp47
 70
     1
102
RTVSPropertyOp48
 70
     1
102
RTVSPropertyOp49
 70
     1
102
RTVSPropertyOp50
 70
     1
102
RTVSPropertyOp51
 70
     0
102
RTVSPropertyOp52
 70
     0
102
RTVSPropertyOp53
 70
     1
102
RTVSPropertyOp54
 70
     1
102
RTVSPropertyOp55
 70
     1
102
RTVSPropertyOp56
 70
     1
102
RTVSPropertyOp57
 70
     1
102
RTVSPost2010Prop28
280
     0
102
RTVSPost2010PropOp28
 70
     1
102
RTVSPost2010Prop29
280
     1
102
RTVSPost2010PropOp29
 70
     1
102
RTVSPost2010Prop30
280
     1
102
RTVSPost2010PropOp30
 70
     1
102
RTVSPost2010Prop31
280
     0
102
RTVSPost2010PropOp31
 70
     1
102
RTVSPost2010Prop32
280
     0
102
RTVSPost2010PropOp32
 70
     1
102
RTVSPost2010Prop33
280
     0
102
RTVSPost2010PropOp33
 70
     1
102
RTVSPost2010Prop34
280
     0
102
RTVSPost2010PropOp34
 70
     1
102
RTVSPost2010Prop35
280
     0
102
RTVSPost2010PropOp35
 70
     1
102
RTVSPost2010Prop36
280
     0
102
RTVSPost2010PropOp36
 70
     1
102
RTVSPost2010Prop37
 90
       50
102
RTVSPost2010PropOp37
 70
     1
102
RTVSPost2010Prop38
140
0.0
102
RTVSPost2010PropOp38
 70
     1
102
RTVSPost2010Prop39
140
1.0
102
RTVSPost2010PropOp39
 70
     1
102
RTVSPost2010Prop40
 90
        0
102
RTVSPost2010PropOp40
 70
     1
102
RTVSPost2010Prop41ColorIndex
 90
      178
102
RTVSPost2010Prop41ColorRGB
 90
        0
102
RTVSPost2010PropOp41
 70
     1
102
RTVSPost2010Prop42
 90
       50
102
RTVSPost2010PropOp42
 70
     1
102
RTVSPost2010Prop43
 90
        3
102
RTVSPost2010PropOp43
 70
     1
102
RTVSPost2010Prop44ColorIndex
 90
        5
102
RTVSPost2010Prop44ColorRGB
 90
      255
102
RTVSPost2010PropOp44
 70
     1
102
RTVSPost2010Prop45
280
     0
102
RTVSPost2010PropOp45
 70
     1
102
RTVSPost2010Prop46
 90
       50
102
RTVSPost2010PropOp46
 70
     1
102
RTVSPost2010Prop47
 90
       50
102
RTVSPost2010PropOp47
 70
     1
102
RTVSPost2010Prop48
 90
       50
102
RTVSPost2010PropOp48
 70
     1
102
RTVSPost2010Prop49
280
     0
102
RTVSPost2010PropOp49
 70
     1
102
RTVSPost2010Prop50
 90
       50
102
RTVSPost2010PropOp50
 70
     1
102
RTVSPost2010Prop51ColorIndex
 90
      256
102
RTVSPost2010Prop51ColorRGB
 90
-16777216
102
RTVSPost2010PropOp51
 70
     0
102
RTVSPost2010Prop52
140
1.0
102
RTVSPost2010PropOp52
 70
     0
102
RTVSPost2010Prop53
 90
        2
102
RTVSPost2010PropOp53
 70
     1
102
RTVSPost2010Prop54
  1
strokes_ogs.tif
102
RTVSPost2010PropOp54
 70
     1
102
RTVSPost2010Prop55
280
     0
102
RTVSPost2010PropOp55
 70
     1
102
RTVSPost2010Prop56
140
1.0
102
RTVSPost2010PropOp56
 70
     1
102
RTVSPost2010Prop57
140
1.0
102
RTVSPost2010PropOp57
 70
     1
  0
XRECORD
  5
31C
102
{ACAD_REACTORS
330
31B
102
}
330
31B
100
AcDbXrecord
280
     1
102
RTVSPropertyOp0
 70
     1
102
RTVSPropertyOp1
 70
     1
102
RTVSPropertyOp2
 70
     1
102
RTVSPropertyOp3
 70
     1
102
RTVSPropertyOp4
 70
     1
102
RTVSPropertyOp5
 70
     1
102
RTVSPropertyOp6
 70
     1
102
RTVSPropertyOp7
 70
     1
102
RTVSPropertyOp8
 70
     1
102
RTVSPropertyOp9
 70
     1
102
RTVSPropertyOp10
 70
     1
102
RTVSPropertyOp11
 70
     1
102
RTVSPropertyOp12
 70
     1
102
RTVSPropertyOp13
 70
     1
102
RTVSPropertyOp14
 70
     1
102
RTVSPropertyOp15
 70
     1
102
RTVSPropertyOp16
 70
     1
102
RTVSPropertyOp17
 70
     1
102
RTVSPropertyOp18
 70
     1
102
RTVSPropertyOp19
 70
     1
102
RTVSPropertyOp20
 70
     1
102
RTVSPropertyOp21
 70
     1
102
RTVSPropertyOp22
 70
     1
102
RTVSPropertyOp23
 70
     1
102
RTVSPropertyOp24
 70
     1
102
RTVSPropertyOp25
 70
     1
102
RTVSPropertyOp26
 70
     1
102
RTVSPropertyOp27
 70
     1
102
RTVSPropertyOp28
 70
     1
102
RTVSPropertyOp29
 70
     1
102
RTVSPropertyOp30
 70
     1
102
RTVSPropertyOp31
 70
     1
102
RTVSPropertyOp32
 70
     1
102
RTVSPropertyOp33
 70
     1
102
RTVSPropertyOp34
 70
     1
102
RTVSPropertyOp35
 70
     1
102
RTVSPropertyOp36
 70
     1
102
RTVSPropertyOp37
 70
     1
102
RTVSPropertyOp38
 70
     1
102
RTVSPropertyOp39
 70
     1
102
RTVSPropertyOp40
 70
     1
102
RTVSPropertyOp41
 70
     1
102
RTVSPropertyOp42
 70
     1
102
RTVSPropertyOp43
 70
     1
102
RTVSPropertyOp44
 70
     1
102
RTVSPropertyOp45
 70
     1
102
RTVSPropertyOp46
 70
     1
102
RTVSPropertyOp47
 70
     1
102
RTVSPropertyOp48
 70
     1
102
RTVSPropertyOp49
 70
     1
102
RTVSPropertyOp50
 70
     1
102
RTVSPropertyOp51
 70
     0
102
RTVSPropertyOp52
 70
     0
102
RTVSPropertyOp53
 70
     1
102
RTVSPropertyOp54
 70
     1
102
RTVSPropertyOp55
 70
     1
102
RTVSPropertyOp56
 70
     1
102
RTVSPropertyOp57
 70
     1
102
RTVSPost2010Prop28
280
     0
102
RTVSPost2010PropOp28
 70
     1
102
RTVSPost2010Prop29
280
     1
102
RTVSPost2010PropOp29
 70
     1
102
RTVSPost2010Prop30
280
     1
102
RTVSPost2010PropOp30
 70
     1
102
RTVSPost2010Prop31
280
     0
102
RTVSPost2010PropOp31
 70
     1
102
RTVSPost2010Prop32
280
     0
102
RTVSPost2010PropOp32
 70
     1
102
RTVSPost2010Prop33
280
     0
102
RTVSPost2010PropOp33
 70
     1
102
RTVSPost2010Prop34
280
     0
102
RTVSPost2010PropOp34
 70
     1
102
RTVSPost2010Prop35
280
     0
102
RTVSPost2010PropOp35
 70
     1
102
RTVSPost2010Prop36
280
     0
102
RTVSPost2010PropOp36
 70
     1
102
RTVSPost2010Prop37
 90
       50
102
RTVSPost2010PropOp37
 70
     1
102
RTVSPost2010Prop38
140
0.0
102
RTVSPost2010PropOp38
 70
     1
102
RTVSPost2010Prop39
140
1.0
102
RTVSPost2010PropOp39
 70
     1
102
RTVSPost2010Prop40
 90
        0
102
RTVSPost2010PropOp40
 70
     1
102
RTVSPost2010Prop41ColorIndex
 90
      178
102
RTVSPost2010Prop41ColorRGB
 90
        0
102
RTVSPost2010PropOp41
 70
     1
102
RTVSPost2010Prop42
 90
       50
102
RTVSPost2010PropOp42
 70
     1
102
RTVSPost2010Prop43
 90
        3
102
RTVSPost2010PropOp43
 70
     1
102
RTVSPost2010Prop44ColorIndex
 90
        5
102
RTVSPost2010Prop44ColorRGB
 90
      255
102
RTVSPost2010PropOp44
 70
     1
102
RTVSPost2010Prop45
280
     0
102
RTVSPost2010PropOp45
 70
     1
102
RTVSPost2010Prop46
 90
       50
102
RTVSPost2010PropOp46
 70
     1
102
RTVSPost2010Prop47
 90
       50
102
RTVSPost2010PropOp47
 70
     1
102
RTVSPost2010Prop48
 90
       50
102
RTVSPost2010PropOp48
 70
     1
102
RTVSPost2010Prop49
280
     0
102
RTVSPost2010PropOp49
 70
     1
102
RTVSPost2010Prop50
 90
       50
102
RTVSPost2010PropOp50
 70
     1
102
RTVSPost2010Prop51ColorIndex
 90
      256
102
RTVSPost2010Prop51ColorRGB
 90
-16777216
102
RTVSPost2010PropOp51
 70
     0
102
RTVSPost2010Prop52
140
1.0
102
RTVSPost2010PropOp52
 70
     0
102
RTVSPost2010Prop53
 90
        2
102
RTVSPost2010PropOp53
 70
     1
102
RTVSPost2010Prop54
  1
strokes_ogs.tif
102
RTVSPost2010PropOp54
 70
     1
102
RTVSPost2010Prop55
280
     0
102
RTVSPost2010PropOp55
 70
     1
102
RTVSPost2010Prop56
140
1.0
102
RTVSPost2010PropOp56
 70
     1
102
RTVSPost2010Prop57
140
1.0
102
RTVSPost2010PropOp57
 70
     1
  0
XRECORD
  5
31A
102
{ACAD_REACTORS
330
319
102
}
330
319
100
AcDbXrecord
280
     1
102
RTVSPropertyOp0
 70
     1
102
RTVSPropertyOp1
 70
     1
102
RTVSPropertyOp2
 70
     1
102
RTVSPropertyOp3
 70
     1
102
RTVSPropertyOp4
 70
     1
102
RTVSPropertyOp5
 70
     1
102
RTVSPropertyOp6
 70
     1
102
RTVSPropertyOp7
 70
     1
102
RTVSPropertyOp8
 70
     1
102
RTVSPropertyOp9
 70
     1
102
RTVSPropertyOp10
 70
     1
102
RTVSPropertyOp11
 70
     1
102
RTVSPropertyOp12
 70
     1
102
RTVSPropertyOp13
 70
     1
102
RTVSPropertyOp14
 70
     1
102
RTVSPropertyOp15
 70
     1
102
RTVSPropertyOp16
 70
     1
102
RTVSPropertyOp17
 70
     1
102
RTVSPropertyOp18
 70
     1
102
RTVSPropertyOp19
 70
     1
102
RTVSPropertyOp20
 70
     1
102
RTVSPropertyOp21
 70
     1
102
RTVSPropertyOp22
 70
     1
102
RTVSPropertyOp23
 70
     1
102
RTVSPropertyOp24
 70
     1
102
RTVSPropertyOp25
 70
     1
102
RTVSPropertyOp26
 70
     1
102
RTVSPropertyOp27
 70
     1
102
RTVSPropertyOp28
 70
     1
102
RTVSPropertyOp29
 70
     1
102
RTVSPropertyOp30
 70
     1
102
RTVSPropertyOp31
 70
     1
102
RTVSPropertyOp32
 70
     1
102
RTVSPropertyOp33
 70
     1
102
RTVSPropertyOp34
 70
     1
102
RTVSPropertyOp35
 70
     1
102
RTVSPropertyOp36
 70
     1
102
RTVSPropertyOp37
 70
     1
102
RTVSPropertyOp38
 70
     1
102
RTVSPropertyOp39
 70
     1
102
RTVSPropertyOp40
 70
     1
102
RTVSPropertyOp41
 70
     1
102
RTVSPropertyOp42
 70
     1
102
RTVSPropertyOp43
 70
     1
102
RTVSPropertyOp44
 70
     1
102
RTVSPropertyOp45
 70
     1
102
RTVSPropertyOp46
 70
     1
102
RTVSPropertyOp47
 70
     1
102
RTVSPropertyOp48
 70
     1
102
RTVSPropertyOp49
 70
     1
102
RTVSPropertyOp50
 70
     1
102
RTVSPropertyOp51
 70
     0
102
RTVSPropertyOp52
 70
     0
102
RTVSPropertyOp53
 70
     1
102
RTVSPropertyOp54
 70
     1
102
RTVSPropertyOp55
 70
     1
102
RTVSPropertyOp56
 70
     1
102
RTVSPropertyOp57
 70
     1
102
RTVSPost2010Prop28
280
     0
102
RTVSPost2010PropOp28
 70
     1
102
RTVSPost2010Prop29
280
     1
102
RTVSPost2010PropOp29
 70
     1
102
RTVSPost2010Prop30
280
     1
102
RTVSPost2010PropOp30
 70
     1
102
RTVSPost2010Prop31
280
     0
102
RTVSPost2010PropOp31
 70
     1
102
RTVSPost2010Prop32
280
     0
102
RTVSPost2010PropOp32
 70
     1
102
RTVSPost2010Prop33
280
     0
102
RTVSPost2010PropOp33
 70
     1
102
RTVSPost2010Prop34
280
     0
102
RTVSPost2010PropOp34
 70
     1
102
RTVSPost2010Prop35
280
     0
102
RTVSPost2010PropOp35
 70
     1
102
RTVSPost2010Prop36
280
     0
102
RTVSPost2010PropOp36
 70
     1
102
RTVSPost2010Prop37
 90
       50
102
RTVSPost2010PropOp37
 70
     1
102
RTVSPost2010Prop38
140
0.0
102
RTVSPost2010PropOp38
 70
     1
102
RTVSPost2010Prop39
140
1.0
102
RTVSPost2010PropOp39
 70
     1
102
RTVSPost2010Prop40
 90
        0
102
RTVSPost2010PropOp40
 70
     1
102
RTVSPost2010Prop41ColorIndex
 90
      178
102
RTVSPost2010Prop41ColorRGB
 90
        0
102
RTVSPost2010PropOp41
 70
     1
102
RTVSPost2010Prop42
 90
       50
102
RTVSPost2010PropOp42
 70
     1
102
RTVSPost2010Prop43
 90
        3
102
RTVSPost2010PropOp43
 70
     1
102
RTVSPost2010Prop44ColorIndex
 90
        5
102
RTVSPost2010Prop44ColorRGB
 90
      255
102
RTVSPost2010PropOp44
 70
     1
102
RTVSPost2010Prop45
280
     0
102
RTVSPost2010PropOp45
 70
     1
102
RTVSPost2010Prop46
 90
       50
102
RTVSPost2010PropOp46
 70
     1
102
RTVSPost2010Prop47
 90
       50
102
RTVSPost2010PropOp47
 70
     1
102
RTVSPost2010Prop48
 90
       50
102
RTVSPost2010PropOp48
 70
     1
102
RTVSPost2010Prop49
280
     0
102
RTVSPost2010PropOp49
 70
     1
102
RTVSPost2010Prop50
 90
       50
102
RTVSPost2010PropOp50
 70
     1
102
RTVSPost2010Prop51ColorIndex
 90
      256
102
RTVSPost2010Prop51ColorRGB
 90
-16777216
102
RTVSPost2010PropOp51
 70
     0
102
RTVSPost2010Prop52
140
1.0
102
RTVSPost2010PropOp52
 70
     0
102
RTVSPost2010Prop53
 90
        2
102
RTVSPost2010PropOp53
 70
     1
102
RTVSPost2010Prop54
  1
strokes_ogs.tif
102
RTVSPost2010PropOp54
 70
     1
102
RTVSPost2010Prop55
280
     0
102
RTVSPost2010PropOp55
 70
     1
102
RTVSPost2010Prop56
140
1.0
102
RTVSPost2010PropOp56
 70
     1
102
RTVSPost2010Prop57
140
1.0
102
RTVSPost2010PropOp57
 70
     1
  0
XRECORD
  5
314
102
{ACAD_REACTORS
330
313
102
}
330
313
100
AcDbXrecord
280
     1
102
RTVSPropertyOp0
 70
     1
102
RTVSPropertyOp1
 70
     1
102
RTVSPropertyOp2
 70
     1
102
RTVSPropertyOp3
 70
     1
102
RTVSPropertyOp4
 70
     1
102
RTVSPropertyOp5
 70
     1
102
RTVSPropertyOp6
 70
     1
102
RTVSPropertyOp7
 70
     1
102
RTVSPropertyOp8
 70
     1
102
RTVSPropertyOp9
 70
     1
102
RTVSPropertyOp10
 70
     1
102
RTVSPropertyOp11
 70
     1
102
RTVSPropertyOp12
 70
     1
102
RTVSPropertyOp13
 70
     1
102
RTVSPropertyOp14
 70
     1
102
RTVSPropertyOp15
 70
     1
102
RTVSPropertyOp16
 70
     1
102
RTVSPropertyOp17
 70
     1
102
RTVSPropertyOp18
 70
     1
102
RTVSPropertyOp19
 70
     1
102
RTVSPropertyOp20
 70
     1
102
RTVSPropertyOp21
 70
     1
102
RTVSPropertyOp22
 70
     1
102
RTVSPropertyOp23
 70
     1
102
RTVSPropertyOp24
 70
     1
102
RTVSPropertyOp25
 70
     1
102
RTVSPropertyOp26
 70
     1
102
RTVSPropertyOp27
 70
     1
102
RTVSPropertyOp28
 70
     1
102
RTVSPropertyOp29
 70
     1
102
RTVSPropertyOp30
 70
     1
102
RTVSPropertyOp31
 70
     1
102
RTVSPropertyOp32
 70
     1
102
RTVSPropertyOp33
 70
     1
102
RTVSPropertyOp34
 70
     1
102
RTVSPropertyOp35
 70
     1
102
RTVSPropertyOp36
 70
     1
102
RTVSPropertyOp37
 70
     1
102
RTVSPropertyOp38
 70
     1
102
RTVSPropertyOp39
 70
     1
102
RTVSPropertyOp40
 70
     1
102
RTVSPropertyOp41
 70
     1
102
RTVSPropertyOp42
 70
     1
102
RTVSPropertyOp43
 70
     1
102
RTVSPropertyOp44
 70
     1
102
RTVSPropertyOp45
 70
     1
102
RTVSPropertyOp46
 70
     1
102
RTVSPropertyOp47
 70
     1
102
RTVSPropertyOp48
 70
     1
102
RTVSPropertyOp49
 70
     1
102
RTVSPropertyOp50
 70
     1
102
RTVSPropertyOp51
 70
     0
102
RTVSPropertyOp52
 70
     0
102
RTVSPropertyOp53
 70
     1
102
RTVSPropertyOp54
 70
     1
102
RTVSPropertyOp55
 70
     1
102
RTVSPropertyOp56
 70
     1
102
RTVSPropertyOp57
 70
     1
102
RTVSPost2010Prop28
280
     0
102
RTVSPost2010PropOp28
 70
     1
102
RTVSPost2010Prop29
280
     1
102
RTVSPost2010PropOp29
 70
     1
102
RTVSPost2010Prop30
280
     1
102
RTVSPost2010PropOp30
 70
     1
102
RTVSPost2010Prop31
280
     0
102
RTVSPost2010PropOp31
 70
     1
102
RTVSPost2010Prop32
280
     0
102
RTVSPost2010PropOp32
 70
     1
102
RTVSPost2010Prop33
280
     0
102
RTVSPost2010PropOp33
 70
     1
102
RTVSPost2010Prop34
280
     0
102
RTVSPost2010PropOp34
 70
     1
102
RTVSPost2010Prop35
280
     0
102
RTVSPost2010PropOp35
 70
     1
102
RTVSPost2010Prop36
280
     0
102
RTVSPost2010PropOp36
 70
     1
102
RTVSPost2010Prop37
 90
       50
102
RTVSPost2010PropOp37
 70
     1
102
RTVSPost2010Prop38
140
0.0
102
RTVSPost2010PropOp38
 70
     1
102
RTVSPost2010Prop39
140
1.0
102
RTVSPost2010PropOp39
 70
     1
102
RTVSPost2010Prop40
 90
        0
102
RTVSPost2010PropOp40
 70
     1
102
RTVSPost2010Prop41ColorIndex
 90
      178
102
RTVSPost2010Prop41ColorRGB
 90
        0
102
RTVSPost2010PropOp41
 70
     1
102
RTVSPost2010Prop42
 90
       50
102
RTVSPost2010PropOp42
 70
     1
102
RTVSPost2010Prop43
 90
        3
102
RTVSPost2010PropOp43
 70
     1
102
RTVSPost2010Prop44ColorIndex
 90
        5
102
RTVSPost2010Prop44ColorRGB
 90
      255
102
RTVSPost2010PropOp44
 70
     1
102
RTVSPost2010Prop45
280
     0
102
RTVSPost2010PropOp45
 70
     1
102
RTVSPost2010Prop46
 90
       50
102
RTVSPost2010PropOp46
 70
     1
102
RTVSPost2010Prop47
 90
       50
102
RTVSPost2010PropOp47
 70
     1
102
RTVSPost2010Prop48
 90
       50
102
RTVSPost2010PropOp48
 70
     1
102
RTVSPost2010Prop49
280
     0
102
RTVSPost2010PropOp49
 70
     1
102
RTVSPost2010Prop50
 90
       50
102
RTVSPost2010PropOp50
 70
     1
102
RTVSPost2010Prop51ColorIndex
 90
      256
102
RTVSPost2010Prop51ColorRGB
 90
-16777216
102
RTVSPost2010PropOp51
 70
     0
102
RTVSPost2010Prop52
140
1.0
102
RTVSPost2010PropOp52
 70
     0
102
RTVSPost2010Prop53
 90
        2
102
RTVSPost2010PropOp53
 70
     1
102
RTVSPost2010Prop54
  1
strokes_ogs.tif
102
RTVSPost2010PropOp54
 70
     1
102
RTVSPost2010Prop55
280
     0
102
RTVSPost2010PropOp55
 70
     1
102
RTVSPost2010Prop56
140
1.0
102
RTVSPost2010PropOp56
 70
     1
102
RTVSPost2010Prop57
140
1.0
102
RTVSPost2010PropOp57
 70
     1
  0
XRECORD
  5
316
102
{ACAD_REACTORS
330
315
102
}
330
315
100
AcDbXrecord
280
     1
102
RTVSPropertyOp0
 70
     1
102
RTVSPropertyOp1
 70
     1
102
RTVSPropertyOp2
 70
     1
102
RTVSPropertyOp3
 70
     1
102
RTVSPropertyOp4
 70
     1
102
RTVSPropertyOp5
 70
     1
102
RTVSPropertyOp6
 70
     1
102
RTVSPropertyOp7
 70
     1
102
RTVSPropertyOp8
 70
     1
102
RTVSPropertyOp9
 70
     1
102
RTVSPropertyOp10
 70
     1
102
RTVSPropertyOp11
 70
     1
102
RTVSPropertyOp12
 70
     1
102
RTVSPropertyOp13
 70
     1
102
RTVSPropertyOp14
 70
     1
102
RTVSPropertyOp15
 70
     1
102
RTVSPropertyOp16
 70
     1
102
RTVSPropertyOp17
 70
     1
102
RTVSPropertyOp18
 70
     1
102
RTVSPropertyOp19
 70
     1
102
RTVSPropertyOp20
 70
     1
102
RTVSPropertyOp21
 70
     1
102
RTVSPropertyOp22
 70
     1
102
RTVSPropertyOp23
 70
     1
102
RTVSPropertyOp24
 70
     1
102
RTVSPropertyOp25
 70
     1
102
RTVSPropertyOp26
 70
     1
102
RTVSPropertyOp27
 70
     1
102
RTVSPropertyOp28
 70
     1
102
RTVSPropertyOp29
 70
     1
102
RTVSPropertyOp30
 70
     1
102
RTVSPropertyOp31
 70
     1
102
RTVSPropertyOp32
 70
     1
102
RTVSPropertyOp33
 70
     1
102
RTVSPropertyOp34
 70
     1
102
RTVSPropertyOp35
 70
     1
102
RTVSPropertyOp36
 70
     1
102
RTVSPropertyOp37
 70
     1
102
RTVSPropertyOp38
 70
     1
102
RTVSPropertyOp39
 70
     1
102
RTVSPropertyOp40
 70
     1
102
RTVSPropertyOp41
 70
     1
102
RTVSPropertyOp42
 70
     1
102
RTVSPropertyOp43
 70
     1
102
RTVSPropertyOp44
 70
     1
102
RTVSPropertyOp45
 70
     1
102
RTVSPropertyOp46
 70
     1
102
RTVSPropertyOp47
 70
     1
102
RTVSPropertyOp48
 70
     1
102
RTVSPropertyOp49
 70
     1
102
RTVSPropertyOp50
 70
     1
102
RTVSPropertyOp51
 70
     0
102
RTVSPropertyOp52
 70
     0
102
RTVSPropertyOp53
 70
     1
102
RTVSPropertyOp54
 70
     1
102
RTVSPropertyOp55
 70
     1
102
RTVSPropertyOp56
 70
     1
102
RTVSPropertyOp57
 70
     1
102
RTVSPost2010Prop28
280
     0
102
RTVSPost2010PropOp28
 70
     1
102
RTVSPost2010Prop29
280
     1
102
RTVSPost2010PropOp29
 70
     1
102
RTVSPost2010Prop30
280
     1
102
RTVSPost2010PropOp30
 70
     1
102
RTVSPost2010Prop31
280
     0
102
RTVSPost2010PropOp31
 70
     1
102
RTVSPost2010Prop32
280
     0
102
RTVSPost2010PropOp32
 70
     1
102
RTVSPost2010Prop33
280
     0
102
RTVSPost2010PropOp33
 70
     1
102
RTVSPost2010Prop34
280
     0
102
RTVSPost2010PropOp34
 70
     1
102
RTVSPost2010Prop35
280
     0
102
RTVSPost2010PropOp35
 70
     1
102
RTVSPost2010Prop36
280
     0
102
RTVSPost2010PropOp36
 70
     1
102
RTVSPost2010Prop37
 90
       50
102
RTVSPost2010PropOp37
 70
     1
102
RTVSPost2010Prop38
140
0.0
102
RTVSPost2010PropOp38
 70
     1
102
RTVSPost2010Prop39
140
1.0
102
RTVSPost2010PropOp39
 70
     1
102
RTVSPost2010Prop40
 90
        0
102
RTVSPost2010PropOp40
 70
     1
102
RTVSPost2010Prop41ColorIndex
 90
      178
102
RTVSPost2010Prop41ColorRGB
 90
        0
102
RTVSPost2010PropOp41
 70
     1
102
RTVSPost2010Prop42
 90
       50
102
RTVSPost2010PropOp42
 70
     1
102
RTVSPost2010Prop43
 90
        3
102
RTVSPost2010PropOp43
 70
     1
102
RTVSPost2010Prop44ColorIndex
 90
        5
102
RTVSPost2010Prop44ColorRGB
 90
      255
102
RTVSPost2010PropOp44
 70
     1
102
RTVSPost2010Prop45
280
     0
102
RTVSPost2010PropOp45
 70
     1
102
RTVSPost2010Prop46
 90
       50
102
RTVSPost2010PropOp46
 70
     1
102
RTVSPost2010Prop47
 90
       50
102
RTVSPost2010PropOp47
 70
     1
102
RTVSPost2010Prop48
 90
       50
102
RTVSPost2010PropOp48
 70
     1
102
RTVSPost2010Prop49
280
     0
102
RTVSPost2010PropOp49
 70
     1
102
RTVSPost2010Prop50
 90
       50
102
RTVSPost2010PropOp50
 70
     1
102
RTVSPost2010Prop51ColorIndex
 90
      256
102
RTVSPost2010Prop51ColorRGB
 90
-16777216
102
RTVSPost2010PropOp51
 70
     0
102
RTVSPost2010Prop52
140
1.0
102
RTVSPost2010PropOp52
 70
     0
102
RTVSPost2010Prop53
 90
        2
102
RTVSPost2010PropOp53
 70
     1
102
RTVSPost2010Prop54
  1
strokes_ogs.tif
102
RTVSPost2010PropOp54
 70
     1
102
RTVSPost2010Prop55
280
     0
102
RTVSPost2010PropOp55
 70
     1
102
RTVSPost2010Prop56
140
1.0
102
RTVSPost2010PropOp56
 70
     1
102
RTVSPost2010Prop57
140
1.0
102
RTVSPost2010PropOp57
 70
     1
  0
XRECORD
  5
306
102
{ACAD_REACTORS
330
305
102
}
330
305
100
AcDbXrecord
280
     1
102
RTVSPropertyOp0
 70
     1
102
RTVSPropertyOp1
 70
     1
102
RTVSPropertyOp2
 70
     1
102
RTVSPropertyOp3
 70
     1
102
RTVSPropertyOp4
 70
     1
102
RTVSPropertyOp5
 70
     1
102
RTVSPropertyOp6
 70
     1
102
RTVSPropertyOp7
 70
     1
102
RTVSPropertyOp8
 70
     1
102
RTVSPropertyOp9
 70
     1
102
RTVSPropertyOp10
 70
     1
102
RTVSPropertyOp11
 70
     1
102
RTVSPropertyOp12
 70
     1
102
RTVSPropertyOp13
 70
     1
102
RTVSPropertyOp14
 70
     1
102
RTVSPropertyOp15
 70
     1
102
RTVSPropertyOp16
 70
     1
102
RTVSPropertyOp17
 70
     1
102
RTVSPropertyOp18
 70
     1
102
RTVSPropertyOp19
 70
     1
102
RTVSPropertyOp20
 70
     1
102
RTVSPropertyOp21
 70
     1
102
RTVSPropertyOp22
 70
     1
102
RTVSPropertyOp23
 70
     1
102
RTVSPropertyOp24
 70
     1
102
RTVSPropertyOp25
 70
     1
102
RTVSPropertyOp26
 70
     1
102
RTVSPropertyOp27
 70
     1
102
RTVSPropertyOp28
 70
     1
102
RTVSPropertyOp29
 70
     1
102
RTVSPropertyOp30
 70
     1
102
RTVSPropertyOp31
 70
     1
102
RTVSPropertyOp32
 70
     1
102
RTVSPropertyOp33
 70
     1
102
RTVSPropertyOp34
 70
     1
102
RTVSPropertyOp35
 70
     1
102
RTVSPropertyOp36
 70
     1
102
RTVSPropertyOp37
 70
     1
102
RTVSPropertyOp38
 70
     1
102
RTVSPropertyOp39
 70
     1
102
RTVSPropertyOp40
 70
     1
102
RTVSPropertyOp41
 70
     1
102
RTVSPropertyOp42
 70
     1
102
RTVSPropertyOp43
 70
     1
102
RTVSPropertyOp44
 70
     1
102
RTVSPropertyOp45
 70
     1
102
RTVSPropertyOp46
 70
     1
102
RTVSPropertyOp47
 70
     1
102
RTVSPropertyOp48
 70
     1
102
RTVSPropertyOp49
 70
     1
102
RTVSPropertyOp50
 70
     1
102
RTVSPropertyOp51
 70
     0
102
RTVSPropertyOp52
 70
     0
102
RTVSPropertyOp53
 70
     1
102
RTVSPropertyOp54
 70
     1
102
RTVSPropertyOp55
 70
     1
102
RTVSPropertyOp56
 70
     1
102
RTVSPropertyOp57
 70
     1
102
RTVSPost2010Prop28
280
     0
102
RTVSPost2010PropOp28
 70
     1
102
RTVSPost2010Prop29
280
     1
102
RTVSPost2010PropOp29
 70
     1
102
RTVSPost2010Prop30
280
     1
102
RTVSPost2010PropOp30
 70
     1
102
RTVSPost2010Prop31
280
     0
102
RTVSPost2010PropOp31
 70
     1
102
RTVSPost2010Prop32
280
     0
102
RTVSPost2010PropOp32
 70
     1
102
RTVSPost2010Prop33
280
     0
102
RTVSPost2010PropOp33
 70
     1
102
RTVSPost2010Prop34
280
     0
102
RTVSPost2010PropOp34
 70
     1
102
RTVSPost2010Prop35
280
     0
102
RTVSPost2010PropOp35
 70
     1
102
RTVSPost2010Prop36
280
     0
102
RTVSPost2010PropOp36
 70
     1
102
RTVSPost2010Prop37
 90
       50
102
RTVSPost2010PropOp37
 70
     1
102
RTVSPost2010Prop38
140
0.0
102
RTVSPost2010PropOp38
 70
     1
102
RTVSPost2010Prop39
140
1.0
102
RTVSPost2010PropOp39
 70
     1
102
RTVSPost2010Prop40
 90
        0
102
RTVSPost2010PropOp40
 70
     1
102
RTVSPost2010Prop41ColorIndex
 90
      178
102
RTVSPost2010Prop41ColorRGB
 90
        0
102
RTVSPost2010PropOp41
 70
     1
102
RTVSPost2010Prop42
 90
       50
102
RTVSPost2010PropOp42
 70
     1
102
RTVSPost2010Prop43
 90
        3
102
RTVSPost2010PropOp43
 70
     1
102
RTVSPost2010Prop44ColorIndex
 90
        5
102
RTVSPost2010Prop44ColorRGB
 90
      255
102
RTVSPost2010PropOp44
 70
     1
102
RTVSPost2010Prop45
280
     0
102
RTVSPost2010PropOp45
 70
     1
102
RTVSPost2010Prop46
 90
       50
102
RTVSPost2010PropOp46
 70
     1
102
RTVSPost2010Prop47
 90
       50
102
RTVSPost2010PropOp47
 70
     1
102
RTVSPost2010Prop48
 90
       50
102
RTVSPost2010PropOp48
 70
     1
102
RTVSPost2010Prop49
280
     0
102
RTVSPost2010PropOp49
 70
     1
102
RTVSPost2010Prop50
 90
       50
102
RTVSPost2010PropOp50
 70
     1
102
RTVSPost2010Prop51ColorIndex
 90
      256
102
RTVSPost2010Prop51ColorRGB
 90
-16777216
102
RTVSPost2010PropOp51
 70
     0
102
RTVSPost2010Prop52
140
1.0
102
RTVSPost2010PropOp52
 70
     0
102
RTVSPost2010Prop53
 90
        2
102
RTVSPost2010PropOp53
 70
     1
102
RTVSPost2010Prop54
  1
strokes_ogs.tif
102
RTVSPost2010PropOp54
 70
     1
102
RTVSPost2010Prop55
280
     0
102
RTVSPost2010PropOp55
 70
     1
102
RTVSPost2010Prop56
140
1.0
102
RTVSPost2010PropOp56
 70
     1
102
RTVSPost2010Prop57
140
1.0
102
RTVSPost2010PropOp57
 70
     1
  0
XRECORD
  5
2F8
102
{ACAD_REACTORS
330
2F7
102
}
330
2F7
100
AcDbXrecord
280
     1
102
RTVSPropertyOp0
 70
     1
102
RTVSPropertyOp1
 70
     1
102
RTVSPropertyOp2
 70
     1
102
RTVSPropertyOp3
 70
     1
102
RTVSPropertyOp4
 70
     1
102
RTVSPropertyOp5
 70
     1
102
RTVSPropertyOp6
 70
     1
102
RTVSPropertyOp7
 70
     1
102
RTVSPropertyOp8
 70
     1
102
RTVSPropertyOp9
 70
     1
102
RTVSPropertyOp10
 70
     1
102
RTVSPropertyOp11
 70
     1
102
RTVSPropertyOp12
 70
     1
102
RTVSPropertyOp13
 70
     1
102
RTVSPropertyOp14
 70
     1
102
RTVSPropertyOp15
 70
     1
102
RTVSPropertyOp16
 70
     1
102
RTVSPropertyOp17
 70
     1
102
RTVSPropertyOp18
 70
     1
102
RTVSPropertyOp19
 70
     1
102
RTVSPropertyOp20
 70
     1
102
RTVSPropertyOp21
 70
     1
102
RTVSPropertyOp22
 70
     1
102
RTVSPropertyOp23
 70
     1
102
RTVSPropertyOp24
 70
     1
102
RTVSPropertyOp25
 70
     1
102
RTVSPropertyOp26
 70
     1
102
RTVSPropertyOp27
 70
     1
102
RTVSPropertyOp28
 70
     1
102
RTVSPropertyOp29
 70
     1
102
RTVSPropertyOp30
 70
     1
102
RTVSPropertyOp31
 70
     1
102
RTVSPropertyOp32
 70
     1
102
RTVSPropertyOp33
 70
     1
102
RTVSPropertyOp34
 70
     1
102
RTVSPropertyOp35
 70
     1
102
RTVSPropertyOp36
 70
     1
102
RTVSPropertyOp37
 70
     1
102
RTVSPropertyOp38
 70
     1
102
RTVSPropertyOp39
 70
     1
102
RTVSPropertyOp40
 70
     1
102
RTVSPropertyOp41
 70
     1
102
RTVSPropertyOp42
 70
     1
102
RTVSPropertyOp43
 70
     1
102
RTVSPropertyOp44
 70
     1
102
RTVSPropertyOp45
 70
     1
102
RTVSPropertyOp46
 70
     1
102
RTVSPropertyOp47
 70
     1
102
RTVSPropertyOp48
 70
     1
102
RTVSPropertyOp49
 70
     1
102
RTVSPropertyOp50
 70
     1
102
RTVSPropertyOp51
 70
     0
102
RTVSPropertyOp52
 70
     0
102
RTVSPropertyOp53
 70
     1
102
RTVSPropertyOp54
 70
     1
102
RTVSPropertyOp55
 70
     1
102
RTVSPropertyOp56
 70
     1
102
RTVSPropertyOp57
 70
     1
102
RTVSPost2010Prop28
280
     0
102
RTVSPost2010PropOp28
 70
     1
102
RTVSPost2010Prop29
280
     1
102
RTVSPost2010PropOp29
 70
     1
102
RTVSPost2010Prop30
280
     1
102
RTVSPost2010PropOp30
 70
     1
102
RTVSPost2010Prop31
280
     0
102
RTVSPost2010PropOp31
 70
     1
102
RTVSPost2010Prop32
280
     0
102
RTVSPost2010PropOp32
 70
     1
102
RTVSPost2010Prop33
280
     0
102
RTVSPost2010PropOp33
 70
     1
102
RTVSPost2010Prop34
280
     0
102
RTVSPost2010PropOp34
 70
     1
102
RTVSPost2010Prop35
280
     0
102
RTVSPost2010PropOp35
 70
     1
102
RTVSPost2010Prop36
280
     0
102
RTVSPost2010PropOp36
 70
     1
102
RTVSPost2010Prop37
 90
       50
102
RTVSPost2010PropOp37
 70
     1
102
RTVSPost2010Prop38
140
0.0
102
RTVSPost2010PropOp38
 70
     1
102
RTVSPost2010Prop39
140
1.0
102
RTVSPost2010PropOp39
 70
     1
102
RTVSPost2010Prop40
 90
        0
102
RTVSPost2010PropOp40
 70
     1
102
RTVSPost2010Prop41ColorIndex
 90
      178
102
RTVSPost2010Prop41ColorRGB
 90
        0
102
RTVSPost2010PropOp41
 70
     1
102
RTVSPost2010Prop42
 90
       50
102
RTVSPost2010PropOp42
 70
     1
102
RTVSPost2010Prop43
 90
        3
102
RTVSPost2010PropOp43
 70
     1
102
RTVSPost2010Prop44ColorIndex
 90
        5
102
RTVSPost2010Prop44ColorRGB
 90
      255
102
RTVSPost2010PropOp44
 70
     1
102
RTVSPost2010Prop45
280
     0
102
RTVSPost2010PropOp45
 70
     1
102
RTVSPost2010Prop46
 90
       50
102
RTVSPost2010PropOp46
 70
     1
102
RTVSPost2010Prop47
 90
       50
102
RTVSPost2010PropOp47
 70
     1
102
RTVSPost2010Prop48
 90
       50
102
RTVSPost2010PropOp48
 70
     1
102
RTVSPost2010Prop49
280
     0
102
RTVSPost2010PropOp49
 70
     1
102
RTVSPost2010Prop50
 90
       50
102
RTVSPost2010PropOp50
 70
     1
102
RTVSPost2010Prop51ColorIndex
 90
      256
102
RTVSPost2010Prop51ColorRGB
 90
-16777216
102
RTVSPost2010PropOp51
 70
     0
102
RTVSPost2010Prop52
140
1.0
102
RTVSPost2010PropOp52
 70
     0
102
RTVSPost2010Prop53
 90
        2
102
RTVSPost2010PropOp53
 70
     1
102
RTVSPost2010Prop54
  1
strokes_ogs.tif
102
RTVSPost2010PropOp54
 70
     1
102
RTVSPost2010Prop55
280
     0
102
RTVSPost2010PropOp55
 70
     1
102
RTVSPost2010Prop56
140
1.0
102
RTVSPost2010PropOp56
 70
     1
102
RTVSPost2010Prop57
140
1.0
102
RTVSPost2010PropOp57
 70
     1
  0
XRECORD
  5
318
102
{ACAD_REACTORS
330
317
102
}
330
317
100
AcDbXrecord
280
     1
102
RTVSPropertyOp0
 70
     1
102
RTVSPropertyOp1
 70
     1
102
RTVSPropertyOp2
 70
     1
102
RTVSPropertyOp3
 70
     1
102
RTVSPropertyOp4
 70
     1
102
RTVSPropertyOp5
 70
     1
102
RTVSPropertyOp6
 70
     1
102
RTVSPropertyOp7
 70
     1
102
RTVSPropertyOp8
 70
     1
102
RTVSPropertyOp9
 70
     1
102
RTVSPropertyOp10
 70
     1
102
RTVSPropertyOp11
 70
     1
102
RTVSPropertyOp12
 70
     1
102
RTVSPropertyOp13
 70
     1
102
RTVSPropertyOp14
 70
     1
102
RTVSPropertyOp15
 70
     1
102
RTVSPropertyOp16
 70
     1
102
RTVSPropertyOp17
 70
     1
102
RTVSPropertyOp18
 70
     1
102
RTVSPropertyOp19
 70
     1
102
RTVSPropertyOp20
 70
     1
102
RTVSPropertyOp21
 70
     1
102
RTVSPropertyOp22
 70
     1
102
RTVSPropertyOp23
 70
     1
102
RTVSPropertyOp24
 70
     1
102
RTVSPropertyOp25
 70
     1
102
RTVSPropertyOp26
 70
     1
102
RTVSPropertyOp27
 70
     1
102
RTVSPropertyOp28
 70
     1
102
RTVSPropertyOp29
 70
     1
102
RTVSPropertyOp30
 70
     1
102
RTVSPropertyOp31
 70
     1
102
RTVSPropertyOp32
 70
     1
102
RTVSPropertyOp33
 70
     1
102
RTVSPropertyOp34
 70
     1
102
RTVSPropertyOp35
 70
     1
102
RTVSPropertyOp36
 70
     1
102
RTVSPropertyOp37
 70
     1
102
RTVSPropertyOp38
 70
     1
102
RTVSPropertyOp39
 70
     1
102
RTVSPropertyOp40
 70
     1
102
RTVSPropertyOp41
 70
     1
102
RTVSPropertyOp42
 70
     1
102
RTVSPropertyOp43
 70
     1
102
RTVSPropertyOp44
 70
     1
102
RTVSPropertyOp45
 70
     1
102
RTVSPropertyOp46
 70
     1
102
RTVSPropertyOp47
 70
     1
102
RTVSPropertyOp48
 70
     1
102
RTVSPropertyOp49
 70
     1
102
RTVSPropertyOp50
 70
     1
102
RTVSPropertyOp51
 70
     0
102
RTVSPropertyOp52
 70
     0
102
RTVSPropertyOp53
 70
     1
102
RTVSPropertyOp54
 70
     1
102
RTVSPropertyOp55
 70
     1
102
RTVSPropertyOp56
 70
     1
102
RTVSPropertyOp57
 70
     1
102
RTVSPost2010Prop28
280
     0
102
RTVSPost2010PropOp28
 70
     1
102
RTVSPost2010Prop29
280
     1
102
RTVSPost2010PropOp29
 70
     1
102
RTVSPost2010Prop30
280
     1
102
RTVSPost2010PropOp30
 70
     1
102
RTVSPost2010Prop31
280
     0
102
RTVSPost2010PropOp31
 70
     1
102
RTVSPost2010Prop32
280
     0
102
RTVSPost2010PropOp32
 70
     1
102
RTVSPost2010Prop33
280
     0
102
RTVSPost2010PropOp33
 70
     1
102
RTVSPost2010Prop34
280
     0
102
RTVSPost2010PropOp34
 70
     1
102
RTVSPost2010Prop35
280
     0
102
RTVSPost2010PropOp35
 70
     1
102
RTVSPost2010Prop36
280
     0
102
RTVSPost2010PropOp36
 70
     1
102
RTVSPost2010Prop37
 90
       50
102
RTVSPost2010PropOp37
 70
     1
102
RTVSPost2010Prop38
140
0.0
102
RTVSPost2010PropOp38
 70
     1
102
RTVSPost2010Prop39
140
1.0
102
RTVSPost2010PropOp39
 70
     1
102
RTVSPost2010Prop40
 90
        0
102
RTVSPost2010PropOp40
 70
     1
102
RTVSPost2010Prop41ColorIndex
 90
      178
102
RTVSPost2010Prop41ColorRGB
 90
        0
102
RTVSPost2010PropOp41
 70
     1
102
RTVSPost2010Prop42
 90
       50
102
RTVSPost2010PropOp42
 70
     1
102
RTVSPost2010Prop43
 90
        3
102
RTVSPost2010PropOp43
 70
     1
102
RTVSPost2010Prop44ColorIndex
 90
        5
102
RTVSPost2010Prop44ColorRGB
 90
      255
102
RTVSPost2010PropOp44
 70
     1
102
RTVSPost2010Prop45
280
     0
102
RTVSPost2010PropOp45
 70
     1
102
RTVSPost2010Prop46
 90
       50
102
RTVSPost2010PropOp46
 70
     1
102
RTVSPost2010Prop47
 90
       50
102
RTVSPost2010PropOp47
 70
     1
102
RTVSPost2010Prop48
 90
       50
102
RTVSPost2010PropOp48
 70
     1
102
RTVSPost2010Prop49
280
     0
102
RTVSPost2010PropOp49
 70
     1
102
RTVSPost2010Prop50
 90
       50
102
RTVSPost2010PropOp50
 70
     1
102
RTVSPost2010Prop51ColorIndex
 90
      256
102
RTVSPost2010Prop51ColorRGB
 90
-16777216
102
RTVSPost2010PropOp51
 70
     0
102
RTVSPost2010Prop52
140
1.0
102
RTVSPost2010PropOp52
 70
     0
102
RTVSPost2010Prop53
 90
        2
102
RTVSPost2010PropOp53
 70
     1
102
RTVSPost2010Prop54
  1
strokes_ogs.tif
102
RTVSPost2010PropOp54
 70
     1
102
RTVSPost2010Prop55
280
     0
102
RTVSPost2010PropOp55
 70
     1
102
RTVSPost2010Prop56
140
1.0
102
RTVSPost2010PropOp56
 70
     1
102
RTVSPost2010Prop57
140
1.0
102
RTVSPost2010PropOp57
 70
     1
  0
ENDSEC
  0
EOF
