  0
SECTION
  2
HEADER
  9
$ACADVER
  1
AC1015
  9
$ACADMAINTVER
 70
     6
  9
$DWGCODEPAGE
  3
ANSI_1252
  9
$INSBASE
 10
0.0
 20
0.0
 30
0.0
  9
$EXTMIN
 10
1.000000000000000E+20
 20
1.000000000000000E+20
 30
1.000000000000000E+20
  9
$EXTMAX
 10
-1.000000000000000E+20
 20
-1.000000000000000E+20
 30
-1.000000000000000E+20
  9
$LIMMIN
 10
0.0
 20
0.0
  9
$LIMMAX
 10
12.0
 20
9.0
  9
$ORTHOMODE
 70
     0
  9
$REGENMODE
 70
     1
  9
$FILLMODE
 70
     1
  9
$QTEXTMODE
 70
     0
  9
$MIRRTEXT
 70
     1
  9
$LTSCALE
 40
1.0
  9
$ATTMODE
 70
     1
  9
$TEXTSIZE
 40
0.2
  9
$TRACEWID
 40
0.05
  9
$TEXTSTYLE
  7
Standard
  9
$CLAYER
  8
0
  9
$CELTYPE
  6
ByLayer
  9
$CECOLOR
 62
   256
  9
$CELTSCALE
 40
1.0
  9
$DISPSILH
 70
     0
  9
$DIMSCALE
 40
1.0
  9
$DIMASZ
 40
0.18
  9
$DIMEXO
 40
0.0625
  9
$DIMDLI
 40
0.38
  9
$DIMRND
 40
0.0
  9
$DIMDLE
 40
0.0
  9
$DIMEXE
 40
0.18
  9
$DIMTP
 40
0.0
  9
$DIMTM
 40
0.0
  9
$DIMTXT
 40
0.18
  9
$DIMCEN
 40
0.09
  9
$DIMTSZ
 40
0.0
  9
$DIMTOL
 70
     0
  9
$DIMLIM
 70
     0
  9
$DIMTIH
 70
     1
  9
$DIMTOH
 70
     1
  9
$DIMSE1
 70
     0
  9
$DIMSE2
 70
     0
  9
$DIMTAD
 70
     0
  9
$DIMZIN
 70
     0
  9
$DIMBLK
  1

  9
$DIMASO
 70
     1
  9
$DIMSHO
 70
     1
  9
$DIMPOST
  1

  9
$DIMAPOST
  1

  9
$DIMALT
 70
     0
  9
$DIMALTD
 70
     2
  9
$DIMALTF
 40
25.4
  9
$DIMLFAC
 40
1.0
  9
$DIMTOFL
 70
     0
  9
$DIMTVP
 40
0.0
  9
$DIMTIX
 70
     0
  9
$DIMSOXD
 70
     0
  9
$DIMSAH
 70
     0
  9
$DIMBLK1
  1

  9
$DIMBLK2
  1

  9
$DIMSTYLE
  2
Standard
  9
$DIMCLRD
 70
     0
  9
$DIMCLRE
 70
     0
  9
$DIMCLRT
 70
     0
  9
$DIMTFAC
 40
1.0
  9
$DIMGAP
 40
0.09
  9
$DIMJUST
 70
     0
  9
$DIMSD1
 70
     0
  9
$DIMSD2
 70
     0
  9
$DIMTOLJ
 70
     1
  9
$DIMTZIN
 70
     0
  9
$DIMALTZ
 70
     0
  9
$DIMALTTZ
 70
     0
  9
$DIMUPT
 70
     0
  9
$DIMDEC
 70
     4
  9
$DIMTDEC
 70
     4
  9
$DIMALTU
 70
     2
  9
$DIMALTTD
 70
     2
  9
$DIMTXSTY
  7
Standard
  9
$DIMAUNIT
 70
     0
  9
$DIMADEC
 70
     0
  9
$DIMALTRND
 40
0.0
  9
$DIMAZIN
 70
     0
  9
$DIMDSEP
 70
    46
  9
$DIMATFIT
 70
     3
  9
$DIMFRAC
 70
     0
  9
$DIMLDRBLK
  1

  9
$DIMLUNIT
 70
     2
  9
$DIMLWD
 70
    -2
  9
$DIMLWE
 70
    -2
  9
$DIMTMOVE
 70
     0
  9
$LUNITS
 70
     2
  9
$LUPREC
 70
     4
  9
$SKETCHINC
 40
0.1
  9
$FILLETRAD
 40
0.5
  9
$AUNITS
 70
     0
  9
$AUPREC
 70
     0
  9
$MENU
  1
.
  9
$ELEVATION
 40
0.0
  9
$PELEVATION
 40
0.0
  9
$THICKNESS
 40
0.0
  9
$LIMCHECK
 70
     0
  9
$CHAMFERA
 40
0.0
  9
$CHAMFERB
 40
0.0
  9
$CHAMFERC
 40
0.0
  9
$CHAMFERD
 40
0.0
  9
$SKPOLY
 70
     0
  9
$TDCREATE
 40
2459275.435728739
  9
$TDUCREATE
 40
2459275.394062072
  9
$TDUPDATE
 40
2459275.435729514
  9
$TDUUPDATE
 40
2459275.394062847
  9
$TDINDWG
 40
0.0000000116
  9
$TDUSRTIMER
 40
0.0000000116
  9
$USRTIMER
 70
     1
  9
$ANGBASE
 50
0.0
  9
$ANGDIR
 70
     0
  9
$PDMODE
 70
     0
  9
$PDSIZE
 40
0.0
  9
$PLINEWID
 40
0.0
  9
$SPLFRAME
 70
     0
  9
$SPLINETYPE
 70
     6
  9
$SPLINESEGS
 70
     8
  9
$HANDSEED
  5
3EE
  9
$SURFTAB1
 70
     6
  9
$SURFTAB2
 70
     6
  9
$SURFTYPE
 70
     6
  9
$SURFU
 70
     6
  9
$SURFV
 70
     6
  9
$UCSBASE
  2

  9
$UCSNAME
  2

  9
$UCSORG
 10
0.0
 20
0.0
 30
0.0
  9
$UCSXDIR
 10
1.0
 20
0.0
 30
0.0
  9
$UCSYDIR
 10
0.0
 20
1.0
 30
0.0
  9
$UCSORTHOREF
  2

  9
$UCSORTHOVIEW
 70
     0
  9
$UCSORGTOP
 10
0.0
 20
0.0
 30
0.0
  9
$UCSORGBOTTOM
 10
0.0
 20
0.0
 30
0.0
  9
$UCSORGLEFT
 10
0.0
 20
0.0
 30
0.0
  9
$UCSORGRIGHT
 10
0.0
 20
0.0
 30
0.0
  9
$UCSORGFRONT
 10
0.0
 20
0.0
 30
0.0
  9
$UCSORGBACK
 10
0.0
 20
0.0
 30
0.0
  9
$PUCSBASE
  2

  9
$PUCSNAME
  2

  9
$PUCSORG
 10
0.0
 20
0.0
 30
0.0
  9
$PUCSXDIR
 10
1.0
 20
0.0
 30
0.0
  9
$PUCSYDIR
 10
0.0
 20
1.0
 30
0.0
  9
$PUCSORTHOREF
  2

  9
$PUCSORTHOVIEW
 70
     0
  9
$PUCSORGTOP
 10
0.0
 20
0.0
 30
0.0
  9
$PUCSORGBOTTOM
 10
0.0
 20
0.0
 30
0.0
  9
$PUCSORGLEFT
 10
0.0
 20
0.0
 30
0.0
  9
$PUCSORGRIGHT
 10
0.0
 20
0.0
 30
0.0
  9
$PUCSORGFRONT
 10
0.0
 20
0.0
 30
0.0
  9
$PUCSORGBACK
 10
0.0
 20
0.0
 30
0.0
  9
$USERI1
 70
     0
  9
$USERI2
 70
     0
  9
$USERI3
 70
     0
  9
$USERI4
 70
     0
  9
$USERI5
 70
     0
  9
$USERR1
 40
0.0
  9
$USERR2
 40
0.0
  9
$USERR3
 40
0.0
  9
$USERR4
 40
0.0
  9
$USERR5
 40
0.0
  9
$WORLDVIEW
 70
     1
  9
$SHADEDGE
 70
     3
  9
$SHADEDIF
 70
    70
  9
$TILEMODE
 70
     0
  9
$MAXACTVP
 70
    64
  9
$PINSBASE
 10
0.0
 20
0.0
 30
0.0
  9
$PLIMCHECK
 70
     0
  9
$PEXTMIN
 10
1.000000000000000E+20
 20
1.000000000000000E+20
 30
1.000000000000000E+20
  9
$PEXTMAX
 10
-1.000000000000000E+20
 20
-1.000000000000000E+20
 30
-1.000000000000000E+20
  9
$PLIMMIN
 10
0.0
 20
0.0
  9
$PLIMMAX
 10
12.0
 20
9.0
  9
$UNITMODE
 70
     0
  9
$VISRETAIN
 70
     1
  9
$PLINEGEN
 70
     0
  9
$PSLTSCALE
 70
     0
  9
$TREEDEPTH
 70
  3020
  9
$CMLSTYLE
  2
Standard
  9
$CMLJUST
 70
     0
  9
$CMLSCALE
 40
1.0
  9
$PROXYGRAPHICS
 70
     1
  9
$MEASUREMENT
 70
     0
  9
$CELWEIGHT
370
    -1
  9
$ENDCAPS
280
     0
  9
$JOINSTYLE
280
     0
  9
$LWDISPLAY
290
     1
  9
$INSUNITS
 70
     6
  9
$HYPERLINKBASE
  1

  9
$STYLESHEET
  1

  9
$XEDIT
290
     1
  9
$CEPSNTYPE
380
     0
  9
$PSTYLEMODE
290
     1
  9
$FINGERPRINTGUID
  2
{d6b5d3a9-7cc8-a14e-946f-e7e6620ce282}
  9
$VERSIONGUID
  2
{FAEB1C32-E019-11D5-929B-00C0DF256EC4}
  9
$EXTNAMES
290
     1
  9
$PSVPSCALE
 40
0.0
  9
$OLESTARTUP
290
     0
  0
ENDSEC
  0
SECTION
  2
CLASSES
  0
CLASS
  1
ACDBDICTIONARYWDFLT
  2
AcDbDictionaryWithDefault
  3
ObjectDBX Classes
 90
        0
280
     0
281
     0
  0
CLASS
  1
VISUALSTYLE
  2
AcDbVisualStyle
  3
ObjectDBX Classes
 90
     4095
280
     0
281
     0
  0
CLASS
  1
MATERIAL
  2
AcDbMaterial
  3
ObjectDBX Classes
 90
     1153
280
     0
281
     0
  0
CLASS
  1
SCALE
  2
AcDbScale
  3
ObjectDBX Classes
 90
     1153
280
     0
281
     0
  0
CLASS
  1
TABLESTYLE
  2
AcDbTableStyle
  3
ObjectDBX Classes
 90
     4095
280
     0
281
     0
  0
CLASS
  1
MLEADERSTYLE
  2
AcDbMLeaderStyle
  3
ACDB_MLEADERSTYLE_CLASS
 90
     4095
280
     0
281
     0
  0
CLASS
  1
SUN
  2
AcDbSun
  3
SCENEOE
 90
     1153
280
     0
281
     0
  0
CLASS
  1
SPATIAL_FILTER
  2
AcDbSpatialFilter
  3
ObjectDBX Classes
 90
        0
280
     0
281
     0
  0
CLASS
  1
DICTIONARYVAR
  2
AcDbDictionaryVar
  3
ObjectDBX Classes
 90
        0
280
     0
281
     0
  0
CLASS
  1
ACDBPLACEHOLDER
  2
AcDbPlaceHolder
  3
ObjectDBX Classes
 90
        0
280
     0
281
     0
  0
CLASS
  1
LAYOUT
  2
AcDbLayout
  3
ObjectDBX Classes
 90
        0
280
     0
281
     0
  0
ENDSEC
  0
SECTION
  2
TABLES
  0
TABLE
  2
VPORT
  5
8
102
{ACAD_XDICTIONARY
360
3B0
102
}
330
0
100
AcDbSymbolTable
 70
     1
  0
VPORT
  5
29
330
8
100
AcDbSymbolTableRecord
100
AcDbViewportTableRecord
  2
*Active
 70
     0
 10
0.0
 20
0.0
 11
1.0
 21
1.0
 12
10.42990654205607
 22
4.5
 13
0.0
 23
0.0
 14
0.5
 24
0.5
 15
0.5
 25
0.5
 16
0.0
 26
0.0
 36
1.0
 17
0.0
 27
0.0
 37
0.0
 40
9.0
 41
1.972972972850329
 42
50.0
 43
0.0
 44
0.0
 50
0.0
 51
0.0
 71
     0
 72
   100
 73
     1
 74
     3
 75
     0
 76
     0
 77
     0
 78
     0
281
     0
 65
     1
110
0.0
120
0.0
130
0.0
111
1.0
121
0.0
131
0.0
112
0.0
122
1.0
132
0.0
 79
     0
146
0.0
  0
ENDTAB
  0
TABLE
  2
LTYPE
  5
5
330
0
100
AcDbSymbolTable
 70
     3
  0
LTYPE
  5
14
330
5
100
AcDbSymbolTableRecord
100
AcDbLinetypeTableRecord
  2
ByBlock
 70
     0
  3

 72
    65
 73
     0
 40
0.0
  0
LTYPE
  5
15
330
5
100
AcDbSymbolTableRecord
100
AcDbLinetypeTableRecord
  2
ByLayer
 70
     0
  3

 72
    65
 73
     0
 40
0.0
  0
LTYPE
  5
16
330
5
100
AcDbSymbolTableRecord
100
AcDbLinetypeTableRecord
  2
Continuous
 70
     0
  3
Solid line
 72
    65
 73
     0
 40
0.0
  0
LTYPE
  5
1CB
330
5
100
AcDbSymbolTableRecord
100
AcDbLinetypeTableRecord
  2
LINIE_34
 70
     0
  3
- - - - - 
 72
    65
 73
     2
 40
0.02
 49
0.0125
 74
     0
 49
-0.0075
 74
     0
  0
LTYPE
  5
203
330
5
100
AcDbSymbolTableRecord
100
AcDbLinetypeTableRecord
  2
STRICHLINIE_S4
 70
     0
  3
- - - - - 
 72
    65
 73
     2
 40
0.01
 49
0.005
 74
     0
 49
-0.005
 74
     0
  0
ENDTAB
  0
TABLE
  2
LAYER
  5
2
330
0
100
AcDbSymbolTable
 70
     6
  0
LAYER
  5
10
330
2
100
AcDbSymbolTableRecord
100
AcDbLayerTableRecord
  2
0
 70
     0
 62
     7
  6
Continuous
370
    -3
390
F
  0
LAYER
  5
70
330
2
100
AcDbSymbolTableRecord
100
AcDbLayerTableRecord
  2
FORMAT
 70
     1
 62
    -7
  6
Continuous
370
    -3
390
F
  0
LAYER
  5
78
330
2
100
AcDbSymbolTableRecord
100
AcDbLayerTableRecord
  2
A1------H2_______Schraffur_Filling_1_5
 70
     0
 62
     7
  6
Continuous
370
    -3
390
F
  0
LAYER
  5
89
330
2
100
AcDbSymbolTableRecord
100
AcDbLayerTableRecord
  2
A1E-----M5_______Rohbau
 70
     0
 62
     7
  6
Continuous
370
    -3
390
F
  0
LAYER
  5
F0
330
2
100
AcDbSymbolTableRecord
100
AcDbLayerTableRecord
  2
A1-----1H2_______Schraffur_1_5
 70
     0
 62
     7
  6
Continuous
370
    -3
390
F
  0
LAYER
  5
1DC
330
2
100
AcDbSymbolTableRecord
100
AcDbLayerTableRecord
  2
A1------T2_______Text_1_5
 70
     0
 62
     7
  6
Continuous
370
    -3
390
F
  0
ENDTAB
  0
TABLE
  2
STYLE
  5
3
330
0
100
AcDbSymbolTable
 70
     2
  0
STYLE
  5
11
330
3
100
AcDbSymbolTableRecord
100
AcDbTextStyleTableRecord
  2
Standard
 70
     0
 40
0.0
 41
1.0
 50
0.0
 71
     0
 42
0.2
  3
txt
  4

  0
STYLE
  5
340
330
3
100
AcDbSymbolTableRecord
100
AcDbTextStyleTableRecord
  2
ERSTELLTER_STIL_1
 70
     0
 40
0.0
 41
1.0
 50
0.0
 71
     0
 42
0.2
  3

  4

1001
ACAD
1000
Arial
1071
       34
  0
ENDTAB
  0
TABLE
  2
VIEW
  5
6
330
0
100
AcDbSymbolTable
 70
     0
  0
ENDTAB
  0
TABLE
  2
UCS
  5
7
330
0
100
AcDbSymbolTable
 70
     0
  0
ENDTAB
  0
TABLE
  2
APPID
  5
9
330
0
100
AcDbSymbolTable
 70
     2
  0
APPID
  5
12
330
9
100
AcDbSymbolTableRecord
100
AcDbRegAppTableRecord
  2
ACAD
 70
     0
  0
APPID
  5
3EA
330
9
100
AcDbSymbolTableRecord
100
AcDbRegAppTableRecord
  2
ACAD_MLEADERVER
 70
     0
  0
ENDTAB
  0
TABLE
  2
DIMSTYLE
  5
A
330
0
100
AcDbSymbolTable
 70
     1
100
AcDbDimStyleTable
  0
DIMSTYLE
105
27
330
A
100
AcDbSymbolTableRecord
100
AcDbDimStyleTableRecord
  2
Standard
 70
     0
178
     0
340
11
  0
ENDTAB
  0
TABLE
  2
BLOCK_RECORD
  5
1
330
0
100
AcDbSymbolTable
 70
     2
  0
BLOCK_RECORD
  5
1F
330
1
100
AcDbSymbolTableRecord
100
AcDbBlockTableRecord
  2
*Model_Space
340
22
  0
BLOCK_RECORD
  5
1B
330
1
100
AcDbSymbolTableRecord
100
AcDbBlockTableRecord
  2
*Paper_Space
340
1E
  0
BLOCK_RECORD
  5
74
330
1
100
AcDbSymbolTableRecord
100
AcDbBlockTableRecord
  2
Zeichnung_1_1
340
0
102
{BLKREFS
331
372
102
}
  0
BLOCK_RECORD
  5
376
330
1
100
AcDbSymbolTableRecord
100
AcDbBlockTableRecord
  2
02.25 23. Detail E.2_STORY_MARKER
340
0
  0
ENDTAB
  0
ENDSEC
  0
SECTION
  2
BLOCKS
  0
BLOCK
  5
20
330
1F
100
AcDbEntity
  8
0
100
AcDbBlockBegin
  2
*Model_Space
 70
     0
 10
0.0
 20
0.0
 30
0.0
  3
*Model_Space
  1

  0
ENDBLK
  5
21
330
1F
100
AcDbEntity
  8
0
100
AcDbBlockEnd
  0
BLOCK
  5
1C
330
1B
100
AcDbEntity
 67
     1
  8
0
100
AcDbBlockBegin
  2
*Paper_Space
 70
     0
 10
0.0
 20
0.0
 30
0.0
  3
*Paper_Space
  1

  0
ENDBLK
  5
1D
330
1B
100
AcDbEntity
 67
     1
  8
0
100
AcDbBlockEnd
  0
BLOCK
  5
75
330
74
100
AcDbEntity
  8
0
100
AcDbBlockBegin
  2
Zeichnung_1_1
 70
     0
 10
1693.024586529066
 20
1652.125968747971
 30
0.0
  3
Zeichnung_1_1
  1

  0
HATCH
  5
77
330
74
100
AcDbEntity
  8
A1------H2_______Schraffur_Filling_1_5
  6
Continuous
 62
   251
370
     9
100
AcDbHatch
 10
0.0
 20
0.0
 30
0.0
210
0.0
220
0.0
230
1.0
  2
SOLID
 70
     1
 71
     0
 91
        1
 92
        3
 72
     0
 73
     1
 93
       20
 10
56.61134209819441
 20
145.1224034052379
 10
58.16837971594801
 20
145.1518258248299
 10
58.16837971594801
 20
147.4017027194581
 10
56.59657495805504
 20
147.4017027194581
 10
56.6523788191442
 20
147.2750831949052
 10
56.70164511300668
 20
147.1457796481657
 10
56.74424532872302
 20
147.0141293669984
 10
56.78006834380822
 20
146.8804757606104
 10
56.80902071407856
 20
146.7451674638722
 10
56.83102691739661
 20
146.6085574279088
 10
56.84602955067341
 20
146.4710019994255
 10
56.85398947960407
 20
146.3328599911811
 10
56.8548859407465
 20
146.1944917460243
 10
56.84871659568547
 20
146.0562581969416
 10
56.83549753713235
 20
145.9185199255666
 10
56.81526324694586
 20
145.781636221602
 10
56.78806650618596
 20
145.6459641456156
 10
56.753978257438
 20
145.5118575976484
 10
56.71308741975545
 20
145.3796663940678
 10
56.66550065671694
 20
145.2497353550746
 97
        0
 75
     0
 76
     1
 98
        0
  0
HATCH
  5
79
330
74
100
AcDbEntity
  8
A1------H2_______Schraffur_Filling_1_5
  6
Continuous
 62
    51
370
    20
100
AcDbHatch
 10
0.0
 20
0.0
 30
0.0
210
0.0
220
0.0
230
1.0
  2
SOLID
 70
     1
 71
     0
 91
        1
 92
        3
 72
     0
 73
     1
 93
        4
 10
58.16837971594801
 20
147.4017027194581
 10
58.16837971594801
 20
145.1518258248299
 10
62.16837971594779
 20
145.2274114606709
 10
62.16837971594779
 20
147.4017027194581
 97
        0
 75
     0
 76
     1
 98
        0
  0
LWPOLYLINE
  5
7A
330
74
100
AcDbEntity
  8
A1------H2_______Schraffur_Filling_1_5
  6
Continuous
 62
     7
 48
1000.0
370
    13
100
AcDbPolyline
 90
        4
 70
   129
 43
0.0
 10
58.16837971594801
 20
147.4017027194581
 10
58.16837971594801
 20
145.1518258248299
 10
62.16837971594779
 20
145.2274114606709
 10
62.16837971594779
 20
147.4017027194581
  0
HATCH
  5
7B
330
74
100
AcDbEntity
  8
A1------H2_______Schraffur_Filling_1_5
  6
Continuous
 62
   251
370
     9
100
AcDbHatch
 10
0.0
 20
0.0
 30
0.0
210
0.0
220
0.0
230
1.0
  2
SOLID
 70
     1
 71
     0
 91
        1
 92
        3
 72
     0
 73
     1
 93
       15
 10
118.3760836034136
 20
173.2406661621517
 10
118.2348181116044
 20
173.0859744845563
 10
118.0856797389187
 20
172.9388582037241
 10
117.9290741432708
 20
172.79971747746
 10
117.7654272935016
 20
172.6689307699785
 10
117.5951843107335
 20
172.5468538224764
 10
117.4188082576397
 20
172.4338186855121
 10
117.2367788789088
 20
172.3301328158278
 10
117.0495912963332
 20
172.2360782400605
 10
116.8577546620724
 20
172.1519107876288
 10
116.661790773755
 20
172.0778593948742
 10
116.4622326551836
 20
172.0141254823502
 10
116.2597594862174
 20
171.9609144708847
 10
116.2596231065041
 20
171.0631321193397
 10
118.3760836034136
 20
171.0631321193397
 97
        0
 75
     0
 76
     1
 98
        0
  0
HATCH
  5
7C
330
74
100
AcDbEntity
  8
A1------H2_______Schraffur_Filling_1_5
  6
Continuous
 62
    51
370
    20
100
AcDbHatch
 10
0.0
 20
0.0
 30
0.0
210
0.0
220
0.0
230
1.0
  2
SOLID
 70
     1
 71
     0
 91
        1
 92
        3
 72
     0
 73
     1
 93
        4
 10
118.3760836034136
 20
167.5267797486466
 10
118.3760836034136
 20
171.0631321193397
 10
116.2596231065041
 20
171.0631321193397
 10
116.2596231065041
 20
167.5267797486466
 97
        0
 75
     0
 76
     1
 98
        0
  0
LWPOLYLINE
  5
7D
330
74
100
AcDbEntity
  8
A1------H2_______Schraffur_Filling_1_5
  6
Continuous
 62
     7
 48
1000.0
370
    13
100
AcDbPolyline
 90
        4
 70
   129
 43
0.0
 10
118.3760836034136
 20
167.5267797486466
 10
118.3760836034136
 20
171.0631321193397
 10
116.2596231065041
 20
171.0631321193397
 10
116.2596231065041
 20
167.5267797486466
  0
HATCH
  5
7E
330
74
100
AcDbEntity
  8
A1------H2_______Schraffur_Filling_1_5
  6
Continuous
 62
   255
370
     9
100
AcDbHatch
 10
0.0
 20
0.0
 30
0.0
210
0.0
220
0.0
230
1.0
  2
SOLID
 70
     1
 71
     0
 91
        1
 92
        3
 72
     0
 73
     1
 93
        4
 10
72.7759859471635
 20
164.0024996083282
 10
72.7759859471635
 20
147.801702719458
 10
116.8596231065042
 20
147.801702719458
 10
116.8596231065042
 20
166.5956389659271
 97
        0
 75
     0
 76
     1
 98
        0
  0
HATCH
  5
7F
330
74
100
AcDbEntity
  8
A1------H2_______Schraffur_Filling_1_5
  6
Continuous
 62
   254
370
    35
100
AcDbHatch
 10
0.0
 20
0.0
 30
0.0
210
0.0
220
0.0
230
1.0
  2
SOLID
 70
     1
 71
     0
 91
        1
 92
        3
 72
     0
 73
     1
 93
        8
 10
71.3918919268084
 20
145.4017027194581
 10
93.57608360341341
 20
145.4017027194581
 10
93.57608360341341
 20
146.201702719458
 10
96.40477714443784
 20
146.201702719458
 10
96.51116289055928
 20
146.3637327766747
 10
98.38806574380565
 20
147.4017027194581
 10
62.16837971594779
 20
147.4017027194581
 10
62.16837971594779
 20
145.2274114606709
 97
        0
 75
     0
 76
     1
 98
        0
  0
HATCH
  5
80
330
74
100
AcDbEntity
  8
A1------H2_______Schraffur_Filling_1_5
  6
Continuous
 62
   254
370
    35
100
AcDbHatch
 10
0.0
 20
0.0
 30
0.0
210
0.0
220
0.0
230
1.0
  2
SOLID
 70
     1
 71
     0
 91
        1
 92
        3
 72
     0
 73
     1
 93
        5
 10
96.51116289055928
 20
146.3637327766747
 10
96.40477714443784
 20
146.201702719458
 10
117.5760836034132
 20
146.201702719458
 10
117.5760836034132
 20
147.4017027194581
 10
98.38806574380565
 20
147.4017027194581
 97
        0
 75
     0
 76
     1
 98
        0
  0
HATCH
  5
81
330
74
100
AcDbEntity
  8
A1------H2_______Schraffur_Filling_1_5
  6
Continuous
 62
     7
370
    13
100
AcDbHatch
 10
0.0
 20
0.0
 30
0.0
210
0.0
220
0.0
230
1.0
  2
Beton_0001
 70
     0
 71
     0
 91
        1
 92
        3
 72
     0
 73
     1
 93
        4
 10
158.2942603701281
 20
98.10973269590595
 10
158.2942603701281
 20
145.4017027194581
 10
94.37608360341332
 20
145.4017027194581
 10
94.37608360341332
 20
98.10973269590595
 97
        0
 75
     0
 76
     2
 52
0.0
 41
1.0
 77
     0
 78
     2
 53
44.99999999999998
 43
1693.024586529066
 44
1652.125968747971
 45
-5.656854249492378
 46
5.656854249492382
 79
     0
 53
135.0000000000002
 43
1693.024586529066
 44
1652.125968747971
 45
5.656854249492363
 46
5.656854249492397
 79
     0
 98
        0
  0
HATCH
  5
82
330
74
100
AcDbEntity
  8
A1------H2_______Schraffur_Filling_1_5
  6
Continuous
 62
     7
370
    13
100
AcDbHatch
 10
0.0
 20
0.0
 30
0.0
210
0.0
220
0.0
230
1.0
  2
Beton_0001
 70
     0
 71
     0
 91
        1
 92
        3
 72
     0
 73
     1
 93
        4
 10
19.8101334040659
 20
140.1173715912314
 10
19.8101334040659
 20
97.7113849663922
 10
78.37608360341352
 20
97.7113849663922
 10
78.37608360341352
 20
140.1173715912314
 97
        0
 75
     0
 76
     2
 52
0.0
 41
1.0
 77
     0
 78
     2
 53
44.99999999999998
 43
1693.024586529066
 44
1652.125968747971
 45
-5.656854249492378
 46
5.656854249492382
 79
     0
 53
135.0000000000002
 43
1693.024586529066
 44
1652.125968747971
 45
5.656854249492363
 46
5.656854249492397
 79
     0
 98
        0
  0
HATCH
  5
83
330
74
100
AcDbEntity
  8
A1------H2_______Schraffur_Filling_1_5
  6
Continuous
 62
   251
370
     9
100
AcDbHatch
 10
0.0
 20
0.0
 30
0.0
210
0.0
220
0.0
230
1.0
  2
SOLID
 70
     1
 71
     0
 91
        1
 92
        3
 72
     0
 73
     1
 93
       15
 10
178.5177334499784
 20
202.289764633216
 10
178.0897420389755
 20
201.8210959688693
 10
177.6378981969791
 20
201.3753784492649
 10
177.1634309439092
 20
200.9538244306639
 10
176.6676308356023
 20
200.5575805443576
 10
176.1518464534779
 20
200.1877245778132
 10
175.6174807363875
 20
199.8452625430822
 10
175.0659871646076
 20
199.5311259404415
 10
174.4988658063567
 20
199.2461692246976
 10
173.9176592375911
 20
198.9911674810627
 10
173.323948346187
 20
198.7668143169179
 10
172.7193480319085
 20
198.5737199751887
 10
172.1059160028522
 20
198.4125068184133
 10
172.1055028138627
 20
195.6924997558913
 10
178.5177334499784
 20
195.6924997558913
 97
        0
 75
     0
 76
     1
 98
        0
  0
LWPOLYLINE
  5
84
330
74
100
AcDbEntity
  8
A1------H2_______Schraffur_Filling_1_5
  6
Continuous
 62
     7
 48
1000.0
370
    25
100
AcDbPolyline
 90
       15
 70
   129
 43
0.0
 10
178.5177334499784
 20
202.289764633216
 10
178.0897420389755
 20
201.8210959688693
 10
177.6378981969791
 20
201.3753784492649
 10
177.1634309439092
 20
200.9538244306639
 10
176.6676308356023
 20
200.5575805443576
 10
176.1518464534779
 20
200.1877245778132
 10
175.6174807363875
 20
199.8452625430822
 10
175.0659871646076
 20
199.5311259404415
 10
174.4988658063567
 20
199.2461692246976
 10
173.9176592375911
 20
198.9911674810627
 10
173.323948346187
 20
198.7668143169179
 10
172.7193480319085
 20
198.5737199751887
 10
172.1059160028522
 20
198.4125068184133
 10
172.1055028138627
 20
195.6924997558913
 10
178.5177334499784
 20
195.6924997558913
  0
HATCH
  5
85
330
74
100
AcDbEntity
  8
A1------H2_______Schraffur_Filling_1_5
  6
Continuous
 62
    51
370
    20
100
AcDbHatch
 10
0.0
 20
0.0
 30
0.0
210
0.0
220
0.0
230
1.0
  2
SOLID
 70
     1
 71
     0
 91
        1
 92
        3
 72
     0
 73
     1
 93
        4
 10
178.5177334499784
 20
184.9784292383587
 10
178.5177334499784
 20
195.6924997558913
 10
172.1055028138627
 20
195.6924997558913
 10
172.1055028138627
 20
184.9784292383587
 97
        0
 75
     0
 76
     1
 98
        0
  0
LWPOLYLINE
  5
86
330
74
100
AcDbEntity
  8
A1------H2_______Schraffur_Filling_1_5
  6
Continuous
 62
     7
 48
1000.0
370
    13
100
AcDbPolyline
 90
        4
 70
   129
 43
0.0
 10
178.5177334499784
 20
184.9784292383587
 10
178.5177334499784
 20
195.6924997558913
 10
172.1055028138627
 20
195.6924997558913
 10
172.1055028138627
 20
184.9784292383587
  0
HATCH
  5
87
330
74
100
AcDbEntity
  8
A1------H2_______Schraffur_Filling_1_5
  6
Continuous
 62
     7
370
    13
100
AcDbHatch
 10
0.0
 20
0.0
 30
0.0
210
0.0
220
0.0
230
1.0
  2
Dämmstoff__EPS_horizonta_F9
 70
     0
 71
     0
 91
        1
 92
        3
 72
     1
 73
     1
 93
        3
 10
148.2417477478291
 20
181.860754473316
 42
0.3575536421636132
 10
175.1351982159171
 20
166.9807063674999
 42
0.0
 10
175.1351982159171
 20
183.4427123414673
 42
0.0
 97
        0
 75
     0
 76
     2
 52
0.0
 41
1.0
 77
     0
 78
     1
 53
0.0
 43
161.688472981873
 44
175.0128524643975
 45
0.0
 46
4.0
 79
     0
 98
        0
  0
LINE
  5
88
330
74
100
AcDbEntity
  8
A1E-----M5_______Rohbau
  6
Continuous
 62
     7
 48
1000.0
370
    13
100
AcDbLine
 10
129.3760836034135
 20
145.4017027194581
 30
0.0
 11
129.3760836034135
 21
147.4017027194581
 31
0.0
  0
LINE
  5
8A
330
74
100
AcDbEntity
  8
A1E-----M5_______Rohbau
  6
Continuous
 62
     7
 48
1000.0
370
    13
100
AcDbLine
 10
125.1155367284134
 20
188.376019125708
 30
0.0
 11
125.1155367284134
 21
187.378362875708
 31
0.0
  0
LINE
  5
8B
330
74
100
AcDbEntity
  8
A1E-----M5_______Rohbau
  6
Continuous
 62
     7
 48
1000.0
370
    13
100
AcDbLine
 10
122.3952242284134
 20
189.118206625708
 30
0.0
 11
122.3952242284134
 21
189.5682066257081
 31
0.0
  0
LINE
  5
8C
330
74
100
AcDbEntity
  8
A1E-----M5_______Rohbau
  6
Continuous
 62
     7
 48
1000.0
370
    13
100
AcDbLine
 10
122.3952242284134
 20
189.5682066257081
 30
0.0
 11
123.7905367284136
 21
190.4924253757079
 31
0.0
  0
LINE
  5
8D
330
74
100
AcDbEntity
  8
A1E-----M5_______Rohbau
  6
Continuous
 62
     7
 48
1000.0
370
    13
100
AcDbLine
 10
123.7905367284136
 20
190.4924253757079
 30
0.0
 11
123.9483492284132
 21
190.4924253757079
 31
0.0
  0
LINE
  5
8E
330
74
100
AcDbEntity
  8
A1E-----M5_______Rohbau
  6
Continuous
 62
     7
 48
1000.0
370
    13
100
AcDbLine
 10
127.5311617284136
 20
187.378362875708
 30
0.0
 11
127.5311617284136
 21
188.376019125708
 31
0.0
  0
LINE
  5
8F
330
74
100
AcDbEntity
  8
A1E-----M5_______Rohbau
  6
Continuous
 62
     7
 48
1000.0
370
    13
100
AcDbLine
 10
124.9155367284136
 20
188.576019125708
 30
0.0
 11
127.7311617284134
 21
188.576019125708
 31
0.0
  0
LINE
  5
90
330
74
100
AcDbEntity
  8
A1E-----M5_______Rohbau
  6
Continuous
 62
     7
 48
1000.0
370
    13
100
AcDbLine
 10
124.9155367284136
 20
187.1783628757078
 30
0.0
 11
127.7311617284134
 21
187.1783628757078
 31
0.0
  0
LINE
  5
91
330
74
100
AcDbEntity
  8
A1E-----M5_______Rohbau
  6
Continuous
 62
     7
 48
1000.0
370
    13
100
AcDbLine
 10
125.1155367284134
 20
187.378362875708
 30
0.0
 11
127.5311617284136
 21
187.378362875708
 31
0.0
  0
LINE
  5
92
330
74
100
AcDbEntity
  8
A1E-----M5_______Rohbau
  6
Continuous
 62
     7
 48
1000.0
370
    13
100
AcDbLine
 10
127.5311617284136
 20
188.376019125708
 30
0.0
 11
125.1155367284134
 21
188.376019125708
 31
0.0
  0
LINE
  5
93
330
74
100
AcDbEntity
  8
A1E-----M5_______Rohbau
  6
Continuous
 62
     7
 48
1000.0
370
    13
100
AcDbLine
 10
129.8155367284135
 20
189.662347250708
 30
0.0
 11
128.8561617284134
 21
190.4924253757079
 31
0.0
  0
LINE
  5
94
330
74
100
AcDbEntity
  8
A1E-----M5_______Rohbau
  6
Continuous
 62
     7
 48
1000.0
370
    13
100
AcDbLine
 10
123.1561617284136
 20
185.8131285007078
 30
0.0
 11
123.1561617284136
 21
189.3498472507078
 31
0.0
  0
LINE
  5
95
330
74
100
AcDbEntity
  8
A1E-----M5_______Rohbau
  6
Continuous
 62
     7
 48
1000.0
370
    13
100
AcDbLine
 10
132.2233492284135
 20
185.8131285007078
 30
0.0
 11
132.2233492284135
 21
186.3795347507078
 31
0.0
  0
LINE
  5
96
330
74
100
AcDbEntity
  8
A1E-----M5_______Rohbau
  6
Continuous
 62
     7
 48
1000.0
370
    13
100
AcDbLine
 10
132.2233492284135
 20
186.3795347507078
 30
0.0
 11
132.9295992284134
 21
186.3795347507078
 31
0.0
  0
LINE
  5
97
330
74
100
AcDbEntity
  8
A1E-----M5_______Rohbau
  6
Continuous
 62
     7
 48
1000.0
370
    13
100
AcDbLine
 10
129.4905367284134
 20
189.4154722507082
 30
0.0
 11
129.4905367284134
 21
185.8131285007078
 31
0.0
  0
LINE
  5
98
330
74
100
AcDbEntity
  8
A1E-----M5_______Rohbau
  6
Continuous
 62
     7
 48
1000.0
370
    13
100
AcDbLine
 10
132.9295992284134
 20
186.3795347507078
 30
0.0
 11
132.9295992284134
 21
188.8504331882081
 31
0.0
  0
LINE
  5
99
330
74
100
AcDbEntity
  8
A1E-----M5_______Rohbau
  6
Continuous
 62
     7
 48
1000.0
370
    13
100
AcDbLine
 10
132.9295992284134
 20
188.8504331882081
 30
0.0
 11
129.4905367284134
 21
189.4154722507082
 31
0.0
  0
LINE
  5
9A
330
74
100
AcDbEntity
  8
A1E-----M5_______Rohbau
  6
Continuous
 62
     7
 48
1000.0
370
    13
100
AcDbLine
 10
133.6249117284134
 20
185.8131285007078
 30
0.0
 11
123.1561617284136
 21
185.8131285007078
 31
0.0
  0
LINE
  5
9B
330
74
100
AcDbEntity
  8
A1E-----M5_______Rohbau
  6
Continuous
 62
     7
 48
1000.0
370
    13
100
AcDbLine
 10
123.1561617284136
 20
189.3498472507078
 30
0.0
 11
120.4092867284134
 21
188.5273863132078
 31
0.0
  0
LINE
  5
9C
330
74
100
AcDbEntity
  8
A1E-----M5_______Rohbau
  6
Continuous
 62
     7
 48
1000.0
370
    13
100
AcDbLine
 10
128.8561617284134
 20
190.4924253757079
 30
0.0
 11
128.6905728319305
 21
190.4924253757079
 31
0.0
  0
LINE
  5
9D
330
74
100
AcDbEntity
  8
A1E-----M5_______Rohbau
  6
Continuous
 62
     7
 48
1000.0
370
    13
100
AcDbLine
 10
123.948355258495
 20
186.5010191257077
 30
0.0
 11
123.9483492284132
 21
185.8131285007078
 31
0.0
  0
LINE
  5
9E
330
74
100
AcDbEntity
  8
A1E-----M5_______Rohbau
  6
Continuous
 62
     7
 48
1000.0
370
    13
100
AcDbLine
 10
129.4905367284134
 20
186.5010191257077
 30
0.0
 11
128.6905367284135
 21
186.5010191257077
 31
0.0
  0
LINE
  5
9F
330
74
100
AcDbEntity
  8
A1E-----M5_______Rohbau
  6
Continuous
 62
     7
 48
1000.0
370
    13
100
AcDbLine
 10
128.6905367284135
 20
186.5010191257077
 30
0.0
 11
123.948355258495
 21
186.5010191257077
 31
0.0
  0
LINE
  5
A0
330
74
100
AcDbEntity
  8
A1E-----M5_______Rohbau
  6
Continuous
 62
     7
 48
1000.0
370
    13
100
AcDbLine
 10
122.6092867284148
 20
189.5131285007074
 30
0.0
 11
122.6092867284148
 21
189.4932066257073
 31
0.0
  0
LINE
  5
A1
330
74
100
AcDbEntity
  8
A1E-----M5_______Rohbau
  6
Continuous
 62
     7
 48
1000.0
370
    13
100
AcDbLine
 10
122.9889742284147
 20
189.6389097507072
 30
0.0
 11
122.9889742284147
 21
189.6189878757069
 31
0.0
  0
LINE
  5
A2
330
74
100
AcDbEntity
  8
A1E-----M5_______Rohbau
  6
Continuous
 62
     7
 48
1000.0
370
    13
100
AcDbLine
 10
123.4405367284146
 20
189.8869566257071
 30
0.0
 11
123.4405367284146
 21
189.8666441257069
 31
0.0
  0
LINE
  5
A3
330
74
100
AcDbEntity
  8
A1E-----M5_______Rohbau
  6
Continuous
 62
     7
 48
1000.0
370
    13
100
AcDbLine
 10
123.3827242284147
 20
188.9236753757073
 30
0.0
 11
123.3827242284147
 21
188.9033628757071
 31
0.0
  0
LINE
  5
A4
330
74
100
AcDbEntity
  8
A1E-----M5_______Rohbau
  6
Continuous
 62
     7
 48
1000.0
370
    13
100
AcDbLine
 10
123.3920992284148
 20
189.7193785007072
 30
0.0
 11
123.3920992284148
 21
189.6994566257071
 31
0.0
  0
LINE
  5
A5
330
74
100
AcDbEntity
  8
A1E-----M5_______Rohbau
  6
Continuous
 62
     7
 48
1000.0
370
    13
100
AcDbLine
 10
123.6139742284148
 20
189.4615660007073
 30
0.0
 11
123.6139742284148
 21
189.441644125707
 31
0.0
  0
LINE
  5
A6
330
74
100
AcDbEntity
  8
A1E-----M5_______Rohbau
  6
Continuous
 62
     7
 48
1000.0
370
    13
100
AcDbLine
 10
128.8170992284148
 20
189.9256285007071
 30
0.0
 11
128.8170992284148
 21
189.905706625707
 31
0.0
  0
LINE
  5
A7
330
74
100
AcDbEntity
  8
A1E-----M5_______Rohbau
  6
Continuous
 62
     7
 48
1000.0
370
    13
100
AcDbLine
 10
129.2967867284147
 20
189.9256285007071
 30
0.0
 11
129.2967867284147
 21
189.905706625707
 31
0.0
  0
LINE
  5
A8
330
74
100
AcDbEntity
  8
A1E-----M5_______Rohbau
  6
Continuous
 62
     7
 48
1000.0
370
    13
100
AcDbLine
 10
129.3842867284147
 20
189.7064878757071
 30
0.0
 11
129.3842867284147
 21
189.6865660007072
 31
0.0
  0
LINE
  5
A9
330
74
100
AcDbEntity
  8
A1E-----M5_______Rohbau
  6
Continuous
 62
     7
 48
1000.0
370
    13
100
AcDbLine
 10
129.6514742284145
 20
189.619378500707
 30
0.0
 11
129.6514742284145
 21
189.5994566257073
 31
0.0
  0
LINE
  5
AA
330
74
100
AcDbEntity
  8
A1E-----M5_______Rohbau
  6
Continuous
 62
     7
 48
1000.0
370
    13
100
AcDbLine
 10
128.9561617284147
 20
189.403362875707
 30
0.0
 11
128.9561617284147
 21
189.3834410007074
 31
0.0
  0
LINE
  5
AB
330
74
100
AcDbEntity
  8
A1E-----M5_______Rohbau
  6
Continuous
 62
     7
 48
1000.0
370
    13
100
AcDbLine
 10
129.0139742284146
 20
189.6807066257074
 30
0.0
 11
129.0139742284146
 21
189.660784750707
 31
0.0
  0
LINE
  5
AC
330
74
100
AcDbEntity
  8
A1E-----M5_______Rohbau
  6
Continuous
 62
     7
 48
1000.0
370
    13
100
AcDbLine
 10
128.8358492284147
 20
188.1244566257072
 30
0.0
 11
128.8358492284147
 21
188.1045347507071
 31
0.0
  0
LINE
  5
AD
330
74
100
AcDbEntity
  8
A1E-----M5_______Rohbau
  6
Continuous
 62
     7
 48
1000.0
370
    13
100
AcDbLine
 10
128.8983492284146
 20
186.6842222507073
 30
0.0
 11
128.8983492284146
 21
186.6643003757071
 31
0.0
  0
LINE
  5
AE
330
74
100
AcDbEntity
  8
A1E-----M5_______Rohbau
  6
Continuous
 62
     7
 48
1000.0
370
    13
100
AcDbLine
 10
129.1514742284145
 20
186.874456625707
 30
0.0
 11
129.1514742284145
 21
186.8541441257072
 31
0.0
  0
LINE
  5
AF
330
74
100
AcDbEntity
  8
A1E-----M5_______Rohbau
  6
Continuous
 62
     7
 48
1000.0
370
    13
100
AcDbLine
 10
129.1874117284149
 20
188.475628500707
 30
0.0
 11
129.1874117284149
 21
188.4557066257073
 31
0.0
  0
LINE
  5
B0
330
74
100
AcDbEntity
  8
A1E-----M5_______Rohbau
  6
Continuous
 62
     7
 48
1000.0
370
    13
100
AcDbLine
 10
129.0624117284147
 20
189.0103941257073
 30
0.0
 11
129.0624117284147
 21
188.9904722507072
 31
0.0
  0
LINE
  5
B1
330
74
100
AcDbEntity
  8
A1E-----M5_______Rohbau
  6
Continuous
 62
     7
 48
1000.0
370
    13
100
AcDbLine
 10
129.2108492284148
 20
187.3639097507072
 30
0.0
 11
129.2108492284148
 21
187.3439878757071
 31
0.0
  0
LINE
  5
B2
330
74
100
AcDbEntity
  8
A1E-----M5_______Rohbau
  6
Continuous
 62
     7
 48
1000.0
370
    13
100
AcDbLine
 10
129.0327242284146
 20
187.4705503757071
 30
0.0
 11
129.0327242284146
 21
187.450237875707
 31
0.0
  0
LINE
  5
B3
330
74
100
AcDbEntity
  8
A1E-----M5_______Rohbau
  6
Continuous
 62
     7
 48
1000.0
370
    13
100
AcDbLine
 10
129.0389742284148
 20
188.0728941257074
 30
0.0
 11
129.0389742284148
 21
188.0529722507069
 31
0.0
  0
LINE
  5
B4
330
74
100
AcDbEntity
  8
A1E-----M5_______Rohbau
  6
Continuous
 62
     7
 48
1000.0
370
    13
100
AcDbLine
 10
129.4358492284147
 20
189.7369566257072
 30
0.0
 11
129.4561617284145
 21
189.7369566257072
 31
0.0
  0
LINE
  5
B5
330
74
100
AcDbEntity
  8
A1E-----M5_______Rohbau
  6
Continuous
 62
     7
 48
1000.0
370
    13
100
AcDbLine
 10
129.4436617284149
 20
187.6568785007073
 30
0.0
 11
129.4639742284147
 21
187.6568785007073
 31
0.0
  0
LINE
  5
B6
330
74
100
AcDbEntity
  8
A1E-----M5_______Rohbau
  6
Continuous
 62
     7
 48
1000.0
370
    13
100
AcDbLine
 10
123.7202242284148
 20
190.0643003757074
 30
0.0
 11
123.7202242284148
 21
190.0439878757072
 31
0.0
  0
LINE
  5
B7
330
74
100
AcDbEntity
  8
A1E-----M5_______Rohbau
  6
Continuous
 62
     7
 48
1000.0
370
    13
100
AcDbLine
 10
123.7014742284146
 20
188.8943785007071
 30
0.0
 11
123.7014742284146
 21
188.8744566257072
 31
0.0
  0
LINE
  5
B8
330
74
100
AcDbEntity
  8
A1E-----M5_______Rohbau
  6
Continuous
 62
     7
 48
1000.0
370
    13
100
AcDbLine
 10
123.9483825391741
 20
188.5918122306662
 30
0.0
 11
123.1561617284136
 21
188.5918217277811
 31
0.0
  0
LINE
  5
B9
330
74
100
AcDbEntity
  8
A1E-----M5_______Rohbau
  6
Continuous
 62
     7
 48
1000.0
370
    13
100
AcDbLine
 10
120.4092867284134
 20
188.5273863132078
 30
0.0
 11
120.4092867284134
 21
182.1119566257081
 31
0.0
  0
LINE
  5
BA
330
74
100
AcDbEntity
  8
A1E-----M5_______Rohbau
  6
Continuous
 62
     7
 48
1000.0
370
    13
100
AcDbLine
 10
120.4092867284134
 20
182.1119566257081
 30
0.0
 11
121.2983492284134
 21
182.1119566257081
 31
0.0
  0
LINE
  5
BB
330
74
100
AcDbEntity
  8
A1E-----M5_______Rohbau
  6
Continuous
 62
     7
 48
1000.0
370
    13
100
AcDbLine
 10
121.2983492284134
 20
182.1119566257081
 30
0.0
 11
121.2983492284134
 21
179.9846128757081
 31
0.0
  0
LINE
  5
BC
330
74
100
AcDbEntity
  8
A1E-----M5_______Rohbau
  6
Continuous
 62
     7
 48
1000.0
370
    13
100
AcDbLine
 10
122.8405367284135
 20
179.9846128757081
 30
0.0
 11
123.2249117284134
 21
181.1771910007081
 31
0.0
  0
LINE
  5
BD
330
74
100
AcDbEntity
  8
A1E-----M5_______Rohbau
  6
Continuous
 62
     7
 48
1000.0
370
    13
100
AcDbLine
 10
123.2249117284134
 20
181.1771910007081
 30
0.0
 11
124.4342867284136
 21
181.1771910007081
 31
0.0
  0
LINE
  5
BE
330
74
100
AcDbEntity
  8
A1E-----M5_______Rohbau
  6
Continuous
 62
     7
 48
1000.0
370
    13
100
AcDbLine
 10
121.2983492284134
 20
179.9846128757081
 30
0.0
 11
122.8405367284135
 21
179.9846128757081
 31
0.0
  0
LINE
  5
BF
330
74
100
AcDbEntity
  8
A1E-----M5_______Rohbau
  6
Continuous
 62
     7
 48
1000.0
370
    13
100
AcDbLine
 10
124.3452242284135
 20
179.268597250708
 30
0.0
 11
124.6311617284135
 21
179.2424253757079
 31
0.0
  0
LINE
  5
C0
330
74
100
AcDbEntity
  8
A1E-----M5_______Rohbau
  6
Continuous
 62
     7
 48
1000.0
370
    13
100
AcDbLine
 10
124.9624117284136
 20
178.5127378757081
 30
0.0
 11
124.7983492284135
 21
178.431878500708
 31
0.0
  0
LINE
  5
C1
330
74
100
AcDbEntity
  8
A1E-----M5_______Rohbau
  6
Continuous
 62
     7
 48
1000.0
370
    13
100
AcDbLine
 10
124.7983492284135
 20
178.431878500708
 30
0.0
 11
124.3092867284132
 21
178.6768003757082
 31
0.0
  0
LINE
  5
C2
330
74
100
AcDbEntity
  8
A1E-----M5_______Rohbau
  6
Continuous
 62
     7
 48
1000.0
370
    13
100
AcDbLine
 10
125.0327242284133
 20
178.4416441257077
 30
0.0
 11
129.8952242284135
 21
178.4416441257077
 31
0.0
  0
LINE
  5
C3
330
74
100
AcDbEntity
  8
A1E-----M5_______Rohbau
  6
Continuous
 62
     7
 48
1000.0
370
    13
100
AcDbLine
 10
123.7545992284132
 20
175.5389097507081
 30
0.0
 11
123.7545992284132
 21
178.3880308444579
 31
0.0
  0
LINE
  5
C4
330
74
100
AcDbEntity
  8
A1E-----M5_______Rohbau
  6
Continuous
 62
     7
 48
1000.0
370
    13
100
AcDbLine
 10
123.7545992284132
 20
178.3880308444579
 30
0.0
 11
124.3452242284135
 21
179.268597250708
 31
0.0
  0
LINE
  5
C5
330
74
100
AcDbEntity
  8
A1E-----M5_______Rohbau
  6
Continuous
 62
     7
 48
1000.0
370
    13
100
AcDbLine
 10
124.6311617284135
 20
179.2424253757079
 30
0.0
 11
124.9624117284136
 21
178.5127378757081
 31
0.0
  0
LINE
  5
C6
330
74
100
AcDbEntity
  8
A1E-----M5_______Rohbau
  6
Continuous
 62
     7
 48
1000.0
370
    13
100
AcDbLine
 10
124.4342867284136
 20
181.1771910007081
 30
0.0
 11
125.0327242284133
 21
178.4416441257077
 31
0.0
  0
LINE
  5
C7
330
74
100
AcDbEntity
  8
A1E-----M5_______Rohbau
  6
Continuous
 62
     7
 48
1000.0
370
    13
100
AcDbLine
 10
129.8952242284135
 20
173.449847250708
 30
0.0
 11
130.6249117284135
 21
173.449847250708
 31
0.0
  0
LINE
  5
C8
330
74
100
AcDbEntity
  8
A1E-----M5_______Rohbau
  6
Continuous
 62
     7
 48
1000.0
370
    13
100
AcDbLine
 10
129.8952242284135
 20
178.4416441257077
 30
0.0
 11
129.8952242284135
 21
173.449847250708
 31
0.0
  0
LINE
  5
C9
330
74
100
AcDbEntity
  8
A1E-----M5_______Rohbau
  6
Continuous
 62
     7
 48
1000.0
370
    13
100
AcDbLine
 10
130.6249117284135
 20
173.449847250708
 30
0.0
 11
133.6249117284134
 21
174.5389097507077
 31
0.0
  0
LINE
  5
CA
330
74
100
AcDbEntity
  8
A1E-----M5_______Rohbau
  6
Continuous
 62
     7
 48
1000.0
370
    13
100
AcDbLine
 10
129.3760836034135
 20
147.4017027194581
 30
0.0
 11
129.3760836034135
 21
177.0842222507076
 31
0.0
  0
LINE
  5
CB
330
74
100
AcDbEntity
  8
A1E-----M5_______Rohbau
  6
Continuous
 62
     7
 48
1000.0
370
    13
100
AcDbLine
 10
124.7749117284134
 20
177.1135191257081
 30
0.0
 11
124.2108492284135
 21
177.1135191257081
 31
0.0
  0
LINE
  5
CC
330
74
100
AcDbEntity
  8
A1E-----M5_______Rohbau
  6
Continuous
 62
     7
 48
1000.0
370
    13
100
AcDbLine
 10
124.2108492284135
 20
177.1135191257081
 30
0.0
 11
124.2280367284134
 21
176.7463316257079
 31
0.0
  0
LINE
  5
CD
330
74
100
AcDbEntity
  8
A1E-----M5_______Rohbau
  6
Continuous
 62
     7
 48
1000.0
370
    13
100
AcDbLine
 10
124.2280367284134
 20
176.7463316257079
 30
0.0
 11
124.5311617284135
 21
176.7666441257081
 31
0.0
  0
LINE
  5
CE
330
74
100
AcDbEntity
  8
A1E-----M5_______Rohbau
  6
Continuous
 62
     7
 48
1000.0
370
    13
100
AcDbLine
 10
124.5311617284135
 20
176.7666441257081
 30
0.0
 11
124.9624117284136
 21
177.0842222507076
 31
0.0
  0
LINE
  5
CF
330
74
100
AcDbEntity
  8
A1E-----M5_______Rohbau
  6
Continuous
 62
     7
 48
1000.0
370
    13
100
AcDbLine
 10
124.9624117284136
 20
177.0842222507076
 30
0.0
 11
124.8608492284133
 21
176.6209410007078
 31
0.0
  0
LINE
  5
D0
330
74
100
AcDbEntity
  8
A1E-----M5_______Rohbau
  6
Continuous
 62
     7
 48
1000.0
370
    13
100
AcDbLine
 10
124.8608492284133
 20
176.6209410007078
 30
0.0
 11
124.2280367284134
 21
176.365472250708
 31
0.0
  0
LINE
  5
D1
330
74
100
AcDbEntity
  8
A1E-----M5_______Rohbau
  6
Continuous
 62
     7
 48
1000.0
370
    13
100
AcDbLine
 10
129.3760836034135
 20
177.0842222507076
 30
0.0
 11
124.9624117284136
 21
177.0842222507076
 31
0.0
  0
LINE
  5
D2
330
74
100
AcDbEntity
  8
A1E-----M5_______Rohbau
  6
Continuous
 62
     7
 48
1000.0
370
    13
100
AcDbLine
 10
133.6249117284134
 20
174.5389097507077
 30
0.0
 11
133.6249117284134
 21
185.8131285007078
 31
0.0
  0
LINE
  5
D3
330
74
100
AcDbEntity
  8
A1E-----M5_______Rohbau
  6
Continuous
 62
     7
 48
1000.0
370
    13
100
AcDbLine
 10
124.3092867284132
 20
178.6768003757082
 30
0.0
 11
124.3217867284134
 21
177.8458433444578
 31
0.0
  0
LINE
  5
D4
330
74
100
AcDbEntity
  8
A1E-----M5_______Rohbau
  6
Continuous
 62
     7
 48
1000.0
370
    13
100
AcDbLine
 10
124.3217867284134
 20
177.8458433444578
 30
0.0
 11
125.1108492284136
 21
177.411175375708
 31
0.0
  0
LINE
  5
D5
330
74
100
AcDbEntity
  8
A1E-----M5_______Rohbau
  6
Continuous
 62
     7
 48
1000.0
370
    13
100
AcDbLine
 10
125.1108492284136
 20
177.411175375708
 30
0.0
 11
124.7749117284134
 21
177.1135191257081
 31
0.0
  0
LINE
  5
D6
330
74
100
AcDbEntity
  8
A1E-----M5_______Rohbau
  6
Continuous
 62
     7
 48
1000.0
370
    13
100
AcDbLine
 10
124.2280367284134
 20
176.365472250708
 30
0.0
 11
124.2280367284134
 21
176.0475035007078
 31
0.0
  0
LINE
  5
D7
330
74
100
AcDbEntity
  8
A1E-----M5_______Rohbau
  6
Continuous
 62
     7
 48
1000.0
370
    13
100
AcDbLine
 10
124.2280367284134
 20
176.0475035007078
 30
0.0
 11
124.8920992284135
 21
176.434612875708
 31
0.0
  0
LINE
  5
D8
330
74
100
AcDbEntity
  8
A1E-----M5_______Rohbau
  6
Continuous
 62
     7
 48
1000.0
370
    13
100
AcDbLine
 10
124.8920992284135
 20
176.434612875708
 30
0.0
 11
124.8827242284132
 21
176.0494566257078
 31
0.0
  0
LINE
  5
D9
330
74
100
AcDbEntity
  8
A1E-----M5_______Rohbau
  6
Continuous
 62
     7
 48
1000.0
370
    13
100
AcDbLine
 10
124.8827242284132
 20
176.0494566257078
 30
0.0
 11
124.4842867284135
 21
175.751409750708
 31
0.0
  0
LINE
  5
DA
330
74
100
AcDbEntity
  8
A1E-----M5_______Rohbau
  6
Continuous
 62
     7
 48
1000.0
370
    13
100
AcDbLine
 10
124.4842867284135
 20
175.751409750708
 30
0.0
 11
124.0889742284135
 21
175.7049253757081
 31
0.0
  0
LINE
  5
DB
330
74
100
AcDbEntity
  8
A1E-----M5_______Rohbau
  6
Continuous
 62
     7
 48
1000.0
370
    13
100
AcDbLine
 10
124.0889742284135
 20
175.7049253757081
 30
0.0
 11
123.7545992284132
 21
175.828362875708
 31
0.0
  0
LINE
  5
DC
330
74
100
AcDbEntity
  8
A1E-----M5_______Rohbau
  6
Continuous
 62
     7
 48
1000.0
370
    13
100
AcDbLine
 10
124.9624117284136
 20
175.5389097507081
 30
0.0
 11
123.7545992284132
 21
175.5389097507081
 31
0.0
  0
LINE
  5
DD
330
74
100
AcDbEntity
  8
A1E-----M5_______Rohbau
  6
Continuous
 62
     7
 48
1000.0
370
    13
100
AcDbLine
 10
124.9624117284136
 20
177.0842222507076
 30
0.0
 11
124.9624117284136
 21
175.5389097507081
 31
0.0
  0
LINE
  5
DE
330
74
100
AcDbEntity
  8
A1E-----M5_______Rohbau
  6
Continuous
 62
     7
 48
1000.0
370
    13
100
AcDbLine
 10
118.3760836034135
 20
145.4017027194581
 30
0.0
 11
118.3760836034135
 21
147.4017027194581
 31
0.0
  0
LINE
  5
DF
330
74
100
AcDbEntity
  8
A1E-----M5_______Rohbau
  6
Continuous
 62
     7
 48
1000.0
370
    13
100
AcDbLine
 10
118.3760836034135
 20
147.4017027194581
 30
0.0
 11
129.3760836034135
 21
147.4017027194581
 31
0.0
  0
LINE
  5
E0
330
74
100
AcDbEntity
  8
A1E-----M5_______Rohbau
  6
Continuous
 62
     7
 48
1000.0
370
    13
100
AcDbLine
 10
129.8155367284135
 20
189.3620746473458
 30
0.0
 11
129.8155367284135
 21
189.662347250708
 31
0.0
  0
LINE
  5
E1
330
74
100
AcDbEntity
  8
A1E-----M5_______Rohbau
  6
Continuous
 62
     7
 48
1000.0
370
    25
100
AcDbLine
 10
115.7760836034136
 20
171.9608824069581
 30
0.0
 11
115.7860836034135
 21
171.9608824069581
 31
0.0
  0
LINE
  5
E2
330
74
100
AcDbEntity
  8
A1E-----M5_______Rohbau
  6
Continuous
 62
     7
 48
1000.0
370
    25
100
AcDbLine
 10
120.6071382909133
 20
176.0892027194579
 30
0.0
 11
120.6071382909133
 21
181.1840269382081
 31
0.0
  0
LINE
  5
E3
330
74
100
AcDbEntity
  8
A1E-----M5_______Rohbau
  6
Continuous
 62
     7
 48
1000.0
370
    25
100
AcDbLine
 10
120.6071382909133
 20
181.1840269382081
 30
0.0
 11
121.1016695409135
 21
181.4017027194579
 31
0.0
  0
LINE
  5
E4
330
74
100
AcDbEntity
  8
A1E-----M5_______Rohbau
  6
Continuous
 62
     7
 48
1000.0
370
    25
100
AcDbLine
 10
122.3545992284134
 20
178.305218344458
 30
0.0
 11
122.3545992284134
 21
174.9911558444579
 31
0.0
  0
LINE
  5
E5
330
74
100
AcDbEntity
  8
A1E-----M5_______Rohbau
  6
Continuous
 62
     7
 48
1000.0
370
    25
100
AcDbLine
 10
120.6071382909133
 20
176.8114683444579
 30
0.0
 11
123.7545992284132
 21
176.8114683444579
 31
0.0
  0
LINE
  5
E6
330
74
100
AcDbEntity
  8
A1E-----M5_______Rohbau
  6
Continuous
 62
     7
 48
1000.0
370
    13
100
AcDbLine
 10
78.37608360341352
 20
139.7173715912317
 30
0.0
 11
94.3760836034133
 21
139.7173715912317
 31
0.0
  0
LINE
  5
E7
330
74
100
AcDbEntity
  8
A1E-----M5_______Rohbau
  6
Continuous
 62
     7
 48
1000.0
370
    13
100
AcDbLine
 10
118.3760836034135
 20
147.4017027194581
 30
0.0
 11
118.3760836034135
 21
173.7927208279056
 31
0.0
  0
LINE
  5
E8
330
74
100
AcDbEntity
  8
A1E-----M5_______Rohbau
  6
Continuous
 62
     7
 48
1000.0
370
    30
100
AcDbLine
 10
72.37598594716354
 20
164.3796617751514
 30
0.0
 11
72.37598594716354
 21
147.4017027194581
 31
0.0
  0
LINE
  5
E9
330
74
100
AcDbEntity
  8
A1E-----M5_______Rohbau
  6
Continuous
 62
     7
 48
1000.0
370
    30
100
AcDbLine
 10
116.2596231065041
 20
171.9608824069581
 30
0.0
 11
112.7394629286129
 21
171.9608824069581
 31
0.0
  0
LINE
  5
EA
330
74
100
AcDbEntity
  8
A1E-----M5_______Rohbau
  6
Continuous
 62
     7
 48
1000.0
370
    30
100
AcDbLine
 10
117.2596231065044
 20
147.4017027194581
 30
0.0
 11
117.2596231065044
 21
166.9610364984115
 31
0.0
  0
LINE
  5
EB
330
74
100
AcDbEntity
  8
A1E-----M5_______Rohbau
  6
Continuous
 62
     7
 48
1000.0
370
    30
100
AcDbLine
 10
116.2596231065041
 20
166.9610364984115
 30
0.0
 11
116.2596231065041
 21
171.9608824069581
 31
0.0
  0
LINE
  5
EC
330
74
100
AcDbEntity
  8
A1E-----M5_______Rohbau
  6
Continuous
 62
     7
 48
1000.0
370
    30
100
AcDbLine
 10
116.2596231065041
 20
166.9610364984115
 30
0.0
 11
72.37598594716354
 21
164.3796617751514
 31
0.0
  0
LINE
  5
ED
330
74
100
AcDbEntity
  8
A1E-----M5_______Rohbau
  6
Continuous
 62
     7
 48
1000.0
370
    30
100
AcDbLine
 10
112.7394629286129
 20
171.9608824069581
 30
0.0
 11
112.7394629286129
 21
169.7822523297368
 31
0.0
  0
LINE
  5
EE
330
74
100
AcDbEntity
  8
A1E-----M5_______Rohbau
  6
Continuous
 62
     7
 48
1000.0
370
    25
100
AcDbLine
 10
118.3760836034135
 20
166.9610364984115
 30
0.0
 11
117.5760836034132
 21
166.9610364984115
 31
0.0
  0
LINE
  5
EF
330
74
100
AcDbEntity
  8
A1-----1H2_______Schraffur_1_5
  6
Continuous
 62
     7
 48
1000.0
370
    30
100
AcDbLine
 10
36.90346330988015
 20
142.2501337243858
 30
0.0
 11
36.91346330988044
 21
142.2501337243858
 31
0.0
  0
LINE
  5
F1
330
74
100
AcDbEntity
  8
A1-----1H2_______Schraffur_1_5
  6
Continuous
 62
     7
 48
1000.0
370
    30
100
AcDbLine
 10
39.98036613709544
 20
142.9973815538519
 30
0.0
 11
39.99036613709506
 21
142.9973815538519
 31
0.0
  0
LINE
  5
F2
330
74
100
AcDbEntity
  8
A1-----1H2_______Schraffur_1_5
  6
Continuous
 62
     7
 48
1000.0
370
    30
100
AcDbLine
 10
41.29903877732999
 20
141.8105761776405
 30
0.0
 11
41.30903877733027
 21
141.8105761776405
 31
0.0
  0
LINE
  5
F3
330
74
100
AcDbEntity
  8
A1-----1H2_______Schraffur_1_5
  6
Continuous
 62
     7
 48
1000.0
370
    30
100
AcDbLine
 10
44.02429556714883
 20
143.3490275912481
 30
0.0
 11
44.03429556714911
 21
143.3490275912481
 31
0.0
  0
LINE
  5
F4
330
74
100
AcDbEntity
  8
A1-----1H2_______Schraffur_1_5
  6
Continuous
 62
     7
 48
1000.0
370
    30
100
AcDbLine
 10
45.47483547140718
 20
141.8105761776405
 30
0.0
 11
45.48483547140747
 21
141.8105761776405
 31
0.0
  0
LINE
  5
F5
330
74
100
AcDbEntity
  8
A1-----1H2_______Schraffur_1_5
  6
Continuous
 62
     7
 48
1000.0
370
    30
100
AcDbLine
 10
47.01328688501527
 20
143.4369391005972
 30
0.0
 11
47.02328688501489
 21
143.4369391005972
 31
0.0
  0
LINE
  5
F6
330
74
100
AcDbEntity
  8
A1-----1H2_______Schraffur_1_5
  6
Continuous
 62
     7
 48
1000.0
370
    30
100
AcDbLine
 10
47.89240197850497
 20
142.4699124977582
 30
0.0
 11
47.90240197850526
 21
142.4699124977582
 31
0.0
  0
LINE
  5
F7
330
74
100
AcDbEntity
  8
A1-----1H2_______Schraffur_1_5
  6
Continuous
 62
     7
 48
1000.0
370
    30
100
AcDbLine
 10
50.30996848560277
 20
143.6567178739696
 30
0.0
 11
50.31996848560239
 21
143.6567178739696
 31
0.0
  0
LINE
  5
F8
330
74
100
AcDbEntity
  8
A1-----1H2_______Schraffur_1_5
  6
Continuous
 62
     7
 48
1000.0
370
    30
100
AcDbLine
 10
51.40886235246445
 20
142.3820009884089
 30
0.0
 11
51.41886235246474
 21
142.3820009884089
 31
0.0
  0
LINE
  5
F9
330
74
100
AcDbEntity
  8
A1-----1H2_______Schraffur_1_5
  6
Continuous
 62
     7
 48
1000.0
370
    30
100
AcDbLine
 10
54.48576517967973
 20
142.2501337243858
 30
0.0
 11
54.49576517967935
 21
142.2501337243858
 31
0.0
  0
LINE
  5
FA
330
74
100
AcDbEntity
  8
A1-----1H2_______Schraffur_1_5
  6
Continuous
 62
     7
 48
1000.0
370
    30
100
AcDbLine
 10
55.89234932926401
 20
143.5688063646203
 30
0.0
 11
55.90234932926364
 21
143.5688063646203
 31
0.0
  0
LINE
  5
FB
330
74
100
AcDbEntity
  8
A1-----1H2_______Schraffur_1_5
  6
Continuous
 62
     7
 48
1000.0
370
    30
100
AcDbLine
 10
57.21102196949857
 20
142.4699124977582
 30
0.0
 11
57.22102196949886
 21
142.4699124977582
 31
0.0
  0
LINE
  5
FC
330
74
100
AcDbEntity
  8
A1-----1H2_______Schraffur_1_5
  6
Continuous
 62
     7
 48
1000.0
370
    30
100
AcDbLine
 10
58.96925215647863
 20
141.590797404268
 30
0.0
 11
58.97925215647915
 21
141.590797404268
 31
0.0
  0
LINE
  5
FD
330
74
100
AcDbEntity
  8
A1-----1H2_______Schraffur_1_5
  6
Continuous
 62
     7
 48
1000.0
370
    30
100
AcDbLine
 10
61.82637621032128
 20
141.7226646682919
 30
0.0
 11
61.8363762103209
 21
141.7226646682919
 31
0.0
  0
LINE
  5
FE
330
74
100
AcDbEntity
  8
A1-----1H2_______Schraffur_1_5
  6
Continuous
 62
     7
 48
1000.0
370
    30
100
AcDbLine
 10
62.92527007718385
 20
143.876496647342
 30
0.0
 11
62.93527007718347
 21
143.876496647342
 31
0.0
  0
LINE
  5
FF
330
74
100
AcDbEntity
  8
A1-----1H2_______Schraffur_1_5
  6
Continuous
 62
     7
 48
1000.0
370
    30
100
AcDbLine
 10
64.9032790375359
 20
142.1622222150367
 30
0.0
 11
64.91327903753641
 21
142.1622222150367
 31
0.0
  0
LINE
  5
100
330
74
100
AcDbEntity
  8
A1-----1H2_______Schraffur_1_5
  6
Continuous
 62
     7
 48
1000.0
370
    30
100
AcDbLine
 10
65.69448262167742
 20
141.7226646682919
 30
0.0
 11
65.70448262167704
 21
141.7226646682919
 31
0.0
  0
LINE
  5
101
330
74
100
AcDbEntity
  8
A1-----1H2_______Schraffur_1_5
  6
Continuous
 62
     7
 48
1000.0
370
    30
100
AcDbLine
 10
67.98018186475142
 20
143.876496647342
 30
0.0
 11
67.99018186475104
 21
143.876496647342
 31
0.0
  0
LINE
  5
102
330
74
100
AcDbEntity
  8
A1-----1H2_______Schraffur_1_5
  6
Continuous
 62
     7
 48
1000.0
370
    30
100
AcDbLine
 10
68.6395181848689
 20
142.3820009884089
 30
0.0
 11
68.64951818486853
 21
142.3820009884089
 31
0.0
  0
LINE
  5
103
330
74
100
AcDbEntity
  8
A1-----1H2_______Schraffur_1_5
  6
Continuous
 62
     7
 48
1000.0
370
    30
100
AcDbLine
 10
72.59553610557346
 20
141.8105761776405
 30
0.0
 11
72.60553610557375
 21
141.8105761776405
 31
0.0
  0
LINE
  5
104
330
74
100
AcDbEntity
  8
A1-----1H2_______Schraffur_1_5
  6
Continuous
 62
     7
 48
1000.0
370
    30
100
AcDbLine
 10
74.35376629255353
 20
142.7776027804795
 30
0.0
 11
74.3637662925538
 21
142.7776027804795
 31
0.0
  0
LINE
  5
105
330
74
100
AcDbEntity
  8
A1-----1H2_______Schraffur_1_5
  6
Continuous
 62
     7
 48
1000.0
370
    30
100
AcDbLine
 10
74.70541232994931
 20
143.3490275912481
 30
0.0
 11
74.7154123299496
 21
143.3490275912481
 31
0.0
  0
LINE
  5
106
330
74
100
AcDbEntity
  8
A1-----1H2_______Schraffur_1_5
  6
Continuous
 62
     7
 48
1000.0
370
    30
100
AcDbLine
 10
76.90320006367423
 20
144.0962754207149
 30
0.0
 11
76.91320006367475
 21
144.0962754207149
 31
0.0
  0
LINE
  5
107
330
74
100
AcDbEntity
  8
A1-----1H2_______Schraffur_1_5
  6
Continuous
 62
     7
 48
1000.0
370
    30
100
AcDbLine
 10
72.41971308687533
 20
144.3160541940869
 30
0.0
 11
72.42971308687585
 21
144.3160541940869
 31
0.0
  0
LINE
  5
108
330
74
100
AcDbEntity
  8
A1-----1H2_______Schraffur_1_5
  6
Continuous
 62
     7
 48
1000.0
370
    30
100
AcDbLine
 10
71.18895195598984
 20
144.140231175389
 30
0.0
 11
71.19895195598946
 21
144.140231175389
 31
0.0
  0
LINE
  5
109
330
74
100
AcDbEntity
  8
A1-----1H2_______Schraffur_1_5
  6
Continuous
 62
     7
 48
1000.0
370
    30
100
AcDbLine
 10
75.8043061968119
 20
141.5028858949192
 30
0.0
 11
75.81430619681151
 21
141.5028858949192
 31
0.0
  0
LINE
  5
10A
330
74
100
AcDbEntity
  8
A1-----1H2_______Schraffur_1_5
  6
Continuous
 62
     7
 48
1000.0
370
    30
100
AcDbLine
 10
35.36501189627273
 20
141.2831071215464
 30
0.0
 11
35.37501189627235
 21
141.2831071215464
 31
0.0
  0
LINE
  5
10B
330
74
100
AcDbEntity
  8
A1-----1H2_______Schraffur_1_5
  6
Continuous
 62
     7
 48
1000.0
370
    30
100
AcDbLine
 10
35.14523312290008
 20
143.3490275912481
 30
0.0
 11
35.15523312290037
 21
143.3490275912481
 31
0.0
  0
LINE
  5
10C
330
74
100
AcDbEntity
  8
A1-----1H2_______Schraffur_1_5
  6
Continuous
 62
     7
 48
1000.0
370
    30
100
AcDbLine
 10
38.88147227023219
 20
143.9204524020168
 30
0.0
 11
38.89147227023271
 21
143.9204524020168
 31
0.0
  0
LINE
  5
10D
330
74
100
AcDbEntity
  8
A1-----1H2_______Schraffur_1_5
  6
Continuous
 62
     7
 48
1000.0
370
    30
100
AcDbLine
 10
41.8265078334239
 20
143.3490275912481
 30
0.0
 11
41.83650783342419
 21
143.3490275912481
 31
0.0
  0
LINE
  5
10E
330
74
100
AcDbEntity
  8
A1-----1H2_______Schraffur_1_5
  6
Continuous
 62
     7
 48
1000.0
370
    30
100
AcDbLine
 10
43.05726896431005
 20
142.6017797617816
 30
0.0
 11
43.06726896430968
 21
142.6017797617816
 31
0.0
  0
LINE
  5
10F
330
74
100
AcDbEntity
  8
A1-----1H2_______Schraffur_1_5
  6
Continuous
 62
     7
 48
1000.0
370
    30
100
AcDbLine
 10
48.41987103459955
 20
141.4589301402449
 30
0.0
 11
48.42987103459917
 21
141.4589301402449
 31
0.0
  0
LINE
  5
110
330
74
100
AcDbEntity
  8
A1-----1H2_______Schraffur_1_5
  6
Continuous
 62
     7
 48
1000.0
370
    30
100
AcDbLine
 10
49.87041093885792
 20
141.1512398575232
 30
0.0
 11
49.88041093885754
 21
141.1512398575232
 31
0.0
  0
LINE
  5
111
330
74
100
AcDbEntity
  8
A1-----1H2_______Schraffur_1_5
  6
Continuous
 62
     7
 48
1000.0
370
    30
100
AcDbLine
 10
49.87041093885792
 20
142.9973815538519
 30
0.0
 11
49.88041093885754
 21
142.9973815538519
 31
0.0
  0
LINE
  5
112
330
74
100
AcDbEntity
  8
A1-----1H2_______Schraffur_1_5
  6
Continuous
 62
     7
 48
1000.0
370
    30
100
AcDbLine
 10
48.55173829862247
 20
144.0083639113658
 30
0.0
 11
48.56173829862298
 21
144.0083639113658
 31
0.0
  0
LINE
  5
113
330
74
100
AcDbEntity
  8
A1-----1H2_______Schraffur_1_5
  6
Continuous
 62
     7
 48
1000.0
370
    30
100
AcDbLine
 10
52.94731376607253
 20
143.6567178739696
 30
0.0
 11
52.95731376607215
 21
143.6567178739696
 31
0.0
  0
LINE
  5
114
330
74
100
AcDbEntity
  8
A1-----1H2_______Schraffur_1_5
  6
Continuous
 62
     7
 48
1000.0
370
    30
100
AcDbLine
 10
54.7055439530526
 20
143.5688063646203
 30
0.0
 11
54.71554395305223
 21
143.5688063646203
 31
0.0
  0
LINE
  5
115
330
74
100
AcDbEntity
  8
A1-----1H2_______Schraffur_1_5
  6
Continuous
 62
     7
 48
1000.0
370
    30
100
AcDbLine
 10
55.58465904654231
 20
141.3710186308956
 30
0.0
 11
55.59465904654193
 21
141.3710186308956
 31
0.0
  0
LINE
  5
116
330
74
100
AcDbEntity
  8
A1-----1H2_______Schraffur_1_5
  6
Continuous
 62
     7
 48
1000.0
370
    30
100
AcDbLine
 10
57.78244678026723
 20
141.0633283481744
 30
0.0
 11
57.79244678026751
 21
141.0633283481744
 31
0.0
  0
LINE
  5
117
330
74
100
AcDbEntity
  8
A1-----1H2_______Schraffur_1_5
  6
Continuous
 62
     7
 48
1000.0
370
    30
100
AcDbLine
 10
60.85934960748185
 20
144.0083639113658
 30
0.0
 11
60.86934960748236
 21
144.0083639113658
 31
0.0
  0
LINE
  5
118
330
74
100
AcDbEntity
  8
A1-----1H2_______Schraffur_1_5
  6
Continuous
 62
     7
 48
1000.0
370
    30
100
AcDbLine
 10
59.10111942050244
 20
144.4479214581107
 30
0.0
 11
59.11111942050206
 21
144.4479214581107
 31
0.0
  0
LINE
  5
119
330
74
100
AcDbEntity
  8
A1-----1H2_______Schraffur_1_5
  6
Continuous
 62
     7
 48
1000.0
370
    30
100
AcDbLine
 10
39.38042503048122
 20
141.0551141165193
 30
0.0
 11
39.39042503048151
 21
141.0551141165193
 31
0.0
  0
LINE
  5
11A
330
74
100
AcDbEntity
  8
A1-----1H2_______Schraffur_1_5
  6
Continuous
 62
     7
 48
1000.0
370
    30
100
AcDbLine
 10
47.81992992798534
 20
140.9707190675445
 30
0.0
 11
47.82992992798496
 21
140.9707190675445
 31
0.0
  0
LINE
  5
11B
330
74
100
AcDbEntity
  8
A1-----1H2_______Schraffur_1_5
  6
Continuous
 62
     7
 48
1000.0
370
    30
100
AcDbLine
 10
45.65379033762596
 20
144.3465210265458
 30
0.0
 11
45.66379033762558
 21
144.3465210265458
 31
0.0
  0
LINE
  5
11C
330
74
100
AcDbEntity
  8
A1-----1H2_______Schraffur_1_5
  6
Continuous
 62
     7
 48
1000.0
370
    30
100
AcDbLine
 10
47.03224280421825
 20
144.6278378564623
 30
0.0
 11
47.04224280421787
 21
144.6278378564623
 31
0.0
  0
LINE
  5
11D
330
74
100
AcDbEntity
  8
A1-----1H2_______Schraffur_1_5
  6
Continuous
 62
     7
 48
1000.0
370
    30
100
AcDbLine
 10
57.52536056011426
 20
144.8528913203957
 30
0.0
 11
57.53536056011455
 21
144.8528913203957
 31
0.0
  0
LINE
  5
11E
330
74
100
AcDbEntity
  8
A1-----1H2_______Schraffur_1_5
  6
Continuous
 62
     7
 48
1000.0
370
    30
100
AcDbLine
 10
56.76580511933915
 20
144.5715744904788
 30
0.0
 11
56.77580511933877
 21
144.5715744904788
 31
0.0
  0
LINE
  5
11F
330
74
100
AcDbEntity
  8
A1-----1H2_______Schraffur_1_5
  6
Continuous
 62
     7
 48
1000.0
370
    30
100
AcDbLine
 10
58.14425758593145
 20
143.5307022197867
 30
0.0
 11
58.15425758593173
 21
143.5307022197867
 31
0.0
  0
LINE
  5
120
330
74
100
AcDbEntity
  8
A1-----1H2_______Schraffur_1_5
  6
Continuous
 62
     7
 48
1000.0
370
    30
100
AcDbLine
 10
75.8140314075335
 20
144.9465170778525
 30
0.0
 11
75.82403140753313
 21
144.9465170778525
 31
0.0
  0
LINE
  5
121
330
74
100
AcDbEntity
  8
A1-----1H2_______Schraffur_1_5
  6
Continuous
 62
     7
 48
1000.0
370
    30
100
AcDbLine
 10
76.88303536121688
 20
143.2586160983522
 30
0.0
 11
76.89303536121716
 21
143.2586160983522
 31
0.0
  0
LINE
  5
122
330
74
100
AcDbEntity
  8
A1-----1H2_______Schraffur_1_5
  6
Continuous
 62
     7
 48
1000.0
370
    30
100
AcDbLine
 10
77.36127397207548
 20
141.5707151188512
 30
0.0
 11
77.3712739720751
 21
141.5707151188512
 31
0.0
  0
LINE
  5
123
330
74
100
AcDbEntity
  8
A1-----1H2_______Schraffur_1_5
  6
Continuous
 62
     7
 48
1000.0
370
    30
100
AcDbLine
 10
73.59162845119039
 20
141.0080814590175
 30
0.0
 11
73.60162845119066
 21
141.0080814590175
 31
0.0
  0
LINE
  5
124
330
74
100
AcDbEntity
  8
A1-----1H2_______Schraffur_1_5
  6
Continuous
 62
     7
 48
1000.0
370
    30
100
AcDbLine
 10
67.93716016986284
 20
141.1487398739757
 30
0.0
 11
67.94716016986312
 21
141.1487398739757
 31
0.0
  0
LINE
  5
125
330
74
100
AcDbEntity
  8
A1-----1H2_______Schraffur_1_5
  6
Continuous
 62
     7
 48
1000.0
370
    30
100
AcDbLine
 10
65.99607404343732
 20
143.6805913432273
 30
0.0
 11
66.00607404343694
 21
143.6805913432273
 31
0.0
  0
LINE
  5
126
330
74
100
AcDbEntity
  8
A1-----1H2_______Schraffur_1_5
  6
Continuous
 62
     7
 48
1000.0
370
    30
100
AcDbLine
 10
66.10860077540393
 20
144.7214636139194
 30
0.0
 11
66.11860077540422
 21
144.7214636139194
 31
0.0
  0
LINE
  5
127
330
74
100
AcDbEntity
  8
A1-----1H2_______Schraffur_1_5
  6
Continuous
 62
     7
 48
1000.0
370
    30
100
AcDbLine
 10
63.94246118504454
 20
144.7214636139194
 30
0.0
 11
63.95246118504416
 21
144.7214636139194
 31
0.0
  0
LINE
  5
128
330
74
100
AcDbEntity
  8
A1-----1H2_______Schraffur_1_5
  6
Continuous
 62
     7
 48
1000.0
370
    30
100
AcDbLine
 10
64.28004138094478
 20
143.6243279772436
 30
0.0
 11
64.2900413809444
 21
143.6243279772436
 31
0.0
  0
LINE
  5
129
330
74
100
AcDbEntity
  8
A1-----1H2_______Schraffur_1_5
  6
Continuous
 62
     7
 48
1000.0
370
    30
100
AcDbLine
 10
63.37982752521132
 20
141.7957685827842
 30
0.0
 11
63.38982752521094
 21
141.7957685827842
 31
0.0
  0
LINE
  5
12A
330
74
100
AcDbEntity
  8
A1-----1H2_______Schraffur_1_5
  6
Continuous
 62
     7
 48
1000.0
370
    30
100
AcDbLine
 10
63.99872455102784
 20
141.0080814590175
 30
0.0
 11
64.00872455102812
 21
141.0080814590175
 31
0.0
  0
LINE
  5
12B
330
74
100
AcDbEntity
  8
A1-----1H2_______Schraffur_1_5
  6
Continuous
 62
     7
 48
1000.0
370
    30
100
AcDbLine
 10
60.56665922604276
 20
141.0924765079926
 30
0.0
 11
60.57665922604328
 21
141.0924765079926
 31
0.0
  0
LINE
  5
12C
330
74
100
AcDbEntity
  8
A1-----1H2_______Schraffur_1_5
  6
Continuous
 62
     7
 48
1000.0
370
    30
100
AcDbLine
 10
60.56665922604276
 20
142.1896121446677
 30
0.0
 11
60.57665922604328
 21
142.1896121446677
 31
0.0
  0
LINE
  5
12D
330
74
100
AcDbEntity
  8
A1-----1H2_______Schraffur_1_5
  6
Continuous
 62
     7
 48
1000.0
370
    30
100
AcDbLine
 10
52.91484145230596
 20
141.2893982889343
 30
0.0
 11
52.92484145230625
 21
141.2893982889343
 31
0.0
  0
LINE
  5
12E
330
74
100
AcDbEntity
  8
A1-----1H2_______Schraffur_1_5
  6
Continuous
 62
     7
 48
1000.0
370
    30
100
AcDbLine
 10
20.41771332538445
 20
141.6735715847892
 30
0.0
 11
20.42771332538474
 21
141.6735715847892
 31
0.0
  0
LINE
  5
12F
330
74
100
AcDbEntity
  8
A1-----1H2_______Schraffur_1_5
  6
Continuous
 62
     7
 48
1000.0
370
    30
100
AcDbLine
 10
36.2450610495495
 20
143.6515805451419
 30
0.0
 11
36.25506104954912
 21
143.6515805451419
 31
0.0
  0
LINE
  5
130
330
74
100
AcDbEntity
  8
A1-----1H2_______Schraffur_1_5
  6
Continuous
 62
     7
 48
1000.0
370
    30
100
AcDbLine
 10
39.10218510339148
 20
142.3329079049067
 30
0.0
 11
39.11218510339177
 21
142.3329079049067
 31
0.0
  0
LINE
  5
131
330
74
100
AcDbEntity
  8
A1-----1H2_______Schraffur_1_5
  6
Continuous
 62
     7
 48
1000.0
370
    30
100
AcDbLine
 10
38.0032912365289
 20
143.1241114890482
 30
0.0
 11
38.01329123652919
 21
143.1241114890482
 31
0.0
  0
LINE
  5
132
330
74
100
AcDbEntity
  8
A1-----1H2_______Schraffur_1_5
  6
Continuous
 62
     7
 48
1000.0
370
    30
100
AcDbLine
 10
36.02528227617663
 20
142.5966424329543
 30
0.0
 11
36.03528227617625
 21
142.5966424329543
 31
0.0
  0
LINE
  5
133
330
74
100
AcDbEntity
  8
A1-----1H2_______Schraffur_1_5
  6
Continuous
 62
     7
 48
1000.0
370
    30
100
AcDbLine
 10
42.61864547735161
 20
144.2230053559099
 30
0.0
 11
42.6286454773519
 21
144.2230053559099
 31
0.0
  0
LINE
  5
134
330
74
100
AcDbEntity
  8
A1-----1H2_______Schraffur_1_5
  6
Continuous
 62
     7
 48
1000.0
370
    30
100
AcDbLine
 10
40.74528637772823
 20
144.4658169447322
 30
0.0
 11
40.75528637772852
 21
144.4658169447322
 31
0.0
  0
LINE
  5
135
330
74
100
AcDbEntity
  8
A1-----1H2_______Schraffur_1_5
  6
Continuous
 62
     7
 48
1000.0
370
    30
100
AcDbLine
 10
69.93871526096828
 20
143.164700364782
 30
0.0
 11
69.9487152609679
 21
143.164700364782
 31
0.0
  0
LINE
  5
136
330
74
100
AcDbEntity
  8
A1-----1H2_______Schraffur_1_5
  6
Continuous
 62
     7
 48
1000.0
370
    30
100
AcDbLine
 10
70.72991884510982
 20
142.7251428180369
 30
0.0
 11
70.73991884510944
 21
142.7251428180369
 31
0.0
  0
LINE
  5
137
330
74
100
AcDbEntity
  8
A1-----1H2_______Schraffur_1_5
  6
Continuous
 62
     7
 48
1000.0
370
    30
100
AcDbLine
 10
69.01689627269735
 20
144.8354972810242
 30
0.0
 11
69.02689627269697
 21
144.8354972810242
 31
0.0
  0
LINE
  5
138
330
74
100
AcDbEntity
  8
A1-----1H2_______Schraffur_1_5
  6
Continuous
 62
     7
 48
1000.0
370
    30
100
AcDbLine
 10
69.808099856838
 20
144.3959397342787
 30
0.0
 11
69.81809985683851
 21
144.3959397342787
 31
0.0
  0
LINE
  5
139
330
74
100
AcDbEntity
  8
A1-----1H2_______Schraffur_1_5
  6
Continuous
 62
     7
 48
1000.0
370
    30
100
AcDbLine
 10
67.34609935645474
 20
145.0083383413245
 30
0.0
 11
67.35609935645526
 21
145.0083383413245
 31
0.0
  0
LINE
  5
13A
330
74
100
AcDbEntity
  8
A1-----1H2_______Schraffur_1_5
  6
Continuous
 62
     7
 48
1000.0
370
    30
100
AcDbLine
 10
68.13730294059627
 20
144.5687807945795
 30
0.0
 11
68.14730294059656
 21
144.5687807945795
 31
0.0
  0
LINE
  5
13B
330
74
100
AcDbEntity
  8
A1-----1H2_______Schraffur_1_5
  6
Continuous
 62
     7
 48
1000.0
370
    30
100
AcDbLine
 10
74.60722431680323
 20
144.5836174441892
 30
0.0
 11
74.61722431680352
 21
144.5836174441892
 31
0.0
  0
LINE
  5
13C
330
74
100
AcDbEntity
  8
A1-----1H2_______Schraffur_1_5
  6
Continuous
 62
     7
 48
1000.0
370
    30
100
AcDbLine
 10
75.39842790094453
 20
144.1440598974444
 30
0.0
 11
75.40842790094415
 21
144.1440598974444
 31
0.0
  0
LINE
  5
13D
330
74
100
AcDbEntity
  8
A1-----1H2_______Schraffur_1_5
  6
Continuous
 62
     7
 48
1000.0
370
    30
100
AcDbLine
 10
72.66276238841863
 20
144.0218839982115
 30
0.0
 11
72.6727623884189
 21
144.0218839982115
 31
0.0
  0
LINE
  5
13E
330
74
100
AcDbEntity
  8
A1-----1H2_______Schraffur_1_5
  6
Continuous
 62
     7
 48
1000.0
370
    30
100
AcDbLine
 10
73.45396597255926
 20
143.5823264514666
 30
0.0
 11
73.46396597255955
 21
143.5823264514666
 31
0.0
  0
LINE
  5
13F
330
74
100
AcDbEntity
  8
A1-----1H2_______Schraffur_1_5
  6
Continuous
 62
     7
 48
1000.0
370
    30
100
AcDbLine
 10
76.69572046210592
 20
141.3572509852397
 30
0.0
 11
76.70572046210555
 21
141.3572509852397
 31
0.0
  0
LINE
  5
140
330
74
100
AcDbEntity
  8
A1-----1H2_______Schraffur_1_5
  6
Continuous
 62
     7
 48
1000.0
370
    30
100
AcDbLine
 10
56.40557531425916
 20
141.8242369229015
 30
0.0
 11
56.41557531425944
 21
141.8242369229015
 31
0.0
  0
LINE
  5
141
330
74
100
AcDbEntity
  8
A1-----1H2_______Schraffur_1_5
  6
Continuous
 62
     7
 48
1000.0
370
    30
100
AcDbLine
 10
57.1967788983998
 20
141.3846793761564
 30
0.0
 11
57.20677889840032
 21
141.3846793761564
 31
0.0
  0
LINE
  5
142
330
74
100
AcDbEntity
  8
A1-----1H2_______Schraffur_1_5
  6
Continuous
 62
     7
 48
1000.0
370
    30
100
AcDbLine
 10
53.77244978623796
 20
141.3066139558547
 30
0.0
 11
53.78244978623758
 21
141.3066139558547
 31
0.0
  0
LINE
  5
143
330
74
100
AcDbEntity
  8
A1-----1H2_______Schraffur_1_5
  6
Continuous
 62
     7
 48
1000.0
370
    30
100
AcDbLine
 10
52.13307595989769
 20
144.4679118320451
 30
0.0
 11
52.14307595989798
 21
144.4679118320451
 31
0.0
  0
LINE
  5
144
330
74
100
AcDbEntity
  8
A1-----1H2_______Schraffur_1_5
  6
Continuous
 62
     7
 48
1000.0
370
    30
100
AcDbLine
 10
54.53307595989764
 20
144.4679118320451
 30
0.0
 11
54.54307595989816
 21
144.4679118320451
 31
0.0
  0
LINE
  5
145
330
74
100
AcDbEntity
  8
A1-----1H2_______Schraffur_1_5
  6
Continuous
 62
     7
 48
1000.0
370
    30
100
AcDbLine
 10
87.90118888239195
 20
141.8105761776405
 30
0.0
 11
87.91118888239224
 21
141.8105761776405
 31
0.0
  0
LINE
  5
146
330
74
100
AcDbEntity
  8
A1-----1H2_______Schraffur_1_5
  6
Continuous
 62
     7
 48
1000.0
370
    30
100
AcDbLine
 10
89.65941906937202
 20
142.7776027804795
 30
0.0
 11
89.6694190693723
 21
142.7776027804795
 31
0.0
  0
LINE
  5
147
330
74
100
AcDbEntity
  8
A1-----1H2_______Schraffur_1_5
  6
Continuous
 62
     7
 48
1000.0
370
    30
100
AcDbLine
 10
90.01106510676804
 20
143.3490275912481
 30
0.0
 11
90.02106510676833
 21
143.3490275912481
 31
0.0
  0
LINE
  5
148
330
74
100
AcDbEntity
  8
A1-----1H2_______Schraffur_1_5
  6
Continuous
 62
     7
 48
1000.0
370
    30
100
AcDbLine
 10
92.20885284049297
 20
144.0962754207149
 30
0.0
 11
92.21885284049324
 21
144.0962754207149
 31
0.0
  0
LINE
  5
149
330
74
100
AcDbEntity
  8
A1-----1H2_______Schraffur_1_5
  6
Continuous
 62
     7
 48
1000.0
370
    30
100
AcDbLine
 10
91.10995897363038
 20
141.5028858949192
 30
0.0
 11
91.11995897363069
 21
141.5028858949192
 31
0.0
  0
LINE
  5
14A
330
74
100
AcDbEntity
  8
A1-----1H2_______Schraffur_1_5
  6
Continuous
 62
     7
 48
1000.0
370
    30
100
AcDbLine
 10
91.11968418435224
 20
144.9465170778525
 30
0.0
 11
91.12968418435186
 21
144.9465170778525
 31
0.0
  0
LINE
  5
14B
330
74
100
AcDbEntity
  8
A1-----1H2_______Schraffur_1_5
  6
Continuous
 62
     7
 48
1000.0
370
    30
100
AcDbLine
 10
92.18868813803539
 20
143.2586160983522
 30
0.0
 11
92.19868813803566
 21
143.2586160983522
 31
0.0
  0
LINE
  5
14C
330
74
100
AcDbEntity
  8
A1-----1H2_______Schraffur_1_5
  6
Continuous
 62
     7
 48
1000.0
370
    30
100
AcDbLine
 10
92.66692674889421
 20
141.5707151188512
 30
0.0
 11
92.67692674889383
 21
141.5707151188512
 31
0.0
  0
LINE
  5
14D
330
74
100
AcDbEntity
  8
A1-----1H2_______Schraffur_1_5
  6
Continuous
 62
     7
 48
1000.0
370
    30
100
AcDbLine
 10
88.89728122800888
 20
141.0080814590175
 30
0.0
 11
88.90728122800917
 21
141.0080814590175
 31
0.0
  0
LINE
  5
14E
330
74
100
AcDbEntity
  8
A1-----1H2_______Schraffur_1_5
  6
Continuous
 62
     7
 48
1000.0
370
    30
100
AcDbLine
 10
89.91287709362172
 20
144.5836174441892
 30
0.0
 11
89.922877093622
 21
144.5836174441892
 31
0.0
  0
LINE
  5
14F
330
74
100
AcDbEntity
  8
A1-----1H2_______Schraffur_1_5
  6
Continuous
 62
     7
 48
1000.0
370
    30
100
AcDbLine
 10
90.70408067776326
 20
144.1440598974444
 30
0.0
 11
90.71408067776288
 21
144.1440598974444
 31
0.0
  0
LINE
  5
150
330
74
100
AcDbEntity
  8
A1-----1H2_______Schraffur_1_5
  6
Continuous
 62
     7
 48
1000.0
370
    30
100
AcDbLine
 10
87.96841516523712
 20
144.0218839982115
 30
0.0
 11
87.97841516523674
 21
144.0218839982115
 31
0.0
  0
LINE
  5
151
330
74
100
AcDbEntity
  8
A1-----1H2_______Schraffur_1_5
  6
Continuous
 62
     7
 48
1000.0
370
    30
100
AcDbLine
 10
88.75961874937799
 20
143.5823264514666
 30
0.0
 11
88.7696187493783
 21
143.5823264514666
 31
0.0
  0
LINE
  5
152
330
74
100
AcDbEntity
  8
A1-----1H2_______Schraffur_1_5
  6
Continuous
 62
     7
 48
1000.0
370
    30
100
AcDbLine
 10
92.00137323892443
 20
141.3572509852397
 30
0.0
 11
92.01137323892405
 21
141.3572509852397
 31
0.0
  0
LINE
  5
153
330
74
100
AcDbEntity
  8
A1-----1H2_______Schraffur_1_5
  6
Continuous
 62
     7
 48
1000.0
370
    30
100
AcDbLine
 10
80.30118888239191
 20
141.8105761776405
 30
0.0
 11
80.31118888239219
 21
141.8105761776405
 31
0.0
  0
LINE
  5
154
330
74
100
AcDbEntity
  8
A1-----1H2_______Schraffur_1_5
  6
Continuous
 62
     7
 48
1000.0
370
    30
100
AcDbLine
 10
82.05941906937197
 20
142.7776027804795
 30
0.0
 11
82.06941906937226
 21
142.7776027804795
 31
0.0
  0
LINE
  5
155
330
74
100
AcDbEntity
  8
A1-----1H2_______Schraffur_1_5
  6
Continuous
 62
     7
 48
1000.0
370
    30
100
AcDbLine
 10
82.41106510676799
 20
143.3490275912481
 30
0.0
 11
82.4210651067683
 21
143.3490275912481
 31
0.0
  0
LINE
  5
156
330
74
100
AcDbEntity
  8
A1-----1H2_______Schraffur_1_5
  6
Continuous
 62
     7
 48
1000.0
370
    30
100
AcDbLine
 10
84.60885284049291
 20
144.0962754207149
 30
0.0
 11
84.61885284049319
 21
144.0962754207149
 31
0.0
  0
LINE
  5
157
330
74
100
AcDbEntity
  8
A1-----1H2_______Schraffur_1_5
  6
Continuous
 62
     7
 48
1000.0
370
    30
100
AcDbLine
 10
80.12536586369401
 20
144.3160541940869
 30
0.0
 11
80.13536586369429
 21
144.3160541940869
 31
0.0
  0
LINE
  5
158
330
74
100
AcDbEntity
  8
A1-----1H2_______Schraffur_1_5
  6
Continuous
 62
     7
 48
1000.0
370
    30
100
AcDbLine
 10
83.50995897363033
 20
141.5028858949192
 30
0.0
 11
83.51995897362995
 21
141.5028858949192
 31
0.0
  0
LINE
  5
159
330
74
100
AcDbEntity
  8
A1-----1H2_______Schraffur_1_5
  6
Continuous
 62
     7
 48
1000.0
370
    30
100
AcDbLine
 10
83.51968418435219
 20
144.9465170778525
 30
0.0
 11
83.52968418435181
 21
144.9465170778525
 31
0.0
  0
LINE
  5
15A
330
74
100
AcDbEntity
  8
A1-----1H2_______Schraffur_1_5
  6
Continuous
 62
     7
 48
1000.0
370
    30
100
AcDbLine
 10
84.58868813803531
 20
143.2586160983522
 30
0.0
 11
84.59868813803561
 21
143.2586160983522
 31
0.0
  0
LINE
  5
15B
330
74
100
AcDbEntity
  8
A1-----1H2_______Schraffur_1_5
  6
Continuous
 62
     7
 48
1000.0
370
    30
100
AcDbLine
 10
85.06692674889416
 20
141.5707151188512
 30
0.0
 11
85.07692674889378
 21
141.5707151188512
 31
0.0
  0
LINE
  5
15C
330
74
100
AcDbEntity
  8
A1-----1H2_______Schraffur_1_5
  6
Continuous
 62
     7
 48
1000.0
370
    30
100
AcDbLine
 10
81.29728122800883
 20
141.0080814590175
 30
0.0
 11
81.30728122800912
 21
141.0080814590175
 31
0.0
  0
LINE
  5
15D
330
74
100
AcDbEntity
  8
A1-----1H2_______Schraffur_1_5
  6
Continuous
 62
     7
 48
1000.0
370
    30
100
AcDbLine
 10
82.31287709362167
 20
144.5836174441892
 30
0.0
 11
82.32287709362195
 21
144.5836174441892
 31
0.0
  0
LINE
  5
15E
330
74
100
AcDbEntity
  8
A1-----1H2_______Schraffur_1_5
  6
Continuous
 62
     7
 48
1000.0
370
    30
100
AcDbLine
 10
83.1040806777632
 20
144.1440598974444
 30
0.0
 11
83.11408067776283
 21
144.1440598974444
 31
0.0
  0
LINE
  5
15F
330
74
100
AcDbEntity
  8
A1-----1H2_______Schraffur_1_5
  6
Continuous
 62
     7
 48
1000.0
370
    30
100
AcDbLine
 10
80.36841516523707
 20
144.0218839982115
 30
0.0
 11
80.37841516523736
 21
144.0218839982115
 31
0.0
  0
LINE
  5
160
330
74
100
AcDbEntity
  8
A1-----1H2_______Schraffur_1_5
  6
Continuous
 62
     7
 48
1000.0
370
    30
100
AcDbLine
 10
81.15961874937794
 20
143.5823264514666
 30
0.0
 11
81.16961874937822
 21
143.5823264514666
 31
0.0
  0
LINE
  5
161
330
74
100
AcDbEntity
  8
A1-----1H2_______Schraffur_1_5
  6
Continuous
 62
     7
 48
1000.0
370
    30
100
AcDbLine
 10
84.40137323892438
 20
141.3572509852397
 30
0.0
 11
84.411373238924
 21
141.3572509852397
 31
0.0
  0
LINE
  5
162
330
74
100
AcDbEntity
  8
A1-----1H2_______Schraffur_1_5
  6
Continuous
 62
     7
 48
1000.0
370
    30
100
AcDbLine
 10
85.5801818647508
 20
143.876496647342
 30
0.0
 11
85.59018186475109
 21
143.876496647342
 31
0.0
  0
LINE
  5
163
330
74
100
AcDbEntity
  8
A1-----1H2_______Schraffur_1_5
  6
Continuous
 62
     7
 48
1000.0
370
    30
100
AcDbLine
 10
86.23951818486853
 20
142.3820009884089
 30
0.0
 11
86.24951818486882
 21
142.3820009884089
 31
0.0
  0
LINE
  5
164
330
74
100
AcDbEntity
  8
A1-----1H2_______Schraffur_1_5
  6
Continuous
 62
     7
 48
1000.0
370
    30
100
AcDbLine
 10
85.53716016986313
 20
141.1487398739757
 30
0.0
 11
85.5471601698634
 21
141.1487398739757
 31
0.0
  0
LINE
  5
165
330
74
100
AcDbEntity
  8
A1-----1H2_______Schraffur_1_5
  6
Continuous
 62
     7
 48
1000.0
370
    30
100
AcDbLine
 10
87.53871526096857
 20
143.164700364782
 30
0.0
 11
87.5487152609682
 21
143.164700364782
 31
0.0
  0
LINE
  5
166
330
74
100
AcDbEntity
  8
A1-----1H2_______Schraffur_1_5
  6
Continuous
 62
     7
 48
1000.0
370
    30
100
AcDbLine
 10
86.61689627269764
 20
144.8354972810242
 30
0.0
 11
86.62689627269727
 21
144.8354972810242
 31
0.0
  0
LINE
  5
167
330
74
100
AcDbEntity
  8
A1-----1H2_______Schraffur_1_5
  6
Continuous
 62
     7
 48
1000.0
370
    30
100
AcDbLine
 10
87.40809985683828
 20
144.3959397342787
 30
0.0
 11
87.4180998568379
 21
144.3959397342787
 31
0.0
  0
LINE
  5
168
330
74
100
AcDbEntity
  8
A1-----1H2_______Schraffur_1_5
  6
Continuous
 62
     7
 48
1000.0
370
    30
100
AcDbLine
 10
84.94609935645502
 20
145.0083383413245
 30
0.0
 11
84.95609935645531
 21
145.0083383413245
 31
0.0
  0
LINE
  5
169
330
74
100
AcDbEntity
  8
A1-----1H2_______Schraffur_1_5
  6
Continuous
 62
     7
 48
1000.0
370
    30
100
AcDbLine
 10
85.73730294059656
 20
144.5687807945795
 30
0.0
 11
85.74730294059684
 21
144.5687807945795
 31
0.0
  0
LINE
  5
16A
330
74
100
AcDbEntity
  8
A1-----1H2_______Schraffur_1_5
  6
Continuous
 62
     7
 48
1000.0
370
    30
100
AcDbLine
 10
77.7801818647512
 20
143.876496647342
 30
0.0
 11
77.7901818647515
 21
143.876496647342
 31
0.0
  0
LINE
  5
16B
330
74
100
AcDbEntity
  8
A1-----1H2_______Schraffur_1_5
  6
Continuous
 62
     7
 48
1000.0
370
    30
100
AcDbLine
 10
78.43951818486894
 20
142.3820009884089
 30
0.0
 11
78.44951818486857
 21
142.3820009884089
 31
0.0
  0
LINE
  5
16C
330
74
100
AcDbEntity
  8
A1-----1H2_______Schraffur_1_5
  6
Continuous
 62
     7
 48
1000.0
370
    30
100
AcDbLine
 10
77.73716016986265
 20
141.1487398739757
 30
0.0
 11
77.74716016986316
 21
141.1487398739757
 31
0.0
  0
LINE
  5
16D
330
74
100
AcDbEntity
  8
A1-----1H2_______Schraffur_1_5
  6
Continuous
 62
     7
 48
1000.0
370
    30
100
AcDbLine
 10
79.73871526096809
 20
143.164700364782
 30
0.0
 11
79.74871526096771
 21
143.164700364782
 31
0.0
  0
LINE
  5
16E
330
74
100
AcDbEntity
  8
A1-----1H2_______Schraffur_1_5
  6
Continuous
 62
     7
 48
1000.0
370
    30
100
AcDbLine
 10
78.81689627269716
 20
144.8354972810242
 30
0.0
 11
78.82689627269679
 21
144.8354972810242
 31
0.0
  0
LINE
  5
16F
330
74
100
AcDbEntity
  8
A1-----1H2_______Schraffur_1_5
  6
Continuous
 62
     7
 48
1000.0
370
    30
100
AcDbLine
 10
79.60809985683804
 20
144.3959397342787
 30
0.0
 11
79.61809985683831
 21
144.3959397342787
 31
0.0
  0
LINE
  5
170
330
74
100
AcDbEntity
  8
A1-----1H2_______Schraffur_1_5
  6
Continuous
 62
     7
 48
1000.0
370
    30
100
AcDbLine
 10
77.14609935645544
 20
145.0083383413245
 30
0.0
 11
77.15609935645506
 21
145.0083383413245
 31
0.0
  0
LINE
  5
171
330
74
100
AcDbEntity
  8
A1-----1H2_______Schraffur_1_5
  6
Continuous
 62
     7
 48
1000.0
370
    30
100
AcDbLine
 10
77.93730294059608
 20
144.5687807945795
 30
0.0
 11
77.9473029405966
 21
144.5687807945795
 31
0.0
  0
LINE
  5
172
330
74
100
AcDbEntity
  8
A1-----1H2_______Schraffur_1_5
  6
Continuous
 62
     7
 48
1000.0
370
    30
100
AcDbLine
 10
92.83213192145689
 20
145.15207803325
 30
0.0
 11
92.84213192145741
 21
145.15207803325
 31
0.0
  0
LINE
  5
173
330
74
100
AcDbEntity
  8
A1-----1H2_______Schraffur_1_5
  6
Continuous
 62
     7
 48
1000.0
370
    30
100
AcDbLine
 10
88.5493979283134
 20
145.0721924930583
 30
0.0
 11
88.55939792831302
 21
145.0721924930583
 31
0.0
  0
LINE
  5
174
330
74
100
AcDbEntity
  8
A1-----1H2_______Schraffur_1_5
  6
Continuous
 62
     7
 48
1000.0
370
    30
100
AcDbLine
 10
88.79244722985602
 20
144.7780222971824
 30
0.0
 11
88.80244722985631
 21
144.7780222971824
 31
0.0
  0
LINE
  5
175
330
74
100
AcDbEntity
  8
A1-----1H2_______Schraffur_1_5
  6
Continuous
 62
     7
 48
1000.0
370
    30
100
AcDbLine
 10
81.39244722985617
 20
144.7780222971824
 30
0.0
 11
81.4024472298558
 21
144.7780222971824
 31
0.0
  0
LINE
  5
176
330
74
100
AcDbEntity
  8
A1-----1H2_______Schraffur_1_5
  6
Continuous
 62
     7
 48
1000.0
370
    30
100
AcDbLine
 10
80.83213192145733
 20
145.15207803325
 30
0.0
 11
80.84213192145762
 21
145.15207803325
 31
0.0
  0
LINE
  5
177
330
74
100
AcDbEntity
  8
A1-----1H2_______Schraffur_1_5
  6
Continuous
 62
     7
 48
1000.0
370
    30
100
AcDbLine
 10
86.269629284901
 20
140.9779484841607
 30
0.0
 11
86.27962928490062
 21
140.9779484841607
 31
0.0
  0
LINE
  5
178
330
74
100
AcDbEntity
  8
A1-----1H2_______Schraffur_1_5
  6
Continuous
 62
     7
 48
1000.0
370
    30
100
AcDbLine
 10
71.93630223606063
 20
140.9812381568556
 30
0.0
 11
71.94630223606025
 21
140.9812381568556
 31
0.0
  0
LINE
  5
179
330
74
100
AcDbEntity
  8
A1-----1H2_______Schraffur_1_5
  6
Continuous
 62
     7
 48
1000.0
370
    30
100
AcDbLine
 10
71.61903622920418
 20
141.0611236970474
 30
0.0
 11
71.62903622920447
 21
141.0611236970474
 31
0.0
  0
LINE
  5
17A
330
74
100
AcDbEntity
  8
A1-----1H2_______Schraffur_1_5
  6
Continuous
 62
     7
 48
1000.0
370
    30
100
AcDbLine
 10
93.1924472298562
 20
144.7780222971824
 30
0.0
 11
93.20244722985605
 21
144.7780222971824
 31
0.0
  0
LINE
  5
17B
330
74
100
AcDbEntity
  8
A1-----1H2_______Schraffur_1_5
  6
Continuous
 62
     7
 48
1000.0
370
    30
100
AcDbLine
 10
43.31886064931623
 20
141.2349450649422
 30
0.0
 11
43.32886064931651
 21
141.2349450649422
 31
0.0
  0
LINE
  5
17C
330
74
100
AcDbEntity
  8
A1-----1H2_______Schraffur_1_5
  6
Continuous
 62
     7
 48
1000.0
370
    30
100
AcDbLine
 10
70.07516807723091
 20
141.1879124074409
 30
0.0
 11
70.08516807723053
 21
141.1879124074409
 31
0.0
  0
LINE
  5
17D
330
74
100
AcDbEntity
  8
A1-----1H2_______Schraffur_1_5
  6
Continuous
 62
     7
 48
1000.0
370
    30
100
AcDbLine
 10
51.00188700887243
 20
141.0472539924825
 30
0.0
 11
51.01188700887205
 21
141.0472539924825
 31
0.0
  0
LINE
  5
17E
330
74
100
AcDbEntity
  8
A1-----1H2_______Schraffur_1_5
  6
Continuous
 62
     7
 48
1000.0
370
    30
100
AcDbLine
 10
46.13510585131175
 20
141.1149458546812
 30
0.0
 11
46.14510585131137
 21
141.1149458546812
 31
0.0
  0
LINE
  5
17F
330
74
100
AcDbEntity
  8
A1-----1H2_______Schraffur_1_5
  6
Continuous
 62
     7
 48
1000.0
370
    30
100
AcDbLine
 10
37.43186642576091
 20
141.2468131187046
 30
0.0
 11
37.44186642576053
 21
141.2468131187046
 31
0.0
  0
LINE
  5
180
330
74
100
AcDbEntity
  8
A1-----1H2_______Schraffur_1_5
  6
Continuous
 62
     7
 48
1000.0
370
    30
100
AcDbLine
 10
77.48692404624659
 20
141.2381828018765
 30
0.0
 11
77.49692404624709
 21
141.2381828018765
 31
0.0
  0
LINE
  5
181
330
74
100
AcDbEntity
  8
A1-----1H2_______Schraffur_1_5
  6
Continuous
 62
     7
 48
1000.0
370
    30
100
AcDbLine
 10
54.5636533703786
 20
141.1875457724914
 30
0.0
 11
54.57365337037912
 21
141.1875457724914
 31
0.0
  0
LINE
  5
182
330
74
100
AcDbEntity
  8
A1-----1H2_______Schraffur_1_5
  6
Continuous
 62
     7
 48
1000.0
370
    30
100
AcDbLine
 10
92.7925768230653
 20
141.2381828018765
 30
0.0
 11
92.80257682306558
 21
141.2381828018765
 31
0.0
  0
LINE
  5
183
330
74
100
AcDbEntity
  8
A1-----1H2_______Schraffur_1_5
  6
Continuous
 62
     7
 48
1000.0
370
    30
100
AcDbLine
 10
85.19257682306527
 20
141.2381828018765
 30
0.0
 11
85.20257682306553
 21
141.2381828018765
 31
0.0
  0
LINE
  5
184
330
74
100
AcDbEntity
  8
A1-----1H2_______Schraffur_1_5
  6
Continuous
 62
     7
 48
1000.0
370
    30
100
AcDbLine
 10
87.6751680772303
 20
141.1879124074409
 30
0.0
 11
87.68516807723059
 21
141.1879124074409
 31
0.0
  0
LINE
  5
185
330
74
100
AcDbEntity
  8
A1-----1H2_______Schraffur_1_5
  6
Continuous
 62
     7
 48
1000.0
370
    30
100
AcDbLine
 10
79.87516807723073
 20
141.1879124074409
 30
0.0
 11
79.885168077231
 21
141.1879124074409
 31
0.0
  0
LINE
  5
186
330
74
100
AcDbEntity
  8
A1-----1H2_______Schraffur_1_5
  6
Continuous
 62
     7
 48
1000.0
370
    30
100
AcDbLine
 10
90.74311781928613
 20
140.6877738354213
 30
0.0
 11
90.75311781928643
 21
140.6877738354213
 31
0.0
  0
LINE
  5
187
330
74
100
AcDbEntity
  8
A1-----1H2_______Schraffur_1_5
  6
Continuous
 62
     7
 48
1000.0
370
    30
100
AcDbLine
 10
90.18280251088706
 20
141.0618295714889
 30
0.0
 11
90.19280251088757
 21
141.0618295714889
 31
0.0
  0
LINE
  5
188
330
74
100
AcDbEntity
  8
A1-----1H2_______Schraffur_1_5
  6
Continuous
 62
     7
 48
1000.0
370
    30
100
AcDbLine
 10
86.82994459329917
 20
140.924382111475
 30
0.0
 11
86.83994459329946
 21
140.924382111475
 31
0.0
  0
LINE
  5
189
330
74
100
AcDbEntity
  8
A1-----1H2_______Schraffur_1_5
  6
Continuous
 62
     7
 48
1000.0
370
    30
100
AcDbLine
 10
83.06941678641678
 20
140.6001032232531
 30
0.0
 11
83.07941678641706
 21
140.6001032232531
 31
0.0
  0
LINE
  5
18A
330
74
100
AcDbEntity
  8
A1-----1H2_______Schraffur_1_5
  6
Continuous
 62
     7
 48
1000.0
370
    30
100
AcDbLine
 10
82.50910147801793
 20
140.9741589593203
 30
0.0
 11
82.51910147801755
 21
140.9741589593203
 31
0.0
  0
LINE
  5
18B
330
74
100
AcDbEntity
  8
A1-----1H2_______Schraffur_1_5
  6
Continuous
 62
     7
 48
1000.0
370
    30
100
AcDbLine
 10
72.17935153760303
 20
141.0075573243616
 30
0.0
 11
72.1893515376033
 21
141.0075573243616
 31
0.0
  0
LINE
  5
18C
330
74
100
AcDbEntity
  8
A1E-----M5_______Rohbau
  6
Continuous
 62
     7
 48
1000.0
370
    80
100
AcDbLine
 10
19.8101334040659
 20
139.6708683850818
 30
0.0
 11
78.37608360341352
 21
139.6708683850818
 31
0.0
  0
LINE
  5
18D
330
74
100
AcDbEntity
  8
A1E-----M5_______Rohbau
  6
Continuous
 62
     7
 48
1000.0
370
    25
100
AcDbLine
 10
93.57608360341341
 20
146.201702719458
 30
0.0
 11
93.57608360341341
 21
140.5173715912316
 31
0.0
  0
LINE
  5
18E
330
74
100
AcDbEntity
  8
A1E-----M5_______Rohbau
  6
Continuous
 62
     7
 48
1000.0
370
    25
100
AcDbLine
 10
93.57608360341341
 20
146.201702719458
 30
0.0
 11
117.5760836034132
 21
146.201702719458
 31
0.0
  0
LINE
  5
18F
330
74
100
AcDbEntity
  8
A1E-----M5_______Rohbau
  6
Continuous
 62
     7
 48
1000.0
370
    25
100
AcDbLine
 10
93.57608360341341
 20
145.4017027194581
 30
0.0
 11
71.3918919268084
 21
145.4017027194581
 31
0.0
  0
LINE
  5
190
330
74
100
AcDbEntity
  8
A1E-----M5_______Rohbau
  6
Continuous
 62
     7
 48
1000.0
370
    80
100
AcDbLine
 10
78.37608360341352
 20
139.6708683850818
 30
0.0
 11
78.37608360341352
 21
97.7113849663922
 31
0.0
  0
LINE
  5
191
330
74
100
AcDbEntity
  8
A1-----1H2_______Schraffur_1_5
  6
Continuous
 62
     7
 48
1000.0
370
    13
100
AcDbLine
 10
83.02458652906574
 20
129.1708683850814
 30
0.0
 11
78.37608360341352
 21
129.1708683850816
 31
0.0
  0
LINE
  5
192
330
74
100
AcDbEntity
  8
A1-----1H2_______Schraffur_1_5
  6
Continuous
 62
     7
 48
1000.0
370
    13
100
AcDbLine
 10
94.37608360341376
 20
129.1708683850814
 30
0.0
 11
83.02458652906574
 21
129.1708683850814
 31
0.0
  0
LINE
  5
193
330
74
100
AcDbEntity
  8
A1-----1H2_______Schraffur_1_5
  6
Continuous
 62
     7
 48
1000.0
370
    13
100
AcDbLine
 10
78.37608360341352
 20
132.6708683850817
 30
0.0
 11
83.02458652906574
 21
132.6708683850817
 31
0.0
  0
LINE
  5
194
330
74
100
AcDbEntity
  8
A1-----1H2_______Schraffur_1_5
  6
Continuous
 62
     7
 48
1000.0
370
    13
100
AcDbLine
 10
83.02458652906574
 20
132.6708683850817
 30
0.0
 11
94.37608360341376
 21
132.6708683850812
 31
0.0
  0
LINE
  5
195
330
74
100
AcDbEntity
  8
A1-----1H2_______Schraffur_1_5
  6
Continuous
 62
     7
 48
1000.0
370
    13
100
AcDbLine
 10
78.37608360341352
 20
136.170868385082
 30
0.0
 11
83.02458652906574
 21
136.1708683850817
 31
0.0
  0
LINE
  5
196
330
74
100
AcDbEntity
  8
A1-----1H2_______Schraffur_1_5
  6
Continuous
 62
     7
 48
1000.0
370
    13
100
AcDbLine
 10
83.02458652906574
 20
136.1708683850817
 30
0.0
 11
94.37608360341376
 21
136.1708683850817
 31
0.0
  0
LINE
  5
197
330
74
100
AcDbEntity
  8
A1-----1H2_______Schraffur_1_5
  6
Continuous
 62
     7
 48
1000.0
370
    13
100
AcDbLine
 10
78.37608360341352
 20
139.6708683850818
 30
0.0
 11
83.02458652906574
 21
139.6708683850818
 31
0.0
  0
LINE
  5
198
330
74
100
AcDbEntity
  8
A1-----1H2_______Schraffur_1_5
  6
Continuous
 62
     7
 48
1000.0
370
    13
100
AcDbLine
 10
83.02458652906574
 20
139.6708683850818
 30
0.0
 11
94.37608360341376
 21
139.6708683850813
 31
0.0
  0
LINE
  5
199
330
74
100
AcDbEntity
  8
A1-----1H2_______Schraffur_1_5
  6
Continuous
 62
     7
 48
1000.0
370
    13
100
AcDbLine
 10
83.02458652906574
 20
122.1708683850813
 30
0.0
 11
78.37608360341352
 21
122.1708683850817
 31
0.0
  0
LINE
  5
19A
330
74
100
AcDbEntity
  8
A1-----1H2_______Schraffur_1_5
  6
Continuous
 62
     7
 48
1000.0
370
    13
100
AcDbLine
 10
94.37608360341376
 20
122.1708683850813
 30
0.0
 11
78.37608360341352
 21
122.1708683850813
 31
0.0
  0
LINE
  5
19B
330
74
100
AcDbEntity
  8
A1-----1H2_______Schraffur_1_5
  6
Continuous
 62
     7
 48
1000.0
370
    13
100
AcDbLine
 10
83.02458652906574
 20
125.6708683850816
 30
0.0
 11
78.37608360341352
 21
125.6708683850816
 31
0.0
  0
LINE
  5
19C
330
74
100
AcDbEntity
  8
A1-----1H2_______Schraffur_1_5
  6
Continuous
 62
     7
 48
1000.0
370
    13
100
AcDbLine
 10
94.37608360341376
 20
125.6708683850813
 30
0.0
 11
83.02458652906574
 21
125.6708683850816
 31
0.0
  0
LINE
  5
19D
330
74
100
AcDbEntity
  8
A1E-----M5_______Rohbau
  6
Continuous
 62
     7
 48
1000.0
370
    80
100
AcDbLine
 10
94.3760836034133
 20
145.4017027194581
 30
0.0
 11
94.3760836034133
 21
97.7113849663922
 31
0.0
  0
LINE
  5
19E
330
74
100
AcDbEntity
  8
A1E-----M5_______Rohbau
  6
Continuous
 62
     7
 48
1000.0
370
    20
100
AcDbLine
 10
59.95729864750188
 20
145.6865341524054
 30
0.0
 11
59.95729864750188
 21
87.867443242724
 31
0.0
  0
CIRCLE
  5
19F
330
74
100
AcDbEntity
  8
A1E-----M5_______Rohbau
  6
Continuous
 62
     7
 48
1000.0
370
    20
100
AcDbCircle
 10
59.95729864750188
 20
146.2865341524053
 30
0.0
 40
0.6000000000000001
  0
HATCH
  5
1A0
330
74
100
AcDbEntity
  8
A1E-----M5_______Rohbau
  6
Continuous
 62
     7
370
    20
100
AcDbHatch
 10
0.0
 20
0.0
 30
0.0
210
0.0
220
0.0
230
1.0
  2
SOLID
 70
     1
 71
     0
 91
        1
 92
        3
 72
     0
 73
     1
 93
       16
 10
59.35729864750194
 20
146.2865341524053
 10
59.40297093489178
 20
146.0569240923237
 10
59.53303457483172
 20
145.8622700797352
 10
59.72768858742028
 20
145.7322064397954
 10
59.95729864750188
 20
145.6865341524054
 10
60.18690870758348
 20
145.7322064397954
 10
60.38156272017203
 20
145.8622700797352
 10
60.51162636011198
 20
146.0569240923237
 10
60.55729864750204
 20
146.2865341524053
 10
60.51162636011198
 20
146.5161442124869
 10
60.38156272017203
 20
146.7107982250755
 10
60.18690870758348
 20
146.8408618650152
 10
59.95729864750188
 20
146.8865341524053
 10
59.72768858742028
 20
146.8408618650152
 10
59.53303457483172
 20
146.7107982250755
 10
59.40297093489178
 20
146.5161442124869
 97
        0
 75
     0
 76
     1
 98
        0
  0
LINE
  5
1A1
330
74
100
AcDbEntity
  8
A1E-----M5_______Rohbau
  6
Continuous
 62
     7
 48
1000.0
370
    20
100
AcDbLine
 10
70.48999892077701
 20
145.8017027194578
 30
0.0
 11
70.48999892077701
 21
87.867443242724
 31
0.0
  0
CIRCLE
  5
1A2
330
74
100
AcDbEntity
  8
A1E-----M5_______Rohbau
  6
Continuous
 62
     7
 48
1000.0
370
    20
100
AcDbCircle
 10
70.48999892077701
 20
146.4017027194577
 30
0.0
 40
0.6000000000000001
  0
HATCH
  5
1A3
330
74
100
AcDbEntity
  8
A1E-----M5_______Rohbau
  6
Continuous
 62
     7
370
    20
100
AcDbHatch
 10
0.0
 20
0.0
 30
0.0
210
0.0
220
0.0
230
1.0
  2
SOLID
 70
     1
 71
     0
 91
        1
 92
        3
 72
     0
 73
     1
 93
       16
 10
69.88999892077685
 20
146.4017027194577
 10
69.93567120816691
 20
146.1720926593761
 10
70.06573484810686
 20
145.9774386467876
 10
70.26038886069541
 20
145.8473750068479
 10
70.48999892077701
 20
145.8017027194578
 10
70.71960898085861
 20
145.8473750068479
 10
70.91426299344717
 20
145.9774386467876
 10
71.04432663338712
 20
146.1720926593761
 10
71.08999892077694
 20
146.4017027194577
 10
71.04432663338712
 20
146.6313127795393
 10
70.91426299344717
 20
146.8259667921279
 10
70.71960898085861
 20
146.9560304320678
 10
70.48999892077701
 20
147.0017027194579
 10
70.26038886069541
 20
146.9560304320678
 10
70.06573484810686
 20
146.8259667921279
 10
69.93567120816691
 20
146.6313127795393
 97
        0
 75
     0
 76
     1
 98
        0
  0
LINE
  5
1A4
330
74
100
AcDbEntity
  8
A1E-----M5_______Rohbau
  6
Continuous
 62
     7
 48
1000.0
370
    13
100
AcDbLine
 10
64.37598594716309
 20
166.9373504009097
 30
0.0
 11
64.37598594716309
 21
215.0581187577942
 31
0.0
  0
LINE
  5
1A5
330
74
100
AcDbEntity
  8
A1E-----M5_______Rohbau
  6
Continuous
 62
     7
 48
1000.0
370
    13
100
AcDbLine
 10
118.3760836034135
 20
215.0581187577942
 30
0.0
 11
118.3760836034135
 21
173.7927208279056
 31
0.0
  0
LINE
  5
1A6
330
74
100
AcDbEntity
  8
A1E-----M5_______Rohbau
  6
Continuous
 62
     7
 48
1000.0
370
    13
100
AcDbLine
 10
123.9484737934042
 20
215.0581187577942
 30
0.0
 11
123.948355258495
 21
186.5010191257077
 31
0.0
  0
LINE
  5
1A7
330
74
100
AcDbEntity
  8
A1E-----M5_______Rohbau
  6
Continuous
 62
     7
 48
1000.0
370
    13
100
AcDbLine
 10
124.9157201951319
 20
215.0581187577942
 30
0.0
 11
124.9155367284136
 21
186.5010191257077
 31
0.0
  0
LINE
  5
1A8
330
74
100
AcDbEntity
  8
A1E-----M5_______Rohbau
  6
Continuous
 62
     7
 48
1000.0
370
    13
100
AcDbLine
 10
127.7313451951316
 20
215.0581187577942
 30
0.0
 11
127.7311617284134
 21
186.5010191257077
 31
0.0
  0
LINE
  5
1A9
330
74
100
AcDbEntity
  8
A1E-----M5_______Rohbau
  6
Continuous
 62
     7
 48
1000.0
370
    13
100
AcDbLine
 10
128.6906590395591
 20
215.0581187577942
 30
0.0
 11
128.6905367284135
 21
186.5010191257077
 31
0.0
  0
LINE
  5
1AA
330
74
100
AcDbEntity
  8
A1E-----M5_______Rohbau
  6
Continuous
 62
     7
 48
1000.0
370
    13
100
AcDbLine
 10
133.624927523502
 20
187.6149768978435
 30
0.0
 11
133.6250382631266
 21
215.0581187577942
 31
0.0
  0
LINE
  5
1AB
330
74
100
AcDbEntity
  8
A1E-----M5_______Rohbau
  6
Continuous
 62
     7
 48
1000.0
370
    13
100
AcDbLine
 10
120.4094100718058
 20
215.0581187577942
 30
0.0
 11
120.409306343894
 21
190.492455350425
 31
0.0
  0
LINE
  5
1AC
330
74
100
AcDbEntity
  8
A1E-----M5_______Rohbau
  6
Continuous
 62
     7
 48
1000.0
370
    25
100
AcDbLine
 10
71.3918919268084
 20
145.4017027194581
 30
0.0
 11
19.8101334040659
 21
144.6870342727975
 31
0.0
  0
LINE
  5
1AD
330
74
100
AcDbEntity
  8
A1E-----M5_______Rohbau
  6
Continuous
 62
     7
 48
1000.0
370
    30
100
AcDbLine
 10
117.2596231065044
 20
166.9610364984115
 30
0.0
 11
116.2596231065041
 21
166.9610364984115
 31
0.0
  0
LINE
  5
1AE
330
74
100
AcDbEntity
  8
A1E-----M5_______Rohbau
  6
Continuous
 62
     7
 48
1000.0
370
    13
100
AcDbLine
 10
116.2596231065041
 20
167.5267797486466
 30
0.0
 11
118.3760836034135
 21
167.5267797486466
 31
0.0
  0
LINE
  5
1AF
330
74
100
AcDbEntity
  8
A1E-----M5_______Rohbau
  6
Continuous
 62
     7
 48
1000.0
370
    13
100
AcDbLine
 10
116.2596231065041
 20
171.0631321193397
 30
0.0
 11
118.3760836034135
 21
171.0631321193397
 31
0.0
  0
LINE
  5
1B0
330
74
100
AcDbEntity
  8
A1E-----M5_______Rohbau
  6
Continuous
 62
     7
 48
1000.0
370
    13
100
AcDbLine
 10
62.16837971594779
 20
145.2274114606709
 30
0.0
 11
62.16837971594779
 21
147.4017027194581
 31
0.0
  0
LINE
  5
1B1
330
74
100
AcDbEntity
  8
A1E-----M5_______Rohbau
  6
Continuous
 62
     7
 48
1000.0
370
    13
100
AcDbLine
 10
58.16837971594801
 20
145.1518258248299
 30
0.0
 11
58.16837971594801
 21
147.4017027194581
 31
0.0
  0
LINE
  5
1B2
330
74
100
AcDbEntity
  8
A1-----1H2_______Schraffur_1_5
  6
Continuous
 62
     7
 48
1000.0
370
    13
100
AcDbLine
 10
74.85961936333263
 20
147.801702719458
 30
0.0
 11
72.7759859471635
 21
147.801702719458
 31
0.0
  0
LINE
  5
1B3
330
74
100
AcDbEntity
  8
A1-----1H2_______Schraffur_1_5
  6
Continuous
 62
     7
 48
1000.0
370
    13
100
AcDbLine
 10
95.85962019779792
 20
147.801702719458
 30
0.0
 11
74.85961936333263
 21
147.801702719458
 31
0.0
  0
LINE
  5
1B4
330
74
100
AcDbEntity
  8
A1-----1H2_______Schraffur_1_5
  6
Continuous
 62
     7
 48
1000.0
370
    13
100
AcDbLine
 10
116.859621032263
 20
147.801702719458
 30
0.0
 11
95.85962019779792
 21
147.801702719458
 31
0.0
  0
LINE
  5
1B5
330
74
100
AcDbEntity
  8
A1-----1H2_______Schraffur_1_5
  6
Continuous
 62
     7
 48
1000.0
370
    13
100
AcDbLine
 10
72.7759859471635
 20
149.9017028029044
 30
0.0
 11
74.85961936333263
 21
149.9017028029044
 31
0.0
  0
LINE
  5
1B6
330
74
100
AcDbEntity
  8
A1-----1H2_______Schraffur_1_5
  6
Continuous
 62
     7
 48
1000.0
370
    13
100
AcDbLine
 10
74.85961936333263
 20
149.9017028029044
 30
0.0
 11
95.85962019779792
 21
149.9017028029044
 31
0.0
  0
LINE
  5
1B7
330
74
100
AcDbEntity
  8
A1-----1H2_______Schraffur_1_5
  6
Continuous
 62
     7
 48
1000.0
370
    13
100
AcDbLine
 10
95.85962019779792
 20
149.9017028029044
 30
0.0
 11
116.859621032263
 21
149.9017028029044
 31
0.0
  0
LINE
  5
1B8
330
74
100
AcDbEntity
  8
A1-----1H2_______Schraffur_1_5
  6
Continuous
 62
     7
 48
1000.0
370
    13
100
AcDbLine
 10
72.7759859471635
 20
152.001702886351
 30
0.0
 11
95.85962019779792
 21
152.001702886351
 31
0.0
  0
LINE
  5
1B9
330
74
100
AcDbEntity
  8
A1-----1H2_______Schraffur_1_5
  6
Continuous
 62
     7
 48
1000.0
370
    13
100
AcDbLine
 10
95.85962019779792
 20
152.001702886351
 30
0.0
 11
116.859621032263
 21
152.001702886351
 31
0.0
  0
LINE
  5
1BA
330
74
100
AcDbEntity
  8
A1-----1H2_______Schraffur_1_5
  6
Continuous
 62
     7
 48
1000.0
370
    13
100
AcDbLine
 10
72.7759859471635
 20
154.1017029697975
 30
0.0
 11
95.85962019779792
 21
154.1017029697975
 31
0.0
  0
LINE
  5
1BB
330
74
100
AcDbEntity
  8
A1-----1H2_______Schraffur_1_5
  6
Continuous
 62
     7
 48
1000.0
370
    13
100
AcDbLine
 10
95.85962019779792
 20
154.1017029697975
 30
0.0
 11
116.859621032263
 21
154.1017029697975
 31
0.0
  0
LINE
  5
1BC
330
74
100
AcDbEntity
  8
A1-----1H2_______Schraffur_1_5
  6
Continuous
 62
     7
 48
1000.0
370
    13
100
AcDbLine
 10
95.85962019779792
 20
156.2017030532436
 30
0.0
 11
72.7759859471635
 21
156.2017030532436
 31
0.0
  0
LINE
  5
1BD
330
74
100
AcDbEntity
  8
A1-----1H2_______Schraffur_1_5
  6
Continuous
 62
     7
 48
1000.0
370
    13
100
AcDbLine
 10
116.859621032263
 20
156.2017030532436
 30
0.0
 11
95.85962019779792
 21
156.2017030532436
 31
0.0
  0
LINE
  5
1BE
330
74
100
AcDbEntity
  8
A1-----1H2_______Schraffur_1_5
  6
Continuous
 62
     7
 48
1000.0
370
    13
100
AcDbLine
 10
72.7759859471635
 20
158.3017031366902
 30
0.0
 11
74.85961936333263
 21
158.3017031366907
 31
0.0
  0
LINE
  5
1BF
330
74
100
AcDbEntity
  8
A1-----1H2_______Schraffur_1_5
  6
Continuous
 62
     7
 48
1000.0
370
    13
100
AcDbLine
 10
74.85961936333263
 20
158.3017031366907
 30
0.0
 11
95.85962019779792
 21
158.3017031366907
 31
0.0
  0
LINE
  5
1C0
330
74
100
AcDbEntity
  8
A1-----1H2_______Schraffur_1_5
  6
Continuous
 62
     7
 48
1000.0
370
    13
100
AcDbLine
 10
95.85962019779792
 20
158.3017031366907
 30
0.0
 11
116.859621032263
 21
158.3017031366907
 31
0.0
  0
LINE
  5
1C1
330
74
100
AcDbEntity
  8
A1-----1H2_______Schraffur_1_5
  6
Continuous
 62
     7
 48
1000.0
370
    13
100
AcDbLine
 10
74.85961936333263
 20
160.4017032201368
 30
0.0
 11
72.7759859471635
 21
160.4017032201368
 31
0.0
  0
LINE
  5
1C2
330
74
100
AcDbEntity
  8
A1-----1H2_______Schraffur_1_5
  6
Continuous
 62
     7
 48
1000.0
370
    13
100
AcDbLine
 10
95.85962019779792
 20
160.4017032201368
 30
0.0
 11
74.85961936333263
 21
160.4017032201368
 31
0.0
  0
LINE
  5
1C3
330
74
100
AcDbEntity
  8
A1-----1H2_______Schraffur_1_5
  6
Continuous
 62
     7
 48
1000.0
370
    13
100
AcDbLine
 10
116.859621032263
 20
160.4017032201368
 30
0.0
 11
95.85962019779792
 21
160.4017032201368
 31
0.0
  0
LINE
  5
1C4
330
74
100
AcDbEntity
  8
A1-----1H2_______Schraffur_1_5
  6
Continuous
 62
     7
 48
1000.0
370
    13
100
AcDbLine
 10
72.7759859471635
 20
162.5017033035832
 30
0.0
 11
74.85961936333263
 21
162.5017033035834
 31
0.0
  0
LINE
  5
1C5
330
74
100
AcDbEntity
  8
A1-----1H2_______Schraffur_1_5
  6
Continuous
 62
     7
 48
1000.0
370
    13
100
AcDbLine
 10
74.85961936333263
 20
162.5017033035834
 30
0.0
 11
95.85962019779792
 21
162.5017033035834
 31
0.0
  0
LINE
  5
1C6
330
74
100
AcDbEntity
  8
A1-----1H2_______Schraffur_1_5
  6
Continuous
 62
     7
 48
1000.0
370
    13
100
AcDbLine
 10
95.85962019779792
 20
162.5017033035834
 30
0.0
 11
116.859621032263
 21
162.5017033035834
 31
0.0
  0
LINE
  5
1C7
330
74
100
AcDbEntity
  8
A1-----1H2_______Schraffur_1_5
  6
Continuous
 62
     7
 48
1000.0
370
    13
100
AcDbLine
 10
95.85962019779792
 20
164.6017033870299
 30
0.0
 11
82.96251213110773
 21
164.6017033870299
 31
0.0
  0
LINE
  5
1C8
330
74
100
AcDbEntity
  8
A1-----1H2_______Schraffur_1_5
  6
Continuous
 62
     7
 48
1000.0
370
    13
100
AcDbLine
 10
116.859621032263
 20
164.6017033870299
 30
0.0
 11
95.85962019779792
 21
164.6017033870299
 31
0.0
  0
LINE
  5
1C9
330
74
100
AcDbEntity
  8
A1E-----M5_______Rohbau
  6
Continuous
 62
     7
 48
1000.0
370
    25
100
AcDbLine
 10
117.5760836034132
 20
146.201702719458
 30
0.0
 11
117.5760836034132
 21
166.9610364984115
 31
0.0
  0
LINE
  5
1CA
330
74
100
AcDbEntity
  8
A1E-----M5_______Rohbau
  6
Continuous
 62
     7
 48
1000.0
370
    30
100
AcDbLine
 10
60.17598594716355
 20
147.4017027194581
 30
0.0
 11
117.2596231065044
 21
147.4017027194581
 31
0.0
  0
LINE
  5
1CC
330
74
100
AcDbEntity
  8
A1E-----M5_______Rohbau
  6
LINIE_34
 62
     1
 48
1000.0
370
    35
100
AcDbLine
 10
93.97608360341358
 20
140.1173715912314
 30
0.0
 11
19.8101334040659
 21
140.1173715912314
 31
0.0
  0
LINE
  5
1CD
330
74
100
AcDbEntity
  8
A1E-----M5_______Rohbau
  6
LINIE_34
 62
     1
 48
1000.0
370
    35
100
AcDbLine
 10
93.97608360341358
 20
145.8017027194578
 30
0.0
 11
93.97608360341358
 21
140.1173715912314
 31
0.0
  0
LINE
  5
1CE
330
74
100
AcDbEntity
  8
A1E-----M5_______Rohbau
  6
LINIE_34
 62
     1
 48
1000.0
370
    35
100
AcDbLine
 10
93.97608360341358
 20
145.8017027194578
 30
0.0
 11
117.9760836034134
 21
145.8017027194578
 31
0.0
  0
LINE
  5
1CF
330
74
100
AcDbEntity
  8
A1E-----M5_______Rohbau
  6
LINIE_34
 62
     1
 48
1000.0
370
    35
100
AcDbLine
 10
117.9760836034134
 20
145.8017027194578
 30
0.0
 11
117.9760836034134
 21
166.9610364984115
 31
0.0
  0
LINE
  5
1D0
330
74
100
AcDbEntity
  8
A1E-----M5_______Rohbau
  6
Continuous
 62
     7
 48
1000.0
370
    25
100
AcDbLine
 10
122.3545992284134
 20
174.9911558444579
 30
0.0
 11
110.1393220770333
 21
171.6662614550266
 31
0.0
  0
LINE
  5
1D1
330
74
100
AcDbEntity
  8
A1E-----M5_______Rohbau
  6
Continuous
 62
     7
 48
1000.0
370
    30
100
AcDbLine
 10
112.7394629286129
 20
169.7822523297368
 30
0.0
 11
56.37598594716331
 21
166.4667738458849
 31
0.0
  0
LINE
  5
1D2
330
74
100
AcDbEntity
  8
A1E-----M5_______Rohbau
  6
Continuous
 62
     7
 48
1000.0
370
    25
100
AcDbLine
 10
110.1393220770333
 20
171.6662614550266
 30
0.0
 11
110.1393220770333
 21
169.6293037979908
 31
0.0
  0
LINE
  5
1D3
330
74
100
AcDbEntity
  8
A1E-----M5_______Rohbau
  6
Continuous
 62
     7
 48
1000.0
370
    80
100
AcDbLine
 10
158.2664232188207
 20
145.4017027194581
 30
0.0
 11
94.3760836034133
 21
145.4017027194581
 31
0.0
  0
LINE
  5
1D4
330
74
100
AcDbEntity
  8
A1-----1H2_______Schraffur_1_5
  6
Continuous
 62
     7
 48
1000.0
370
    13
100
AcDbLine
 10
94.37608360341376
 20
118.6708683850812
 30
0.0
 11
78.37608360341352
 21
118.6708683850812
 31
0.0
  0
LINE
  5
1D5
330
74
100
AcDbEntity
  8
A1-----1H2_______Schraffur_1_5
  6
Continuous
 62
     7
 48
1000.0
370
    13
100
AcDbLine
 10
94.37608360341376
 20
115.1708683850812
 30
0.0
 11
78.37608360341352
 21
115.1708683850812
 31
0.0
  0
LINE
  5
1D6
330
74
100
AcDbEntity
  8
A1-----1H2_______Schraffur_1_5
  6
Continuous
 62
     7
 48
1000.0
370
    13
100
AcDbLine
 10
94.37608360341376
 20
111.6708683850813
 30
0.0
 11
78.37608360341352
 21
111.6708683850813
 31
0.0
  0
LINE
  5
1D7
330
74
100
AcDbEntity
  8
A1-----1H2_______Schraffur_1_5
  6
Continuous
 62
     7
 48
1000.0
370
    13
100
AcDbLine
 10
94.37608360341376
 20
108.1708683850813
 30
0.0
 11
78.37608360341352
 21
108.1708683850813
 31
0.0
  0
LINE
  5
1D8
330
74
100
AcDbEntity
  8
A1-----1H2_______Schraffur_1_5
  6
Continuous
 62
     7
 48
1000.0
370
    13
100
AcDbLine
 10
94.37608360341376
 20
104.6708683850812
 30
0.0
 11
78.37608360341352
 21
104.6708683850812
 31
0.0
  0
LINE
  5
1D9
330
74
100
AcDbEntity
  8
A1-----1H2_______Schraffur_1_5
  6
Continuous
 62
     7
 48
1000.0
370
    13
100
AcDbLine
 10
94.37608360341376
 20
101.1708683850812
 30
0.0
 11
78.37608360341352
 21
101.1708683850812
 31
0.0
  0
LINE
  5
1DA
330
74
100
AcDbEntity
  8
A1E-----M5_______Rohbau
  6
Continuous
 62
     7
 48
1000.0
370
    25
100
AcDbLine
 10
19.8101334040659
 20
140.5173715912316
 30
0.0
 11
93.57608360341341
 21
140.5173715912316
 31
0.0
  0
LINE
  5
1DB
330
74
100
AcDbEntity
  8
A1------T2_______Text_1_5
  6
Continuous
 62
   252
 48
1000.0
370
    80
100
AcDbLine
 10
194.9999999999996
 20
231.5634214828517
 30
0.0
 11
19.99999999999935
 21
231.5634214828517
 31
0.0
  0
LINE
  5
1DD
330
74
100
AcDbEntity
  8
A1-----1H2_______Schraffur_1_5
  6
Continuous
 62
     7
 48
1000.0
370
    30
100
AcDbLine
 10
23.30697095625479
 20
142.2501337243858
 30
0.0
 11
23.31697095625507
 21
142.2501337243858
 31
0.0
  0
LINE
  5
1DE
330
74
100
AcDbEntity
  8
A1-----1H2_______Schraffur_1_5
  6
Continuous
 62
     7
 48
1000.0
370
    30
100
AcDbLine
 10
26.38387378347007
 20
142.9973815538519
 30
0.0
 11
26.39387378346969
 21
142.9973815538519
 31
0.0
  0
LINE
  5
1DF
330
74
100
AcDbEntity
  8
A1-----1H2_______Schraffur_1_5
  6
Continuous
 62
     7
 48
1000.0
370
    30
100
AcDbLine
 10
27.70254642370462
 20
141.8105761776405
 30
0.0
 11
27.71254642370513
 21
141.8105761776405
 31
0.0
  0
LINE
  5
1E0
330
74
100
AcDbEntity
  8
A1-----1H2_______Schraffur_1_5
  6
Continuous
 62
     7
 48
1000.0
370
    30
100
AcDbLine
 10
30.42780321352346
 20
143.3490275912481
 30
0.0
 11
30.43780321352374
 21
143.3490275912481
 31
0.0
  0
LINE
  5
1E1
330
74
100
AcDbEntity
  8
A1-----1H2_______Schraffur_1_5
  6
Continuous
 62
     7
 48
1000.0
370
    30
100
AcDbLine
 10
31.87834311778182
 20
141.8105761776405
 30
0.0
 11
31.8883431177821
 21
141.8105761776405
 31
0.0
  0
LINE
  5
1E2
330
74
100
AcDbEntity
  8
A1-----1H2_______Schraffur_1_5
  6
Continuous
 62
     7
 48
1000.0
370
    30
100
AcDbLine
 10
33.4167945313899
 20
143.4369391005972
 30
0.0
 11
33.42679453138953
 21
143.4369391005972
 31
0.0
  0
LINE
  5
1E3
330
74
100
AcDbEntity
  8
A1-----1H2_______Schraffur_1_5
  6
Continuous
 62
     7
 48
1000.0
370
    30
100
AcDbLine
 10
21.76851954264736
 20
141.2831071215464
 30
0.0
 11
21.77851954264698
 21
141.2831071215464
 31
0.0
  0
LINE
  5
1E4
330
74
100
AcDbEntity
  8
A1-----1H2_______Schraffur_1_5
  6
Continuous
 62
     7
 48
1000.0
370
    30
100
AcDbLine
 10
21.54874076927471
 20
143.3490275912481
 30
0.0
 11
21.558740769275
 21
143.3490275912481
 31
0.0
  0
LINE
  5
1E5
330
74
100
AcDbEntity
  8
A1-----1H2_______Schraffur_1_5
  6
Continuous
 62
     7
 48
1000.0
370
    30
100
AcDbLine
 10
25.28497991660706
 20
143.9204524020168
 30
0.0
 11
25.29497991660734
 21
143.9204524020168
 31
0.0
  0
LINE
  5
1E6
330
74
100
AcDbEntity
  8
A1-----1H2_______Schraffur_1_5
  6
Continuous
 62
     7
 48
1000.0
370
    30
100
AcDbLine
 10
28.23001547979853
 20
143.3490275912481
 30
0.0
 11
28.24001547979882
 21
143.3490275912481
 31
0.0
  0
LINE
  5
1E7
330
74
100
AcDbEntity
  8
A1-----1H2_______Schraffur_1_5
  6
Continuous
 62
     7
 48
1000.0
370
    30
100
AcDbLine
 10
29.46077661068491
 20
142.6017797617816
 30
0.0
 11
29.47077661068453
 21
142.6017797617816
 31
0.0
  0
LINE
  5
1E8
330
74
100
AcDbEntity
  8
A1-----1H2_______Schraffur_1_5
  6
Continuous
 62
     7
 48
1000.0
370
    30
100
AcDbLine
 10
25.78393267685586
 20
141.0551141165193
 30
0.0
 11
25.79393267685637
 21
141.0551141165193
 31
0.0
  0
LINE
  5
1E9
330
74
100
AcDbEntity
  8
A1-----1H2_______Schraffur_1_5
  6
Continuous
 62
     7
 48
1000.0
370
    30
100
AcDbLine
 10
34.22343757435997
 20
140.9707190675445
 30
0.0
 11
34.23343757435959
 21
140.9707190675445
 31
0.0
  0
LINE
  5
1EA
330
74
100
AcDbEntity
  8
A1-----1H2_______Schraffur_1_5
  6
Continuous
 62
     7
 48
1000.0
370
    30
100
AcDbLine
 10
22.64856869592413
 20
143.6515805451419
 30
0.0
 11
22.65856869592375
 21
143.6515805451419
 31
0.0
  0
LINE
  5
1EB
330
74
100
AcDbEntity
  8
A1-----1H2_______Schraffur_1_5
  6
Continuous
 62
     7
 48
1000.0
370
    30
100
AcDbLine
 10
25.50569274976611
 20
142.3329079049067
 30
0.0
 11
25.51569274976639
 21
142.3329079049067
 31
0.0
  0
LINE
  5
1EC
330
74
100
AcDbEntity
  8
A1-----1H2_______Schraffur_1_5
  6
Continuous
 62
     7
 48
1000.0
370
    30
100
AcDbLine
 10
24.40679888290354
 20
143.1241114890482
 30
0.0
 11
24.41679888290382
 21
143.1241114890482
 31
0.0
  0
LINE
  5
1ED
330
74
100
AcDbEntity
  8
A1-----1H2_______Schraffur_1_5
  6
Continuous
 62
     7
 48
1000.0
370
    30
100
AcDbLine
 10
22.42878992255148
 20
142.5966424329543
 30
0.0
 11
22.43878992255111
 21
142.5966424329543
 31
0.0
  0
LINE
  5
1EE
330
74
100
AcDbEntity
  8
A1-----1H2_______Schraffur_1_5
  6
Continuous
 62
     7
 48
1000.0
370
    30
100
AcDbLine
 10
29.02215312372625
 20
144.2230053559099
 30
0.0
 11
29.03215312372654
 21
144.2230053559099
 31
0.0
  0
LINE
  5
1EF
330
74
100
AcDbEntity
  8
A1-----1H2_______Schraffur_1_5
  6
Continuous
 62
     7
 48
1000.0
370
    30
100
AcDbLine
 10
29.72236829569086
 20
141.2349450649422
 30
0.0
 11
29.73236829569137
 21
141.2349450649422
 31
0.0
  0
LINE
  5
1F0
330
74
100
AcDbEntity
  8
A1-----1H2_______Schraffur_1_5
  6
Continuous
 62
     7
 48
1000.0
370
    30
100
AcDbLine
 10
32.53861349768661
 20
141.1149458546812
 30
0.0
 11
32.54861349768623
 21
141.1149458546812
 31
0.0
  0
LINE
  5
1F1
330
74
100
AcDbEntity
  8
A1-----1H2_______Schraffur_1_5
  6
Continuous
 62
     7
 48
1000.0
370
    30
100
AcDbLine
 10
23.83537407213554
 20
141.2468131187046
 30
0.0
 11
23.84537407213516
 21
141.2468131187046
 31
0.0
  0
LINE
  5
1F2
330
74
100
AcDbEntity
  8
A1E-----M5_______Rohbau
  6
Continuous
 62
     7
 48
1000.0
370
    25
100
AcDbLine
 10
170.6405254046373
 20
198.4124096744821
 30
0.0
 11
170.6708223586579
 21
198.4124096744821
 31
0.0
  0
LINE
  5
1F3
330
74
100
AcDbEntity
  8
A1E-----M5_______Rohbau
  6
Continuous
 62
     7
 48
1000.0
370
    30
100
AcDbLine
 10
178.5177334499784
 20
167.8572185824905
 30
0.0
 11
178.5177334499784
 21
204.3123032967748
 31
0.0
  0
LINE
  5
1F4
330
74
100
AcDbEntity
  8
A1E-----M5_______Rohbau
  6
Continuous
 62
     7
 48
1000.0
370
    30
100
AcDbLine
 10
172.1055028138627
 20
198.4124096744821
 30
0.0
 11
161.4404897084105
 21
198.4124096744821
 31
0.0
  0
LINE
  5
1F5
330
74
100
AcDbEntity
  8
A1E-----M5_______Rohbau
  6
Continuous
 62
     7
 48
1000.0
370
    30
100
AcDbLine
 10
175.1351982159171
 20
166.9807059586468
 30
0.0
 11
175.1351982159171
 21
183.264399514379
 31
0.0
  0
LINE
  5
1F6
330
74
100
AcDbEntity
  8
A1E-----M5_______Rohbau
  6
Continuous
 62
     7
 48
1000.0
370
    30
100
AcDbLine
 10
172.1055028138627
 20
183.264399514379
 30
0.0
 11
172.1055028138627
 21
198.4124096744821
 31
0.0
  0
LINE
  5
1F7
330
74
100
AcDbEntity
  8
A1E-----M5_______Rohbau
  6
Continuous
 62
     7
 48
1000.0
370
    30
100
AcDbLine
 10
172.1055028138627
 20
183.264399514379
 30
0.0
 11
148.2417853297397
 21
181.8606599635102
 31
0.0
  0
LINE
  5
1F8
330
74
100
AcDbEntity
  8
A1E-----M5_______Rohbau
  6
Continuous
 62
     7
 48
1000.0
370
    30
100
AcDbLine
 10
161.4404897084105
 20
198.4124096744821
 30
0.0
 11
161.4404897084105
 21
191.8118241467475
 31
0.0
  0
LINE
  5
1F9
330
74
100
AcDbEntity
  8
A1E-----M5_______Rohbau
  6
Continuous
 62
     7
 48
1000.0
370
    25
100
AcDbLine
 10
178.5177334499784
 20
183.264399514379
 30
0.0
 11
176.0939771283345
 21
183.264399514379
 31
0.0
  0
LINE
  5
1FA
330
74
100
AcDbEntity
  8
A1E-----M5_______Rohbau
  6
Continuous
 62
     7
 48
1000.0
370
    13
100
AcDbLine
 10
178.5177334499784
 20
213.7838925002291
 30
0.0
 11
178.5177334499784
 21
204.3123032967748
 31
0.0
  0
LINE
  5
1FB
330
74
100
AcDbEntity
  8
A1E-----M5_______Rohbau
  6
Continuous
 62
     7
 48
1000.0
370
    30
100
AcDbLine
 10
175.1351982159171
 20
183.264399514379
 30
0.0
 11
172.1055028138627
 21
183.264399514379
 31
0.0
  0
LINE
  5
1FC
330
74
100
AcDbEntity
  8
A1E-----M5_______Rohbau
  6
Continuous
 62
     7
 48
1000.0
370
    25
100
AcDbLine
 10
172.1055028138627
 20
184.9784292383587
 30
0.0
 11
178.5177334499784
 21
184.9784292383587
 31
0.0
  0
LINE
  5
1FD
330
74
100
AcDbEntity
  8
A1E-----M5_______Rohbau
  6
Continuous
 62
     7
 48
1000.0
370
    25
100
AcDbLine
 10
172.1055028138627
 20
195.6924997558913
 30
0.0
 11
178.5177334499784
 21
195.6924997558913
 31
0.0
  0
LINE
  5
1FE
330
74
100
AcDbEntity
  8
A1E-----M5_______Rohbau
  6
Continuous
 62
     7
 48
1000.0
370
    25
100
AcDbLine
 10
176.0939771283345
 20
167.1766525593483
 30
0.0
 11
176.0939771283345
 21
183.264399514379
 31
0.0
  0
LINE
  5
1FF
330
74
100
AcDbEntity
  8
A1E-----M5_______Rohbau
  6
LINIE_34
 62
     1
 48
1000.0
370
    35
100
AcDbLine
 10
177.305855289156
 20
167.4829647288673
 30
0.0
 11
177.305855289156
 21
183.264399514379
 31
0.0
  0
LINE
  5
200
330
74
100
AcDbEntity
  8
A1E-----M5_______Rohbau
  6
Continuous
 62
     7
 48
1000.0
370
    25
100
AcDbLine
 10
188.7270170036364
 20
207.091183316197
 30
0.0
 11
153.5628549256862
 21
197.5197979310663
 31
0.0
  0
LINE
  5
201
330
74
100
AcDbEntity
  8
A1E-----M5_______Rohbau
  6
Continuous
 62
     7
 48
1000.0
370
    30
100
AcDbLine
 10
161.4404897084105
 20
191.8118241467475
 30
0.0
 11
146.5251411970732
 21
190.9344560403623
 31
0.0
  0
LINE
  5
202
330
74
100
AcDbEntity
  8
A1E-----M5_______Rohbau
  6
Continuous
 62
     7
 48
1000.0
370
    25
100
AcDbLine
 10
153.5628549256862
 20
197.5197979310663
 30
0.0
 11
153.5628549256862
 21
191.3484366833664
 31
0.0
  0
LINE
  5
204
330
74
100
AcDbEntity
  8
A1E-----M5_______Rohbau
  6
STRICHLINIE_S4
 62
     7
 48
1000.0
370
    13
100
AcDbLine
 10
144.3760836034133
 20
129.1143782788113
 30
0.0
 11
39.97608360341354
 21
129.1143782788113
 31
0.0
  0
LINE
  5
205
330
74
100
AcDbEntity
  8
A1E-----M5_______Rohbau
  6
STRICHLINIE_S4
 62
     7
 48
1000.0
370
    13
100
AcDbLine
 10
144.3760836034133
 20
128.5143782788114
 30
0.0
 11
39.97608360341354
 21
128.5143782788114
 31
0.0
  0
LINE
  5
206
330
74
100
AcDbEntity
  8
A1E-----M5_______Rohbau
  6
STRICHLINIE_S4
 62
     7
 48
1000.0
370
    13
100
AcDbLine
 10
144.3760836034133
 20
109.7143782788113
 30
0.0
 11
39.97608360341354
 21
109.7143782788113
 31
0.0
  0
LINE
  5
207
330
74
100
AcDbEntity
  8
A1E-----M5_______Rohbau
  6
STRICHLINIE_S4
 62
     7
 48
1000.0
370
    13
100
AcDbLine
 10
144.3760836034133
 20
109.1143782788115
 30
0.0
 11
39.97608360341354
 21
109.1143782788115
 31
0.0
  0
LINE
  5
208
330
74
100
AcDbEntity
  8
A1E-----M5_______Rohbau
  6
Continuous
 62
     7
 48
1000.0
370
    13
100
AcDbLine
 10
129.3883289246396
 20
147.4017027194581
 30
0.0
 11
129.3883289246396
 21
145.4017027194579
 31
0.0
  0
LINE
  5
209
330
74
100
AcDbEntity
  8
A1E-----M5_______Rohbau
  6
Continuous
 62
     7
 48
1000.0
370
    13
100
AcDbLine
 10
118.3883289246395
 20
145.4017027194579
 30
0.0
 11
118.3883289246395
 21
147.4017027194579
 31
0.0
  0
LINE
  5
20A
330
74
100
AcDbEntity
  8
A1E-----M5_______Rohbau
  6
Continuous
 62
     7
 48
1000.0
370
    13
100
AcDbLine
 10
118.3883289246395
 20
147.4017027194579
 30
0.0
 11
129.3883289246396
 21
147.4017027194579
 31
0.0
  0
LINE
  5
20B
330
74
100
AcDbEntity
  8
A1E-----M5_______Rohbau
  6
Continuous
 62
     7
 48
1000.0
370
    13
100
AcDbLine
 10
118.3760836034135
 20
147.4017027194581
 30
0.0
 11
129.3883289246396
 21
147.4017027194581
 31
0.0
  0
LINE
  5
20C
330
74
100
AcDbEntity
  8
A1-----1H2_______Schraffur_1_5
  6
Continuous
 62
     7
 48
1000.0
370
    13
100
AcDbLine
 10
118.5399568302252
 20
145.6647318395214
 30
0.0
 11
118.5000403684995
 21
145.7518223014685
 31
0.0
  0
LINE
  5
20D
330
74
100
AcDbEntity
  8
A1-----1H2_______Schraffur_1_5
  6
Continuous
 62
     7
 48
1000.0
370
    13
100
AcDbLine
 10
119.7495465794849
 20
145.6647318395214
 30
0.0
 11
119.7096301177591
 21
145.7518223014685
 31
0.0
  0
LINE
  5
20E
330
74
100
AcDbEntity
  8
A1-----1H2_______Schraffur_1_5
  6
Continuous
 62
     7
 48
1000.0
370
    13
100
AcDbLine
 10
120.9591363287441
 20
145.6647318395214
 30
0.0
 11
120.9192198670188
 21
145.7518223014685
 31
0.0
  0
LINE
  5
20F
330
74
100
AcDbEntity
  8
A1-----1H2_______Schraffur_1_5
  6
Continuous
 62
     7
 48
1000.0
370
    13
100
AcDbLine
 10
122.168726078004
 20
145.6647318395214
 30
0.0
 11
122.128809616278
 21
145.7518223014685
 31
0.0
  0
LINE
  5
210
330
74
100
AcDbEntity
  8
A1-----1H2_______Schraffur_1_5
  6
Continuous
 62
     7
 48
1000.0
370
    13
100
AcDbLine
 10
123.3783158272632
 20
145.6647318395214
 30
0.0
 11
123.3383993655379
 21
145.7518223014685
 31
0.0
  0
LINE
  5
211
330
74
100
AcDbEntity
  8
A1-----1H2_______Schraffur_1_5
  6
Continuous
 62
     7
 48
1000.0
370
    13
100
AcDbLine
 10
124.5879055765233
 20
145.6647318395214
 30
0.0
 11
124.547989114798
 21
145.7518223014685
 31
0.0
  0
LINE
  5
212
330
74
100
AcDbEntity
  8
A1-----1H2_______Schraffur_1_5
  6
Continuous
 62
     7
 48
1000.0
370
    13
100
AcDbLine
 10
125.797495325783
 20
145.6647318395214
 30
0.0
 11
125.7575788640573
 21
145.7518223014685
 31
0.0
  0
LINE
  5
213
330
74
100
AcDbEntity
  8
A1-----1H2_______Schraffur_1_5
  6
Continuous
 62
     7
 48
1000.0
370
    13
100
AcDbLine
 10
127.0070850750424
 20
145.6647318395214
 30
0.0
 11
126.9671686133169
 21
145.7518223014685
 31
0.0
  0
LINE
  5
214
330
74
100
AcDbEntity
  8
A1-----1H2_______Schraffur_1_5
  6
Continuous
 62
     7
 48
1000.0
370
    13
100
AcDbLine
 10
128.2166748243028
 20
145.6647318395214
 30
0.0
 11
128.1767583625768
 21
145.7518223014685
 31
0.0
  0
LINE
  5
215
330
74
100
AcDbEntity
  8
A1-----1H2_______Schraffur_1_5
  6
Continuous
 62
     7
 48
1000.0
370
    13
100
AcDbLine
 10
118.6028554971865
 20
145.6647318395214
 30
0.0
 11
118.6427719589118
 21
145.7518223014685
 31
0.0
  0
LINE
  5
216
330
74
100
AcDbEntity
  8
A1-----1H2_______Schraffur_1_5
  6
Continuous
 62
     7
 48
1000.0
370
    13
100
AcDbLine
 10
119.812445246446
 20
145.6647318395214
 30
0.0
 11
119.8523617081719
 21
145.7518223014685
 31
0.0
  0
LINE
  5
217
330
74
100
AcDbEntity
  8
A1-----1H2_______Schraffur_1_5
  6
Continuous
 62
     7
 48
1000.0
370
    13
100
AcDbLine
 10
121.0220349957059
 20
145.6647318395214
 30
0.0
 11
121.0619514574312
 21
145.7518223014685
 31
0.0
  0
LINE
  5
218
330
74
100
AcDbEntity
  8
A1-----1H2_______Schraffur_1_5
  6
Continuous
 62
     7
 48
1000.0
370
    13
100
AcDbLine
 10
122.2316247449657
 20
145.6647318395214
 30
0.0
 11
122.271541206691
 21
145.7518223014685
 31
0.0
  0
LINE
  5
219
330
74
100
AcDbEntity
  8
A1-----1H2_______Schraffur_1_5
  6
Continuous
 62
     7
 48
1000.0
370
    13
100
AcDbLine
 10
123.4412144942252
 20
145.6647318395214
 30
0.0
 11
123.4811309559507
 21
145.7518223014685
 31
0.0
  0
LINE
  5
21A
330
74
100
AcDbEntity
  8
A1-----1H2_______Schraffur_1_5
  6
Continuous
 62
     7
 48
1000.0
370
    13
100
AcDbLine
 10
124.6508042434846
 20
145.6647318395214
 30
0.0
 11
124.6907207052104
 21
145.7518223014685
 31
0.0
  0
LINE
  5
21B
330
74
100
AcDbEntity
  8
A1-----1H2_______Schraffur_1_5
  6
Continuous
 62
     7
 48
1000.0
370
    13
100
AcDbLine
 10
125.8603939927447
 20
145.6647318395214
 30
0.0
 11
125.9003104544707
 21
145.7518223014685
 31
0.0
  0
LINE
  5
21C
330
74
100
AcDbEntity
  8
A1-----1H2_______Schraffur_1_5
  6
Continuous
 62
     7
 48
1000.0
370
    13
100
AcDbLine
 10
127.069983742004
 20
145.6647318395214
 30
0.0
 11
127.1099002037299
 21
145.7518223014685
 31
0.0
  0
LINE
  5
21D
330
74
100
AcDbEntity
  8
A1-----1H2_______Schraffur_1_5
  6
Continuous
 62
     7
 48
1000.0
370
    13
100
AcDbLine
 10
128.2795734912643
 20
145.6647318395214
 30
0.0
 11
128.3194899529891
 21
145.7518223014685
 31
0.0
  0
LINE
  5
21E
330
74
100
AcDbEntity
  8
A1-----1H2_______Schraffur_1_5
  6
Continuous
 62
     7
 48
1000.0
370
    13
100
AcDbLine
 10
119.2693394490285
 20
147.256551949547
 30
0.0
 11
119.2197462693083
 21
147.1839765645917
 31
0.0
  0
LINE
  5
21F
330
74
100
AcDbEntity
  8
A1-----1H2_______Schraffur_1_5
  6
Continuous
 62
     7
 48
1000.0
370
    13
100
AcDbLine
 10
119.2197462693083
 20
147.1839765645917
 30
0.0
 11
119.1895065255775
 21
147.094466923146
 31
0.0
  0
LINE
  5
220
330
74
100
AcDbEntity
  8
A1-----1H2_______Schraffur_1_5
  6
Continuous
 62
     7
 48
1000.0
370
    13
100
AcDbLine
 10
119.1895065255775
 20
147.094466923146
 30
0.0
 11
119.1762010383357
 21
146.9420586147396
 31
0.0
  0
LINE
  5
221
330
74
100
AcDbEntity
  8
A1-----1H2_______Schraffur_1_5
  6
Continuous
 62
     7
 48
1000.0
370
    13
100
AcDbLine
 10
120.478929198288
 20
147.256551949547
 30
0.0
 11
120.4293360185684
 21
147.1839765645917
 31
0.0
  0
LINE
  5
222
330
74
100
AcDbEntity
  8
A1-----1H2_______Schraffur_1_5
  6
Continuous
 62
     7
 48
1000.0
370
    13
100
AcDbLine
 10
120.4293360185684
 20
147.1839765645917
 30
0.0
 11
120.3990962748371
 21
147.094466923146
 31
0.0
  0
LINE
  5
223
330
74
100
AcDbEntity
  8
A1-----1H2_______Schraffur_1_5
  6
Continuous
 62
     7
 48
1000.0
370
    13
100
AcDbLine
 10
120.3990962748371
 20
147.094466923146
 30
0.0
 11
120.3857907875949
 21
146.9420586147396
 31
0.0
  0
LINE
  5
224
330
74
100
AcDbEntity
  8
A1-----1H2_______Schraffur_1_5
  6
Continuous
 62
     7
 48
1000.0
370
    13
100
AcDbLine
 10
121.6885189475481
 20
147.256551949547
 30
0.0
 11
121.6389257678281
 21
147.1839765645917
 31
0.0
  0
LINE
  5
225
330
74
100
AcDbEntity
  8
A1-----1H2_______Schraffur_1_5
  6
Continuous
 62
     7
 48
1000.0
370
    13
100
AcDbLine
 10
121.6389257678281
 20
147.1839765645917
 30
0.0
 11
121.6086860240968
 21
147.094466923146
 31
0.0
  0
LINE
  5
226
330
74
100
AcDbEntity
  8
A1-----1H2_______Schraffur_1_5
  6
Continuous
 62
     7
 48
1000.0
370
    13
100
AcDbLine
 10
121.6086860240968
 20
147.094466923146
 30
0.0
 11
121.595380536855
 21
146.9420586147396
 31
0.0
  0
LINE
  5
227
330
74
100
AcDbEntity
  8
A1-----1H2_______Schraffur_1_5
  6
Continuous
 62
     7
 48
1000.0
370
    13
100
AcDbLine
 10
122.8981086968073
 20
147.256551949547
 30
0.0
 11
122.848515517088
 21
147.1839765645917
 31
0.0
  0
LINE
  5
228
330
74
100
AcDbEntity
  8
A1-----1H2_______Schraffur_1_5
  6
Continuous
 62
     7
 48
1000.0
370
    13
100
AcDbLine
 10
122.848515517088
 20
147.1839765645917
 30
0.0
 11
122.8182757733567
 21
147.094466923146
 31
0.0
  0
LINE
  5
229
330
74
100
AcDbEntity
  8
A1-----1H2_______Schraffur_1_5
  6
Continuous
 62
     7
 48
1000.0
370
    13
100
AcDbLine
 10
122.8182757733567
 20
147.094466923146
 30
0.0
 11
122.8049702861143
 21
146.9420586147396
 31
0.0
  0
LINE
  5
22A
330
74
100
AcDbEntity
  8
A1-----1H2_______Schraffur_1_5
  6
Continuous
 62
     7
 48
1000.0
370
    13
100
AcDbLine
 10
124.1076984460672
 20
147.256551949547
 30
0.0
 11
124.0581052663472
 21
147.1839765645917
 31
0.0
  0
LINE
  5
22B
330
74
100
AcDbEntity
  8
A1-----1H2_______Schraffur_1_5
  6
Continuous
 62
     7
 48
1000.0
370
    13
100
AcDbLine
 10
124.0581052663472
 20
147.1839765645917
 30
0.0
 11
124.0278655226159
 21
147.094466923146
 31
0.0
  0
LINE
  5
22C
330
74
100
AcDbEntity
  8
A1-----1H2_______Schraffur_1_5
  6
Continuous
 62
     7
 48
1000.0
370
    13
100
AcDbLine
 10
124.0278655226159
 20
147.094466923146
 30
0.0
 11
124.0145600353741
 21
146.9420586147396
 31
0.0
  0
LINE
  5
22D
330
74
100
AcDbEntity
  8
A1-----1H2_______Schraffur_1_5
  6
Continuous
 62
     7
 48
1000.0
370
    13
100
AcDbLine
 10
125.3172881953268
 20
147.256551949547
 30
0.0
 11
125.2676950156073
 21
147.1839765645917
 31
0.0
  0
LINE
  5
22E
330
74
100
AcDbEntity
  8
A1-----1H2_______Schraffur_1_5
  6
Continuous
 62
     7
 48
1000.0
370
    13
100
AcDbLine
 10
125.2676950156073
 20
147.1839765645917
 30
0.0
 11
125.2374552718751
 21
147.094466923146
 31
0.0
  0
LINE
  5
22F
330
74
100
AcDbEntity
  8
A1-----1H2_______Schraffur_1_5
  6
Continuous
 62
     7
 48
1000.0
370
    13
100
AcDbLine
 10
125.2374552718751
 20
147.094466923146
 30
0.0
 11
125.2241497846338
 21
146.9420586147396
 31
0.0
  0
LINE
  5
230
330
74
100
AcDbEntity
  8
A1-----1H2_______Schraffur_1_5
  6
Continuous
 62
     7
 48
1000.0
370
    13
100
AcDbLine
 10
126.5268779445865
 20
147.256551949547
 30
0.0
 11
126.4772847648668
 21
147.1839765645917
 31
0.0
  0
LINE
  5
231
330
74
100
AcDbEntity
  8
A1-----1H2_______Schraffur_1_5
  6
Continuous
 62
     7
 48
1000.0
370
    13
100
AcDbLine
 10
126.4772847648668
 20
147.1839765645917
 30
0.0
 11
126.4470450211355
 21
147.094466923146
 31
0.0
  0
LINE
  5
232
330
74
100
AcDbEntity
  8
A1-----1H2_______Schraffur_1_5
  6
Continuous
 62
     7
 48
1000.0
370
    13
100
AcDbLine
 10
126.4470450211355
 20
147.094466923146
 30
0.0
 11
126.4337395338937
 21
146.9420586147396
 31
0.0
  0
LINE
  5
233
330
74
100
AcDbEntity
  8
A1-----1H2_______Schraffur_1_5
  6
Continuous
 62
     7
 48
1000.0
370
    13
100
AcDbLine
 10
127.7364676938462
 20
147.256551949547
 30
0.0
 11
127.6868745141264
 21
147.1839765645917
 31
0.0
  0
LINE
  5
234
330
74
100
AcDbEntity
  8
A1-----1H2_______Schraffur_1_5
  6
Continuous
 62
     7
 48
1000.0
370
    13
100
AcDbLine
 10
127.6868745141264
 20
147.1839765645917
 30
0.0
 11
127.6566347703949
 21
147.094466923146
 31
0.0
  0
LINE
  5
235
330
74
100
AcDbEntity
  8
A1-----1H2_______Schraffur_1_5
  6
Continuous
 62
     7
 48
1000.0
370
    13
100
AcDbLine
 10
127.6566347703949
 20
147.094466923146
 30
0.0
 11
127.6433292831531
 21
146.9420586147396
 31
0.0
  0
LINE
  5
236
330
74
100
AcDbEntity
  8
A1-----1H2_______Schraffur_1_5
  6
Continuous
 62
     7
 48
1000.0
370
    13
100
AcDbLine
 10
128.946057443106
 20
147.256551949547
 30
0.0
 11
128.8964642633867
 21
147.1839765645917
 31
0.0
  0
LINE
  5
237
330
74
100
AcDbEntity
  8
A1-----1H2_______Schraffur_1_5
  6
Continuous
 62
     7
 48
1000.0
370
    13
100
AcDbLine
 10
128.8964642633867
 20
147.1839765645917
 30
0.0
 11
128.8662245196548
 21
147.094466923146
 31
0.0
  0
LINE
  5
238
330
74
100
AcDbEntity
  8
A1-----1H2_______Schraffur_1_5
  6
Continuous
 62
     7
 48
1000.0
370
    13
100
AcDbLine
 10
128.8662245196548
 20
147.094466923146
 30
0.0
 11
128.852919032413
 21
146.9420586147396
 31
0.0
  0
LINE
  5
239
330
74
100
AcDbEntity
  8
A1-----1H2_______Schraffur_1_5
  6
Continuous
 62
     7
 48
1000.0
370
    13
100
AcDbLine
 10
119.1882969358282
 20
146.8041653833239
 30
0.0
 11
119.2076503718162
 21
146.7194941008758
 31
0.0
  0
LINE
  5
23A
330
74
100
AcDbEntity
  8
A1-----1H2_______Schraffur_1_5
  6
Continuous
 62
     7
 48
1000.0
370
    13
100
AcDbLine
 10
119.2076503718162
 20
146.7194941008758
 30
0.0
 11
119.247566833542
 21
146.632403638929
 31
0.0
  0
LINE
  5
23B
330
74
100
AcDbEntity
  8
A1-----1H2_______Schraffur_1_5
  6
Continuous
 62
     7
 48
1000.0
370
    13
100
AcDbLine
 10
120.3978866850874
 20
146.8041653833239
 30
0.0
 11
120.4172401210761
 21
146.7194941008758
 31
0.0
  0
LINE
  5
23C
330
74
100
AcDbEntity
  8
A1-----1H2_______Schraffur_1_5
  6
Continuous
 62
     7
 48
1000.0
370
    13
100
AcDbLine
 10
120.4172401210761
 20
146.7194941008758
 30
0.0
 11
120.4571565828014
 21
146.632403638929
 31
0.0
  0
LINE
  5
23D
330
74
100
AcDbEntity
  8
A1-----1H2_______Schraffur_1_5
  6
Continuous
 62
     7
 48
1000.0
370
    13
100
AcDbLine
 10
121.6074764343478
 20
146.8041653833239
 30
0.0
 11
121.6268298703358
 21
146.7194941008758
 31
0.0
  0
LINE
  5
23E
330
74
100
AcDbEntity
  8
A1-----1H2_______Schraffur_1_5
  6
Continuous
 62
     7
 48
1000.0
370
    13
100
AcDbLine
 10
121.6268298703358
 20
146.7194941008758
 30
0.0
 11
121.6667463320615
 21
146.632403638929
 31
0.0
  0
LINE
  5
23F
330
74
100
AcDbEntity
  8
A1-----1H2_______Schraffur_1_5
  6
Continuous
 62
     7
 48
1000.0
370
    13
100
AcDbLine
 10
122.817066183607
 20
146.8041653833239
 30
0.0
 11
122.8364196195955
 21
146.7194941008758
 31
0.0
  0
LINE
  5
240
330
74
100
AcDbEntity
  8
A1-----1H2_______Schraffur_1_5
  6
Continuous
 62
     7
 48
1000.0
370
    13
100
AcDbLine
 10
122.8364196195955
 20
146.7194941008758
 30
0.0
 11
122.8763360813212
 21
146.632403638929
 31
0.0
  0
LINE
  5
241
330
74
100
AcDbEntity
  8
A1-----1H2_______Schraffur_1_5
  6
Continuous
 62
     7
 48
1000.0
370
    13
100
AcDbLine
 10
124.0266559328671
 20
146.8041653833239
 30
0.0
 11
124.0460093688554
 21
146.7194941008758
 31
0.0
  0
LINE
  5
242
330
74
100
AcDbEntity
  8
A1-----1H2_______Schraffur_1_5
  6
Continuous
 62
     7
 48
1000.0
370
    13
100
AcDbLine
 10
124.0460093688554
 20
146.7194941008758
 30
0.0
 11
124.0859258305804
 21
146.632403638929
 31
0.0
  0
LINE
  5
243
330
74
100
AcDbEntity
  8
A1-----1H2_______Schraffur_1_5
  6
Continuous
 62
     7
 48
1000.0
370
    13
100
AcDbLine
 10
125.2362456821263
 20
146.8041653833239
 30
0.0
 11
125.2555991181148
 21
146.7194941008758
 31
0.0
  0
LINE
  5
244
330
74
100
AcDbEntity
  8
A1-----1H2_______Schraffur_1_5
  6
Continuous
 62
     7
 48
1000.0
370
    13
100
AcDbLine
 10
125.2555991181148
 20
146.7194941008758
 30
0.0
 11
125.2955155798403
 21
146.632403638929
 31
0.0
  0
LINE
  5
245
330
74
100
AcDbEntity
  8
A1-----1H2_______Schraffur_1_5
  6
Continuous
 62
     7
 48
1000.0
370
    13
100
AcDbLine
 10
126.4458354313862
 20
146.8041653833239
 30
0.0
 11
126.4651888673747
 21
146.7194941008758
 31
0.0
  0
LINE
  5
246
330
74
100
AcDbEntity
  8
A1-----1H2_______Schraffur_1_5
  6
Continuous
 62
     7
 48
1000.0
370
    13
100
AcDbLine
 10
126.4651888673747
 20
146.7194941008758
 30
0.0
 11
126.5051053291
 21
146.632403638929
 31
0.0
  0
LINE
  5
247
330
74
100
AcDbEntity
  8
A1-----1H2_______Schraffur_1_5
  6
Continuous
 62
     7
 48
1000.0
370
    13
100
AcDbLine
 10
127.6747786166339
 20
146.7194941008758
 30
0.0
 11
127.7146950783599
 21
146.632403638929
 31
0.0
  0
LINE
  5
248
330
74
100
AcDbEntity
  8
A1-----1H2_______Schraffur_1_5
  6
Continuous
 62
     7
 48
1000.0
370
    13
100
AcDbLine
 10
128.884368365894
 20
146.7194941008758
 30
0.0
 11
128.9242848276193
 21
146.632403638929
 31
0.0
  0
LINE
  5
249
330
74
100
AcDbEntity
  8
A1-----1H2_______Schraffur_1_5
  6
Continuous
 62
     7
 48
1000.0
370
    13
100
AcDbLine
 10
118.5714061637057
 20
147.4017027194583
 30
0.0
 11
118.5832648866132
 21
147.4017027194583
 31
0.0
  0
LINE
  5
24A
330
74
100
AcDbEntity
  8
A1-----1H2_______Schraffur_1_5
  6
Continuous
 62
     7
 48
1000.0
370
    13
100
AcDbLine
 10
119.7809959129654
 20
147.4017027194583
 30
0.0
 11
119.7928546358724
 21
147.4017027194583
 31
0.0
  0
LINE
  5
24B
330
74
100
AcDbEntity
  8
A1-----1H2_______Schraffur_1_5
  6
Continuous
 62
     7
 48
1000.0
370
    13
100
AcDbLine
 10
120.9905856622249
 20
147.4017027194583
 30
0.0
 11
121.0024443851321
 21
147.4017027194583
 31
0.0
  0
LINE
  5
24C
330
74
100
AcDbEntity
  8
A1-----1H2_______Schraffur_1_5
  6
Continuous
 62
     7
 48
1000.0
370
    13
100
AcDbLine
 10
122.200175411485
 20
147.4017027194583
 30
0.0
 11
122.212034134392
 21
147.4017027194583
 31
0.0
  0
LINE
  5
24D
330
74
100
AcDbEntity
  8
A1-----1H2_______Schraffur_1_5
  6
Continuous
 62
     7
 48
1000.0
370
    13
100
AcDbLine
 10
123.4097651607446
 20
147.4017027194583
 30
0.0
 11
123.4216238836521
 21
147.4017027194583
 31
0.0
  0
LINE
  5
24E
330
74
100
AcDbEntity
  8
A1-----1H2_______Schraffur_1_5
  6
Continuous
 62
     7
 48
1000.0
370
    13
100
AcDbLine
 10
124.6193549100041
 20
147.4017027194583
 30
0.0
 11
124.6312136329113
 21
147.4017027194583
 31
0.0
  0
LINE
  5
24F
330
74
100
AcDbEntity
  8
A1-----1H2_______Schraffur_1_5
  6
Continuous
 62
     7
 48
1000.0
370
    13
100
AcDbLine
 10
125.8289446592638
 20
147.4017027194583
 30
0.0
 11
125.840803382171
 21
147.4017027194583
 31
0.0
  0
LINE
  5
250
330
74
100
AcDbEntity
  8
A1-----1H2_______Schraffur_1_5
  6
Continuous
 62
     7
 48
1000.0
370
    13
100
AcDbLine
 10
127.0385344085239
 20
147.4017027194583
 30
0.0
 11
127.0503931314309
 21
147.4017027194583
 31
0.0
  0
LINE
  5
251
330
74
100
AcDbEntity
  8
A1-----1H2_______Schraffur_1_5
  6
Continuous
 62
     7
 48
1000.0
370
    13
100
AcDbLine
 10
128.2481241577831
 20
147.4017027194583
 30
0.0
 11
128.2599828806901
 21
147.4017027194583
 31
0.0
  0
LINE
  5
252
330
74
100
AcDbEntity
  8
A1-----1H2_______Schraffur_1_5
  6
Continuous
 62
     7
 48
1000.0
370
    13
100
AcDbLine
 10
119.6443122712989
 20
147.387187642467
 30
0.0
 11
119.4616642191608
 21
147.3654150269807
 31
0.0
  0
LINE
  5
253
330
74
100
AcDbEntity
  8
A1-----1H2_______Schraffur_1_5
  6
Continuous
 62
     7
 48
1000.0
370
    13
100
AcDbLine
 10
119.4616642191608
 20
147.3654150269807
 30
0.0
 11
119.360058680223
 21
147.3339656935
 31
0.0
  0
LINE
  5
254
330
74
100
AcDbEntity
  8
A1-----1H2_______Schraffur_1_5
  6
Continuous
 62
     7
 48
1000.0
370
    13
100
AcDbLine
 10
119.360058680223
 20
147.3339656935
 30
0.0
 11
119.2693394490285
 21
147.256551949547
 31
0.0
  0
LINE
  5
255
330
74
100
AcDbEntity
  8
A1-----1H2_______Schraffur_1_5
  6
Continuous
 62
     7
 48
1000.0
370
    13
100
AcDbLine
 10
120.8539020205588
 20
147.387187642467
 30
0.0
 11
120.6712539684205
 21
147.3654150269807
 31
0.0
  0
LINE
  5
256
330
74
100
AcDbEntity
  8
A1-----1H2_______Schraffur_1_5
  6
Continuous
 62
     7
 48
1000.0
370
    13
100
AcDbLine
 10
120.6712539684205
 20
147.3654150269807
 30
0.0
 11
120.5696484294823
 21
147.3339656935
 31
0.0
  0
LINE
  5
257
330
74
100
AcDbEntity
  8
A1-----1H2_______Schraffur_1_5
  6
Continuous
 62
     7
 48
1000.0
370
    13
100
AcDbLine
 10
120.5696484294823
 20
147.3339656935
 30
0.0
 11
120.478929198288
 21
147.256551949547
 31
0.0
  0
LINE
  5
258
330
74
100
AcDbEntity
  8
A1-----1H2_______Schraffur_1_5
  6
Continuous
 62
     7
 48
1000.0
370
    13
100
AcDbLine
 10
122.0634917698185
 20
147.387187642467
 30
0.0
 11
121.8808437176804
 21
147.3654150269807
 31
0.0
  0
LINE
  5
259
330
74
100
AcDbEntity
  8
A1-----1H2_______Schraffur_1_5
  6
Continuous
 62
     7
 48
1000.0
370
    13
100
AcDbLine
 10
121.8808437176804
 20
147.3654150269807
 30
0.0
 11
121.7792381787426
 21
147.3339656935
 31
0.0
  0
LINE
  5
25A
330
74
100
AcDbEntity
  8
A1-----1H2_______Schraffur_1_5
  6
Continuous
 62
     7
 48
1000.0
370
    13
100
AcDbLine
 10
121.7792381787426
 20
147.3339656935
 30
0.0
 11
121.6885189475481
 21
147.256551949547
 31
0.0
  0
LINE
  5
25B
330
74
100
AcDbEntity
  8
A1-----1H2_______Schraffur_1_5
  6
Continuous
 62
     7
 48
1000.0
370
    13
100
AcDbLine
 10
123.2730815190781
 20
147.387187642467
 30
0.0
 11
123.0904334669396
 21
147.3654150269807
 31
0.0
  0
LINE
  5
25C
330
74
100
AcDbEntity
  8
A1-----1H2_______Schraffur_1_5
  6
Continuous
 62
     7
 48
1000.0
370
    13
100
AcDbLine
 10
123.0904334669396
 20
147.3654150269807
 30
0.0
 11
122.9888279280023
 21
147.3339656935
 31
0.0
  0
LINE
  5
25D
330
74
100
AcDbEntity
  8
A1-----1H2_______Schraffur_1_5
  6
Continuous
 62
     7
 48
1000.0
370
    13
100
AcDbLine
 10
122.9888279280023
 20
147.3339656935
 30
0.0
 11
122.8981086968073
 21
147.256551949547
 31
0.0
  0
LINE
  5
25E
330
74
100
AcDbEntity
  8
A1-----1H2_______Schraffur_1_5
  6
Continuous
 62
     7
 48
1000.0
370
    13
100
AcDbLine
 10
124.4826712683378
 20
147.387187642467
 30
0.0
 11
124.3000232161999
 21
147.3654150269807
 31
0.0
  0
LINE
  5
25F
330
74
100
AcDbEntity
  8
A1-----1H2_______Schraffur_1_5
  6
Continuous
 62
     7
 48
1000.0
370
    13
100
AcDbLine
 10
124.3000232161999
 20
147.3654150269807
 30
0.0
 11
124.1984176772615
 21
147.3339656935
 31
0.0
  0
LINE
  5
260
330
74
100
AcDbEntity
  8
A1-----1H2_______Schraffur_1_5
  6
Continuous
 62
     7
 48
1000.0
370
    13
100
AcDbLine
 10
124.1984176772615
 20
147.3339656935
 30
0.0
 11
124.1076984460672
 21
147.256551949547
 31
0.0
  0
LINE
  5
261
330
74
100
AcDbEntity
  8
A1-----1H2_______Schraffur_1_5
  6
Continuous
 62
     7
 48
1000.0
370
    13
100
AcDbLine
 10
125.6922610175977
 20
147.387187642467
 30
0.0
 11
125.5096129654594
 21
147.3654150269807
 31
0.0
  0
LINE
  5
262
330
74
100
AcDbEntity
  8
A1-----1H2_______Schraffur_1_5
  6
Continuous
 62
     7
 48
1000.0
370
    13
100
AcDbLine
 10
125.5096129654594
 20
147.3654150269807
 30
0.0
 11
125.4080074265218
 21
147.3339656935
 31
0.0
  0
LINE
  5
263
330
74
100
AcDbEntity
  8
A1-----1H2_______Schraffur_1_5
  6
Continuous
 62
     7
 48
1000.0
370
    13
100
AcDbLine
 10
125.4080074265218
 20
147.3339656935
 30
0.0
 11
125.3172881953268
 21
147.256551949547
 31
0.0
  0
LINE
  5
264
330
74
100
AcDbEntity
  8
A1-----1H2_______Schraffur_1_5
  6
Continuous
 62
     7
 48
1000.0
370
    13
100
AcDbLine
 10
126.9018507668573
 20
147.387187642467
 30
0.0
 11
126.7192027147186
 21
147.3654150269807
 31
0.0
  0
LINE
  5
265
330
74
100
AcDbEntity
  8
A1-----1H2_______Schraffur_1_5
  6
Continuous
 62
     7
 48
1000.0
370
    13
100
AcDbLine
 10
126.7192027147186
 20
147.3654150269807
 30
0.0
 11
126.617597175781
 21
147.3339656935
 31
0.0
  0
LINE
  5
266
330
74
100
AcDbEntity
  8
A1-----1H2_______Schraffur_1_5
  6
Continuous
 62
     7
 48
1000.0
370
    13
100
AcDbLine
 10
126.617597175781
 20
147.3339656935
 30
0.0
 11
126.5268779445865
 21
147.256551949547
 31
0.0
  0
LINE
  5
267
330
74
100
AcDbEntity
  8
A1-----1H2_______Schraffur_1_5
  6
Continuous
 62
     7
 48
1000.0
370
    13
100
AcDbLine
 10
128.111440516117
 20
147.387187642467
 30
0.0
 11
127.9287924639789
 21
147.3654150269807
 31
0.0
  0
LINE
  5
268
330
74
100
AcDbEntity
  8
A1-----1H2_______Schraffur_1_5
  6
Continuous
 62
     7
 48
1000.0
370
    13
100
AcDbLine
 10
127.9287924639789
 20
147.3654150269807
 30
0.0
 11
127.8271869250403
 21
147.3339656935
 31
0.0
  0
LINE
  5
269
330
74
100
AcDbEntity
  8
A1-----1H2_______Schraffur_1_5
  6
Continuous
 62
     7
 48
1000.0
370
    13
100
AcDbLine
 10
127.8271869250403
 20
147.3339656935
 30
0.0
 11
127.7364676938462
 21
147.256551949547
 31
0.0
  0
LINE
  5
26A
330
74
100
AcDbEntity
  8
A1-----1H2_______Schraffur_1_5
  6
Continuous
 62
     7
 48
1000.0
370
    13
100
AcDbLine
 10
129.0052051537471
 20
147.3070246626274
 30
0.0
 11
128.946057443106
 21
147.256551949547
 31
0.0
  0
LINE
  5
26B
330
74
100
AcDbEntity
  8
A1-----1H2_______Schraffur_1_5
  6
Continuous
 62
     7
 48
1000.0
370
    13
100
AcDbLine
 10
118.5714061637078
 20
147.4017027194581
 30
0.0
 11
118.7080898053723
 21
147.387187642467
 31
0.0
  0
LINE
  5
26C
330
74
100
AcDbEntity
  8
A1-----1H2_______Schraffur_1_5
  6
Continuous
 62
     7
 48
1000.0
370
    13
100
AcDbLine
 10
118.7080898053723
 20
147.387187642467
 30
0.0
 11
118.8907378575101
 21
147.3654150269807
 31
0.0
  0
LINE
  5
26D
330
74
100
AcDbEntity
  8
A1-----1H2_______Schraffur_1_5
  6
Continuous
 62
     7
 48
1000.0
370
    13
100
AcDbLine
 10
118.8907378575101
 20
147.3654150269807
 30
0.0
 11
118.9923433964484
 21
147.3339656935
 31
0.0
  0
LINE
  5
26E
330
74
100
AcDbEntity
  8
A1-----1H2_______Schraffur_1_5
  6
Continuous
 62
     7
 48
1000.0
370
    13
100
AcDbLine
 10
118.9923433964484
 20
147.3339656935
 30
0.0
 11
119.0830626276427
 21
147.256551949547
 31
0.0
  0
LINE
  5
26F
330
74
100
AcDbEntity
  8
A1-----1H2_______Schraffur_1_5
  6
Continuous
 62
     7
 48
1000.0
370
    13
100
AcDbLine
 10
119.0830626276427
 20
147.256551949547
 30
0.0
 11
119.1326558073627
 21
147.1839765645917
 31
0.0
  0
LINE
  5
270
330
74
100
AcDbEntity
  8
A1-----1H2_______Schraffur_1_5
  6
Continuous
 62
     7
 48
1000.0
370
    13
100
AcDbLine
 10
119.1326558073627
 20
147.1839765645917
 30
0.0
 11
119.1628955510939
 21
147.094466923146
 31
0.0
  0
LINE
  5
271
330
74
100
AcDbEntity
  8
A1-----1H2_______Schraffur_1_5
  6
Continuous
 62
     7
 48
1000.0
370
    13
100
AcDbLine
 10
119.1628955510939
 20
147.094466923146
 30
0.0
 11
119.1762010383357
 21
146.9420586147396
 31
0.0
  0
LINE
  5
272
330
74
100
AcDbEntity
  8
A1-----1H2_______Schraffur_1_5
  6
Continuous
 62
     7
 48
1000.0
370
    13
100
AcDbLine
 10
119.7809959129674
 20
147.4017027194581
 30
0.0
 11
119.9176795546317
 21
147.387187642467
 31
0.0
  0
LINE
  5
273
330
74
100
AcDbEntity
  8
A1-----1H2_______Schraffur_1_5
  6
Continuous
 62
     7
 48
1000.0
370
    13
100
AcDbLine
 10
119.9176795546317
 20
147.387187642467
 30
0.0
 11
120.1003276067703
 21
147.3654150269807
 31
0.0
  0
LINE
  5
274
330
74
100
AcDbEntity
  8
A1-----1H2_______Schraffur_1_5
  6
Continuous
 62
     7
 48
1000.0
370
    13
100
AcDbLine
 10
120.1003276067703
 20
147.3654150269807
 30
0.0
 11
120.2019331457076
 21
147.3339656935
 31
0.0
  0
LINE
  5
275
330
74
100
AcDbEntity
  8
A1-----1H2_______Schraffur_1_5
  6
Continuous
 62
     7
 48
1000.0
370
    13
100
AcDbLine
 10
120.2019331457076
 20
147.3339656935
 30
0.0
 11
120.2926523769026
 21
147.256551949547
 31
0.0
  0
LINE
  5
276
330
74
100
AcDbEntity
  8
A1-----1H2_______Schraffur_1_5
  6
Continuous
 62
     7
 48
1000.0
370
    13
100
AcDbLine
 10
120.2926523769026
 20
147.256551949547
 30
0.0
 11
120.3422455566219
 21
147.1839765645917
 31
0.0
  0
LINE
  5
277
330
74
100
AcDbEntity
  8
A1-----1H2_______Schraffur_1_5
  6
Continuous
 62
     7
 48
1000.0
370
    13
100
AcDbLine
 10
120.3422455566219
 20
147.1839765645917
 30
0.0
 11
120.3724853003532
 21
147.094466923146
 31
0.0
  0
LINE
  5
278
330
74
100
AcDbEntity
  8
A1-----1H2_______Schraffur_1_5
  6
Continuous
 62
     7
 48
1000.0
370
    13
100
AcDbLine
 10
120.3724853003532
 20
147.094466923146
 30
0.0
 11
120.3857907875949
 21
146.9420586147396
 31
0.0
  0
LINE
  5
279
330
74
100
AcDbEntity
  8
A1-----1H2_______Schraffur_1_5
  6
Continuous
 62
     7
 48
1000.0
370
    13
100
AcDbLine
 10
120.9905856622253
 20
147.4017027194581
 30
0.0
 11
121.1272693038914
 21
147.387187642467
 31
0.0
  0
LINE
  5
27A
330
74
100
AcDbEntity
  8
A1-----1H2_______Schraffur_1_5
  6
Continuous
 62
     7
 48
1000.0
370
    13
100
AcDbLine
 10
121.1272693038914
 20
147.387187642467
 30
0.0
 11
121.3099173560295
 21
147.3654150269807
 31
0.0
  0
LINE
  5
27B
330
74
100
AcDbEntity
  8
A1-----1H2_______Schraffur_1_5
  6
Continuous
 62
     7
 48
1000.0
370
    13
100
AcDbLine
 10
121.3099173560295
 20
147.3654150269807
 30
0.0
 11
121.4115228949673
 21
147.3339656935
 31
0.0
  0
LINE
  5
27C
330
74
100
AcDbEntity
  8
A1-----1H2_______Schraffur_1_5
  6
Continuous
 62
     7
 48
1000.0
370
    13
100
AcDbLine
 10
121.4115228949673
 20
147.3339656935
 30
0.0
 11
121.5022421261618
 21
147.256551949547
 31
0.0
  0
LINE
  5
27D
330
74
100
AcDbEntity
  8
A1-----1H2_______Schraffur_1_5
  6
Continuous
 62
     7
 48
1000.0
370
    13
100
AcDbLine
 10
121.5022421261618
 20
147.256551949547
 30
0.0
 11
121.551835305882
 21
147.1839765645917
 31
0.0
  0
LINE
  5
27E
330
74
100
AcDbEntity
  8
A1-----1H2_______Schraffur_1_5
  6
Continuous
 62
     7
 48
1000.0
370
    13
100
AcDbLine
 10
121.551835305882
 20
147.1839765645917
 30
0.0
 11
121.5820750496133
 21
147.094466923146
 31
0.0
  0
LINE
  5
27F
330
74
100
AcDbEntity
  8
A1-----1H2_______Schraffur_1_5
  6
Continuous
 62
     7
 48
1000.0
370
    13
100
AcDbLine
 10
121.5820750496133
 20
147.094466923146
 30
0.0
 11
121.595380536855
 21
146.9420586147396
 31
0.0
  0
LINE
  5
280
330
74
100
AcDbEntity
  8
A1-----1H2_______Schraffur_1_5
  6
Continuous
 62
     7
 48
1000.0
370
    13
100
AcDbLine
 10
122.2001754114852
 20
147.4017027194581
 30
0.0
 11
122.3368590531511
 21
147.387187642467
 31
0.0
  0
LINE
  5
281
330
74
100
AcDbEntity
  8
A1-----1H2_______Schraffur_1_5
  6
Continuous
 62
     7
 48
1000.0
370
    13
100
AcDbLine
 10
122.3368590531511
 20
147.387187642467
 30
0.0
 11
122.5195071052894
 21
147.3654150269807
 31
0.0
  0
LINE
  5
282
330
74
100
AcDbEntity
  8
A1-----1H2_______Schraffur_1_5
  6
Continuous
 62
     7
 48
1000.0
370
    13
100
AcDbLine
 10
122.5195071052894
 20
147.3654150269807
 30
0.0
 11
122.6211126442276
 21
147.3339656935
 31
0.0
  0
LINE
  5
283
330
74
100
AcDbEntity
  8
A1-----1H2_______Schraffur_1_5
  6
Continuous
 62
     7
 48
1000.0
370
    13
100
AcDbLine
 10
122.6211126442276
 20
147.3339656935
 30
0.0
 11
122.7118318754212
 21
147.256551949547
 31
0.0
  0
LINE
  5
284
330
74
100
AcDbEntity
  8
A1-----1H2_______Schraffur_1_5
  6
Continuous
 62
     7
 48
1000.0
370
    13
100
AcDbLine
 10
122.7118318754212
 20
147.256551949547
 30
0.0
 11
122.7614250551412
 21
147.1839765645917
 31
0.0
  0
LINE
  5
285
330
74
100
AcDbEntity
  8
A1-----1H2_______Schraffur_1_5
  6
Continuous
 62
     7
 48
1000.0
370
    13
100
AcDbLine
 10
122.7614250551412
 20
147.1839765645917
 30
0.0
 11
122.7916647988725
 21
147.094466923146
 31
0.0
  0
LINE
  5
286
330
74
100
AcDbEntity
  8
A1-----1H2_______Schraffur_1_5
  6
Continuous
 62
     7
 48
1000.0
370
    13
100
AcDbLine
 10
122.7916647988725
 20
147.094466923146
 30
0.0
 11
122.8049702861143
 21
146.9420586147396
 31
0.0
  0
LINE
  5
287
330
74
100
AcDbEntity
  8
A1-----1H2_______Schraffur_1_5
  6
Continuous
 62
     7
 48
1000.0
370
    13
100
AcDbLine
 10
123.4097651607446
 20
147.4017027194581
 30
0.0
 11
123.5464488024109
 21
147.387187642467
 31
0.0
  0
LINE
  5
288
330
74
100
AcDbEntity
  8
A1-----1H2_______Schraffur_1_5
  6
Continuous
 62
     7
 48
1000.0
370
    13
100
AcDbLine
 10
123.5464488024109
 20
147.387187642467
 30
0.0
 11
123.7290968545488
 21
147.3654150269807
 31
0.0
  0
LINE
  5
289
330
74
100
AcDbEntity
  8
A1-----1H2_______Schraffur_1_5
  6
Continuous
 62
     7
 48
1000.0
370
    13
100
AcDbLine
 10
123.7290968545488
 20
147.3654150269807
 30
0.0
 11
123.8307023934868
 21
147.3339656935
 31
0.0
  0
LINE
  5
28A
330
74
100
AcDbEntity
  8
A1-----1H2_______Schraffur_1_5
  6
Continuous
 62
     7
 48
1000.0
370
    13
100
AcDbLine
 10
123.8307023934868
 20
147.3339656935
 30
0.0
 11
123.9214216246811
 21
147.256551949547
 31
0.0
  0
LINE
  5
28B
330
74
100
AcDbEntity
  8
A1-----1H2_______Schraffur_1_5
  6
Continuous
 62
     7
 48
1000.0
370
    13
100
AcDbLine
 10
123.9214216246811
 20
147.256551949547
 30
0.0
 11
123.9710148044009
 21
147.1839765645917
 31
0.0
  0
LINE
  5
28C
330
74
100
AcDbEntity
  8
A1-----1H2_______Schraffur_1_5
  6
Continuous
 62
     7
 48
1000.0
370
    13
100
AcDbLine
 10
123.9710148044009
 20
147.1839765645917
 30
0.0
 11
124.0012545481324
 21
147.094466923146
 31
0.0
  0
LINE
  5
28D
330
74
100
AcDbEntity
  8
A1-----1H2_______Schraffur_1_5
  6
Continuous
 62
     7
 48
1000.0
370
    13
100
AcDbLine
 10
124.0012545481324
 20
147.094466923146
 30
0.0
 11
124.0145600353741
 21
146.9420586147396
 31
0.0
  0
LINE
  5
28E
330
74
100
AcDbEntity
  8
A1-----1H2_______Schraffur_1_5
  6
Continuous
 62
     7
 48
1000.0
370
    13
100
AcDbLine
 10
124.6193549100063
 20
147.4017027194581
 30
0.0
 11
124.7560385516704
 21
147.387187642467
 31
0.0
  0
LINE
  5
28F
330
74
100
AcDbEntity
  8
A1-----1H2_______Schraffur_1_5
  6
Continuous
 62
     7
 48
1000.0
370
    13
100
AcDbLine
 10
124.7560385516704
 20
147.387187642467
 30
0.0
 11
124.9386866038087
 21
147.3654150269807
 31
0.0
  0
LINE
  5
290
330
74
100
AcDbEntity
  8
A1-----1H2_______Schraffur_1_5
  6
Continuous
 62
     7
 48
1000.0
370
    13
100
AcDbLine
 10
124.9386866038087
 20
147.3654150269807
 30
0.0
 11
125.0402921427465
 21
147.3339656935
 31
0.0
  0
LINE
  5
291
330
74
100
AcDbEntity
  8
A1-----1H2_______Schraffur_1_5
  6
Continuous
 62
     7
 48
1000.0
370
    13
100
AcDbLine
 10
125.0402921427465
 20
147.3339656935
 30
0.0
 11
125.131011373941
 21
147.256551949547
 31
0.0
  0
LINE
  5
292
330
74
100
AcDbEntity
  8
A1-----1H2_______Schraffur_1_5
  6
Continuous
 62
     7
 48
1000.0
370
    13
100
AcDbLine
 10
125.131011373941
 20
147.256551949547
 30
0.0
 11
125.1806045536608
 21
147.1839765645917
 31
0.0
  0
LINE
  5
293
330
74
100
AcDbEntity
  8
A1-----1H2_______Schraffur_1_5
  6
Continuous
 62
     7
 48
1000.0
370
    13
100
AcDbLine
 10
125.1806045536608
 20
147.1839765645917
 30
0.0
 11
125.210844297392
 21
147.094466923146
 31
0.0
  0
LINE
  5
294
330
74
100
AcDbEntity
  8
A1-----1H2_______Schraffur_1_5
  6
Continuous
 62
     7
 48
1000.0
370
    13
100
AcDbLine
 10
125.210844297392
 20
147.094466923146
 30
0.0
 11
125.2241497846338
 21
146.9420586147396
 31
0.0
  0
LINE
  5
295
330
74
100
AcDbEntity
  8
A1-----1H2_______Schraffur_1_5
  6
Continuous
 62
     7
 48
1000.0
370
    13
100
AcDbLine
 10
125.828944659266
 20
147.4017027194581
 30
0.0
 11
125.9656283009303
 21
147.387187642467
 31
0.0
  0
LINE
  5
296
330
74
100
AcDbEntity
  8
A1-----1H2_______Schraffur_1_5
  6
Continuous
 62
     7
 48
1000.0
370
    13
100
AcDbLine
 10
125.9656283009303
 20
147.387187642467
 30
0.0
 11
126.1482763530684
 21
147.3654150269807
 31
0.0
  0
LINE
  5
297
330
74
100
AcDbEntity
  8
A1-----1H2_______Schraffur_1_5
  6
Continuous
 62
     7
 48
1000.0
370
    13
100
AcDbLine
 10
126.1482763530684
 20
147.3654150269807
 30
0.0
 11
126.2498818920066
 21
147.3339656935
 31
0.0
  0
LINE
  5
298
330
74
100
AcDbEntity
  8
A1-----1H2_______Schraffur_1_5
  6
Continuous
 62
     7
 48
1000.0
370
    13
100
AcDbLine
 10
126.2498818920066
 20
147.3339656935
 30
0.0
 11
126.3406011232007
 21
147.256551949547
 31
0.0
  0
LINE
  5
299
330
74
100
AcDbEntity
  8
A1-----1H2_______Schraffur_1_5
  6
Continuous
 62
     7
 48
1000.0
370
    13
100
AcDbLine
 10
126.3406011232007
 20
147.256551949547
 30
0.0
 11
126.39019430292
 21
147.1839765645917
 31
0.0
  0
LINE
  5
29A
330
74
100
AcDbEntity
  8
A1-----1H2_______Schraffur_1_5
  6
Continuous
 62
     7
 48
1000.0
370
    13
100
AcDbLine
 10
126.39019430292
 20
147.1839765645917
 30
0.0
 11
126.4204340466517
 21
147.094466923146
 31
0.0
  0
LINE
  5
29B
330
74
100
AcDbEntity
  8
A1-----1H2_______Schraffur_1_5
  6
Continuous
 62
     7
 48
1000.0
370
    13
100
AcDbLine
 10
126.4204340466517
 20
147.094466923146
 30
0.0
 11
126.4337395338937
 21
146.9420586147396
 31
0.0
  0
LINE
  5
29C
330
74
100
AcDbEntity
  8
A1-----1H2_______Schraffur_1_5
  6
Continuous
 62
     7
 48
1000.0
370
    13
100
AcDbLine
 10
127.0385344085239
 20
147.4017027194581
 30
0.0
 11
127.1752180501895
 21
147.387187642467
 31
0.0
  0
LINE
  5
29D
330
74
100
AcDbEntity
  8
A1-----1H2_______Schraffur_1_5
  6
Continuous
 62
     7
 48
1000.0
370
    13
100
AcDbLine
 10
127.1752180501895
 20
147.387187642467
 30
0.0
 11
127.357866102328
 21
147.3654150269807
 31
0.0
  0
LINE
  5
29E
330
74
100
AcDbEntity
  8
A1-----1H2_______Schraffur_1_5
  6
Continuous
 62
     7
 48
1000.0
370
    13
100
AcDbLine
 10
127.357866102328
 20
147.3654150269807
 30
0.0
 11
127.4594716412658
 21
147.3339656935
 31
0.0
  0
LINE
  5
29F
330
74
100
AcDbEntity
  8
A1-----1H2_______Schraffur_1_5
  6
Continuous
 62
     7
 48
1000.0
370
    13
100
AcDbLine
 10
127.4594716412658
 20
147.3339656935
 30
0.0
 11
127.5501908724599
 21
147.256551949547
 31
0.0
  0
LINE
  5
2A0
330
74
100
AcDbEntity
  8
A1-----1H2_______Schraffur_1_5
  6
Continuous
 62
     7
 48
1000.0
370
    13
100
AcDbLine
 10
127.5501908724599
 20
147.256551949547
 30
0.0
 11
127.5997840521801
 21
147.1839765645917
 31
0.0
  0
LINE
  5
2A1
330
74
100
AcDbEntity
  8
A1-----1H2_______Schraffur_1_5
  6
Continuous
 62
     7
 48
1000.0
370
    13
100
AcDbLine
 10
127.5997840521801
 20
147.1839765645917
 30
0.0
 11
127.6300237959114
 21
147.094466923146
 31
0.0
  0
LINE
  5
2A2
330
74
100
AcDbEntity
  8
A1-----1H2_______Schraffur_1_5
  6
Continuous
 62
     7
 48
1000.0
370
    13
100
AcDbLine
 10
127.6300237959114
 20
147.094466923146
 30
0.0
 11
127.6433292831531
 21
146.9420586147396
 31
0.0
  0
LINE
  5
2A3
330
74
100
AcDbEntity
  8
A1-----1H2_______Schraffur_1_5
  6
Continuous
 62
     7
 48
1000.0
370
    13
100
AcDbLine
 10
128.2481241577833
 20
147.4017027194581
 30
0.0
 11
128.3848077994496
 21
147.387187642467
 31
0.0
  0
LINE
  5
2A4
330
74
100
AcDbEntity
  8
A1-----1H2_______Schraffur_1_5
  6
Continuous
 62
     7
 48
1000.0
370
    13
100
AcDbLine
 10
128.3848077994496
 20
147.387187642467
 30
0.0
 11
128.5674558515875
 21
147.3654150269807
 31
0.0
  0
LINE
  5
2A5
330
74
100
AcDbEntity
  8
A1-----1H2_______Schraffur_1_5
  6
Continuous
 62
     7
 48
1000.0
370
    13
100
AcDbLine
 10
128.5674558515875
 20
147.3654150269807
 30
0.0
 11
128.6690613905257
 21
147.3339656935
 31
0.0
  0
LINE
  5
2A6
330
74
100
AcDbEntity
  8
A1-----1H2_______Schraffur_1_5
  6
Continuous
 62
     7
 48
1000.0
370
    13
100
AcDbLine
 10
128.6690613905257
 20
147.3339656935
 30
0.0
 11
128.75978062172
 21
147.256551949547
 31
0.0
  0
LINE
  5
2A7
330
74
100
AcDbEntity
  8
A1-----1H2_______Schraffur_1_5
  6
Continuous
 62
     7
 48
1000.0
370
    13
100
AcDbLine
 10
128.75978062172
 20
147.256551949547
 30
0.0
 11
128.8093738014395
 21
147.1839765645917
 31
0.0
  0
LINE
  5
2A8
330
74
100
AcDbEntity
  8
A1-----1H2_______Schraffur_1_5
  6
Continuous
 62
     7
 48
1000.0
370
    13
100
AcDbLine
 10
128.8093738014395
 20
147.1839765645917
 30
0.0
 11
128.8396135451713
 21
147.094466923146
 31
0.0
  0
LINE
  5
2A9
330
74
100
AcDbEntity
  8
A1-----1H2_______Schraffur_1_5
  6
Continuous
 62
     7
 48
1000.0
370
    13
100
AcDbLine
 10
128.8396135451713
 20
147.094466923146
 30
0.0
 11
128.852919032413
 21
146.9420586147396
 31
0.0
  0
LINE
  5
2AA
330
74
100
AcDbEntity
  8
A1-----1H2_______Schraffur_1_5
  6
Continuous
 62
     7
 48
1000.0
370
    13
100
AcDbLine
 10
119.1641051408428
 20
146.7799735883388
 30
0.0
 11
119.1447517048545
 21
146.6953023058901
 31
0.0
  0
LINE
  5
2AB
330
74
100
AcDbEntity
  8
A1-----1H2_______Schraffur_1_5
  6
Continuous
 62
     7
 48
1000.0
370
    13
100
AcDbLine
 10
119.1447517048545
 20
146.6953023058901
 30
0.0
 11
119.1048352431292
 21
146.6082118439438
 31
0.0
  0
LINE
  5
2AC
330
74
100
AcDbEntity
  8
A1-----1H2_______Schraffur_1_5
  6
Continuous
 62
     7
 48
1000.0
370
    13
100
AcDbLine
 10
120.3736948901029
 20
146.7799735883388
 30
0.0
 11
120.3543414541148
 21
146.6953023058901
 31
0.0
  0
LINE
  5
2AD
330
74
100
AcDbEntity
  8
A1-----1H2_______Schraffur_1_5
  6
Continuous
 62
     7
 48
1000.0
370
    13
100
AcDbLine
 10
120.3543414541148
 20
146.6953023058901
 30
0.0
 11
120.3144249923889
 21
146.6082118439438
 31
0.0
  0
LINE
  5
2AE
330
74
100
AcDbEntity
  8
A1-----1H2_______Schraffur_1_5
  6
Continuous
 62
     7
 48
1000.0
370
    13
100
AcDbLine
 10
121.5832846393625
 20
146.7799735883388
 30
0.0
 11
121.5639312033741
 21
146.6953023058901
 31
0.0
  0
LINE
  5
2AF
330
74
100
AcDbEntity
  8
A1-----1H2_______Schraffur_1_5
  6
Continuous
 62
     7
 48
1000.0
370
    13
100
AcDbLine
 10
121.5639312033741
 20
146.6953023058901
 30
0.0
 11
121.5240147416483
 21
146.6082118439438
 31
0.0
  0
LINE
  5
2B0
330
74
100
AcDbEntity
  8
A1-----1H2_______Schraffur_1_5
  6
Continuous
 62
     7
 48
1000.0
370
    13
100
AcDbLine
 10
122.7928743886224
 20
146.7799735883388
 30
0.0
 11
122.7735209526337
 21
146.6953023058901
 31
0.0
  0
LINE
  5
2B1
330
74
100
AcDbEntity
  8
A1-----1H2_______Schraffur_1_5
  6
Continuous
 62
     7
 48
1000.0
370
    13
100
AcDbLine
 10
122.7735209526337
 20
146.6953023058901
 30
0.0
 11
122.7336044909084
 21
146.6082118439438
 31
0.0
  0
LINE
  5
2B2
330
74
100
AcDbEntity
  8
A1-----1H2_______Schraffur_1_5
  6
Continuous
 62
     7
 48
1000.0
370
    13
100
AcDbLine
 10
124.0024641378816
 20
146.7799735883388
 30
0.0
 11
123.9831107018936
 21
146.6953023058901
 31
0.0
  0
LINE
  5
2B3
330
74
100
AcDbEntity
  8
A1-----1H2_______Schraffur_1_5
  6
Continuous
 62
     7
 48
1000.0
370
    13
100
AcDbLine
 10
123.9831107018936
 20
146.6953023058901
 30
0.0
 11
123.9431942401681
 21
146.6082118439438
 31
0.0
  0
LINE
  5
2B4
330
74
100
AcDbEntity
  8
A1-----1H2_______Schraffur_1_5
  6
Continuous
 62
     7
 48
1000.0
370
    13
100
AcDbLine
 10
125.2120538871417
 20
146.7799735883388
 30
0.0
 11
125.1927004511533
 21
146.6953023058901
 31
0.0
  0
LINE
  5
2B5
330
74
100
AcDbEntity
  8
A1-----1H2_______Schraffur_1_5
  6
Continuous
 62
     7
 48
1000.0
370
    13
100
AcDbLine
 10
125.1927004511533
 20
146.6953023058901
 30
0.0
 11
125.1527839894275
 21
146.6082118439438
 31
0.0
  0
LINE
  5
2B6
330
74
100
AcDbEntity
  8
A1-----1H2_______Schraffur_1_5
  6
Continuous
 62
     7
 48
1000.0
370
    13
100
AcDbLine
 10
126.4216436364012
 20
146.7799735883388
 30
0.0
 11
126.4022902004125
 21
146.6953023058901
 31
0.0
  0
LINE
  5
2B7
330
74
100
AcDbEntity
  8
A1-----1H2_______Schraffur_1_5
  6
Continuous
 62
     7
 48
1000.0
370
    13
100
AcDbLine
 10
126.4022902004125
 20
146.6953023058901
 30
0.0
 11
126.3623737386876
 21
146.6082118439438
 31
0.0
  0
LINE
  5
2B8
330
74
100
AcDbEntity
  8
A1-----1H2_______Schraffur_1_5
  6
Continuous
 62
     7
 48
1000.0
370
    13
100
AcDbLine
 10
127.6312333856608
 20
146.7799735883388
 30
0.0
 11
127.6118799496728
 21
146.6953023058901
 31
0.0
  0
LINE
  5
2B9
330
74
100
AcDbEntity
  8
A1-----1H2_______Schraffur_1_5
  6
Continuous
 62
     7
 48
1000.0
370
    13
100
AcDbLine
 10
127.6118799496728
 20
146.6953023058901
 30
0.0
 11
127.5719634879469
 21
146.6082118439438
 31
0.0
  0
LINE
  5
2BA
330
74
100
AcDbEntity
  8
A1-----1H2_______Schraffur_1_5
  6
Continuous
 62
     7
 48
1000.0
370
    13
100
AcDbLine
 10
128.8408231349205
 20
146.7799735883388
 30
0.0
 11
128.821469698932
 21
146.6953023058901
 31
0.0
  0
LINE
  5
2BB
330
74
100
AcDbEntity
  8
A1-----1H2_______Schraffur_1_5
  6
Continuous
 62
     7
 48
1000.0
370
    13
100
AcDbLine
 10
128.821469698932
 20
146.6953023058901
 30
0.0
 11
128.7815532372067
 21
146.6082118439438
 31
0.0
  0
LINE
  5
2BC
330
74
100
AcDbEntity
  8
A1-----1H2_______Schraffur_1_5
  6
Continuous
 62
     7
 48
1000.0
370
    13
100
AcDbLine
 10
119.1762010383357
 20
146.9178668197546
 30
0.0
 11
119.1641051408428
 21
146.7799735883388
 31
0.0
  0
LINE
  5
2BD
330
74
100
AcDbEntity
  8
A1-----1H2_______Schraffur_1_5
  6
Continuous
 62
     7
 48
1000.0
370
    13
100
AcDbLine
 10
118.3816423797759
 20
145.9774603532775
 30
0.0
 11
118.5000403684995
 21
145.7518223014685
 31
0.0
  0
LINE
  5
2BE
330
74
100
AcDbEntity
  8
A1-----1H2_______Schraffur_1_5
  6
Continuous
 62
     7
 48
1000.0
370
    13
100
AcDbLine
 10
119.247566833542
 20
146.632403638929
 30
0.0
 11
119.7096301177591
 21
145.7518223014685
 31
0.0
  0
LINE
  5
2BF
330
74
100
AcDbEntity
  8
A1-----1H2_______Schraffur_1_5
  6
Continuous
 62
     7
 48
1000.0
370
    13
100
AcDbLine
 10
120.4571565828014
 20
146.632403638929
 30
0.0
 11
120.9192198670188
 21
145.7518223014685
 31
0.0
  0
LINE
  5
2C0
330
74
100
AcDbEntity
  8
A1-----1H2_______Schraffur_1_5
  6
Continuous
 62
     7
 48
1000.0
370
    13
100
AcDbLine
 10
121.6667463320615
 20
146.632403638929
 30
0.0
 11
122.128809616278
 21
145.7518223014685
 31
0.0
  0
LINE
  5
2C1
330
74
100
AcDbEntity
  8
A1-----1H2_______Schraffur_1_5
  6
Continuous
 62
     7
 48
1000.0
370
    13
100
AcDbLine
 10
122.8763360813212
 20
146.632403638929
 30
0.0
 11
123.3383993655379
 21
145.7518223014685
 31
0.0
  0
LINE
  5
2C2
330
74
100
AcDbEntity
  8
A1-----1H2_______Schraffur_1_5
  6
Continuous
 62
     7
 48
1000.0
370
    13
100
AcDbLine
 10
124.0859258305804
 20
146.632403638929
 30
0.0
 11
124.547989114798
 21
145.7518223014685
 31
0.0
  0
LINE
  5
2C3
330
74
100
AcDbEntity
  8
A1-----1H2_______Schraffur_1_5
  6
Continuous
 62
     7
 48
1000.0
370
    13
100
AcDbLine
 10
125.2955155798403
 20
146.632403638929
 30
0.0
 11
125.7575788640573
 21
145.7518223014685
 31
0.0
  0
LINE
  5
2C4
330
74
100
AcDbEntity
  8
A1-----1H2_______Schraffur_1_5
  6
Continuous
 62
     7
 48
1000.0
370
    13
100
AcDbLine
 10
126.5051053291
 20
146.632403638929
 30
0.0
 11
126.9671686133169
 21
145.7518223014685
 31
0.0
  0
LINE
  5
2C5
330
74
100
AcDbEntity
  8
A1-----1H2_______Schraffur_1_5
  6
Continuous
 62
     7
 48
1000.0
370
    13
100
AcDbLine
 10
127.7146950783599
 20
146.632403638929
 30
0.0
 11
128.1767583625768
 21
145.7518223014685
 31
0.0
  0
LINE
  5
2C6
330
74
100
AcDbEntity
  8
A1-----1H2_______Schraffur_1_5
  6
Continuous
 62
     7
 48
1000.0
370
    13
100
AcDbLine
 10
128.9242848276193
 20
146.632403638929
 30
0.0
 11
129.0052051537471
 21
146.4781889859952
 31
0.0
  0
LINE
  5
2C7
330
74
100
AcDbEntity
  8
A1-----1H2_______Schraffur_1_5
  6
Continuous
 62
     7
 48
1000.0
370
    13
100
AcDbLine
 10
118.6427719589118
 20
145.7518223014685
 30
0.0
 11
119.1048352431292
 21
146.6082118439438
 31
0.0
  0
LINE
  5
2C8
330
74
100
AcDbEntity
  8
A1-----1H2_______Schraffur_1_5
  6
Continuous
 62
     7
 48
1000.0
370
    13
100
AcDbLine
 10
119.8523617081719
 20
145.7518223014685
 30
0.0
 11
120.3144249923889
 21
146.6082118439438
 31
0.0
  0
LINE
  5
2C9
330
74
100
AcDbEntity
  8
A1-----1H2_______Schraffur_1_5
  6
Continuous
 62
     7
 48
1000.0
370
    13
100
AcDbLine
 10
121.0619514574312
 20
145.7518223014685
 30
0.0
 11
121.5240147416483
 21
146.6082118439438
 31
0.0
  0
LINE
  5
2CA
330
74
100
AcDbEntity
  8
A1-----1H2_______Schraffur_1_5
  6
Continuous
 62
     7
 48
1000.0
370
    13
100
AcDbLine
 10
122.271541206691
 20
145.7518223014685
 30
0.0
 11
122.7336044909084
 21
146.6082118439438
 31
0.0
  0
LINE
  5
2CB
330
74
100
AcDbEntity
  8
A1-----1H2_______Schraffur_1_5
  6
Continuous
 62
     7
 48
1000.0
370
    13
100
AcDbLine
 10
123.4811309559507
 20
145.7518223014685
 30
0.0
 11
123.9431942401681
 21
146.6082118439438
 31
0.0
  0
LINE
  5
2CC
330
74
100
AcDbEntity
  8
A1-----1H2_______Schraffur_1_5
  6
Continuous
 62
     7
 48
1000.0
370
    13
100
AcDbLine
 10
124.6907207052104
 20
145.7518223014685
 30
0.0
 11
125.1527839894275
 21
146.6082118439438
 31
0.0
  0
LINE
  5
2CD
330
74
100
AcDbEntity
  8
A1-----1H2_______Schraffur_1_5
  6
Continuous
 62
     7
 48
1000.0
370
    13
100
AcDbLine
 10
125.9003104544707
 20
145.7518223014685
 30
0.0
 11
126.3623737386876
 21
146.6082118439438
 31
0.0
  0
LINE
  5
2CE
330
74
100
AcDbEntity
  8
A1-----1H2_______Schraffur_1_5
  6
Continuous
 62
     7
 48
1000.0
370
    13
100
AcDbLine
 10
127.1099002037299
 20
145.7518223014685
 30
0.0
 11
127.5719634879469
 21
146.6082118439438
 31
0.0
  0
LINE
  5
2CF
330
74
100
AcDbEntity
  8
A1-----1H2_______Schraffur_1_5
  6
Continuous
 62
     7
 48
1000.0
370
    13
100
AcDbLine
 10
128.3194899529891
 20
145.7518223014685
 30
0.0
 11
128.7815532372067
 21
146.6082118439438
 31
0.0
  0
LINE
  5
2D0
330
74
100
AcDbEntity
  8
A1-----1H2_______Schraffur_1_5
  6
Continuous
 62
     7
 48
1000.0
370
    13
100
AcDbLine
 10
119.1762010383357
 20
146.9178668197546
 30
0.0
 11
119.1882969358282
 21
146.8041653833239
 31
0.0
  0
LINE
  5
2D1
330
74
100
AcDbEntity
  8
A1-----1H2_______Schraffur_1_5
  6
Continuous
 62
     7
 48
1000.0
370
    13
100
AcDbLine
 10
124.0266559328671
 20
146.8041653833239
 30
0.0
 11
124.0385146557741
 21
146.8041653833239
 31
0.0
  0
LINE
  5
2D2
330
74
100
AcDbEntity
  8
A1-----1H2_______Schraffur_1_5
  6
Continuous
 62
     7
 48
1000.0
370
    13
100
AcDbLine
 10
128.2166748243019
 20
145.6647318395214
 30
0.0
 11
128.1767583625766
 21
145.7518223014685
 31
0.0
  0
LINE
  5
2D3
330
74
100
AcDbEntity
  8
A1-----1H2_______Schraffur_1_5
  6
Continuous
 62
     7
 48
1000.0
370
    13
100
AcDbLine
 10
129.4262645735622
 20
145.6647318395214
 30
0.0
 11
129.386348111836
 21
145.7518223014685
 31
0.0
  0
LINE
  5
2D4
330
74
100
AcDbEntity
  8
A1-----1H2_______Schraffur_1_5
  6
Continuous
 62
     7
 48
1000.0
370
    13
100
AcDbLine
 10
128.2795734912636
 20
145.6647318395214
 30
0.0
 11
128.3194899529891
 21
145.7518223014685
 31
0.0
  0
LINE
  5
2D5
330
74
100
AcDbEntity
  8
A1-----1H2_______Schraffur_1_5
  6
Continuous
 62
     7
 48
1000.0
370
    13
100
AcDbLine
 10
127.7364676938457
 20
147.256551949547
 30
0.0
 11
127.6868745141264
 21
147.1839765645917
 31
0.0
  0
LINE
  5
2D6
330
74
100
AcDbEntity
  8
A1-----1H2_______Schraffur_1_5
  6
Continuous
 62
     7
 48
1000.0
370
    13
100
AcDbLine
 10
127.6868745141264
 20
147.1839765645917
 30
0.0
 11
127.6566347703949
 21
147.094466923146
 31
0.0
  0
LINE
  5
2D7
330
74
100
AcDbEntity
  8
A1-----1H2_______Schraffur_1_5
  6
Continuous
 62
     7
 48
1000.0
370
    13
100
AcDbLine
 10
127.6566347703949
 20
147.094466923146
 30
0.0
 11
127.6433292831531
 21
146.9420586147396
 31
0.0
  0
LINE
  5
2D8
330
74
100
AcDbEntity
  8
A1-----1H2_______Schraffur_1_5
  6
Continuous
 62
     7
 48
1000.0
370
    13
100
AcDbLine
 10
128.9460574431058
 20
147.256551949547
 30
0.0
 11
128.8964642633856
 21
147.1839765645917
 31
0.0
  0
LINE
  5
2D9
330
74
100
AcDbEntity
  8
A1-----1H2_______Schraffur_1_5
  6
Continuous
 62
     7
 48
1000.0
370
    13
100
AcDbLine
 10
128.8964642633856
 20
147.1839765645917
 30
0.0
 11
128.8662245196543
 21
147.094466923146
 31
0.0
  0
LINE
  5
2DA
330
74
100
AcDbEntity
  8
A1-----1H2_______Schraffur_1_5
  6
Continuous
 62
     7
 48
1000.0
370
    13
100
AcDbLine
 10
128.8662245196543
 20
147.094466923146
 30
0.0
 11
128.8529190324126
 21
146.9420586147396
 31
0.0
  0
LINE
  5
2DB
330
74
100
AcDbEntity
  8
A1-----1H2_______Schraffur_1_5
  6
Continuous
 62
     7
 48
1000.0
370
    13
100
AcDbLine
 10
127.6747786166339
 20
146.7194941008758
 30
0.0
 11
127.7146950783592
 21
146.632403638929
 31
0.0
  0
LINE
  5
2DC
330
74
100
AcDbEntity
  8
A1-----1H2_______Schraffur_1_5
  6
Continuous
 62
     7
 48
1000.0
370
    13
100
AcDbLine
 10
128.8843683658931
 20
146.7194941008758
 30
0.0
 11
128.9242848276193
 21
146.632403638929
 31
0.0
  0
LINE
  5
2DD
330
74
100
AcDbEntity
  8
A1-----1H2_______Schraffur_1_5
  6
Continuous
 62
     7
 48
1000.0
370
    13
100
AcDbLine
 10
128.2481241577831
 20
147.4017027194583
 30
0.0
 11
128.2599828806901
 21
147.4017027194583
 31
0.0
  0
LINE
  5
2DE
330
74
100
AcDbEntity
  8
A1-----1H2_______Schraffur_1_5
  6
Continuous
 62
     7
 48
1000.0
370
    13
100
AcDbLine
 10
128.111440516117
 20
147.387187642467
 30
0.0
 11
127.9287924639783
 21
147.3654150269807
 31
0.0
  0
LINE
  5
2DF
330
74
100
AcDbEntity
  8
A1-----1H2_______Schraffur_1_5
  6
Continuous
 62
     7
 48
1000.0
370
    13
100
AcDbLine
 10
127.9287924639783
 20
147.3654150269807
 30
0.0
 11
127.8271869250403
 21
147.3339656935
 31
0.0
  0
LINE
  5
2E0
330
74
100
AcDbEntity
  8
A1-----1H2_______Schraffur_1_5
  6
Continuous
 62
     7
 48
1000.0
370
    13
100
AcDbLine
 10
127.8271869250403
 20
147.3339656935
 30
0.0
 11
127.7364676938457
 21
147.256551949547
 31
0.0
  0
LINE
  5
2E1
330
74
100
AcDbEntity
  8
A1-----1H2_______Schraffur_1_5
  6
Continuous
 62
     7
 48
1000.0
370
    13
100
AcDbLine
 10
129.3210302653762
 20
147.387187642467
 30
0.0
 11
129.1383822132386
 21
147.3654150269807
 31
0.0
  0
LINE
  5
2E2
330
74
100
AcDbEntity
  8
A1-----1H2_______Schraffur_1_5
  6
Continuous
 62
     7
 48
1000.0
370
    13
100
AcDbLine
 10
129.1383822132386
 20
147.3654150269807
 30
0.0
 11
129.0367766742999
 21
147.3339656935
 31
0.0
  0
LINE
  5
2E3
330
74
100
AcDbEntity
  8
A1-----1H2_______Schraffur_1_5
  6
Continuous
 62
     7
 48
1000.0
370
    13
100
AcDbLine
 10
129.0367766742999
 20
147.3339656935
 30
0.0
 11
128.9460574431058
 21
147.256551949547
 31
0.0
  0
LINE
  5
2E4
330
74
100
AcDbEntity
  8
A1-----1H2_______Schraffur_1_5
  6
Continuous
 62
     7
 48
1000.0
370
    13
100
AcDbLine
 10
127.357866102328
 20
147.3654150269807
 30
0.0
 11
127.4594716412658
 21
147.3339656935
 31
0.0
  0
LINE
  5
2E5
330
74
100
AcDbEntity
  8
A1-----1H2_______Schraffur_1_5
  6
Continuous
 62
     7
 48
1000.0
370
    13
100
AcDbLine
 10
127.4594716412658
 20
147.3339656935
 30
0.0
 11
127.5501908724599
 21
147.256551949547
 31
0.0
  0
LINE
  5
2E6
330
74
100
AcDbEntity
  8
A1-----1H2_______Schraffur_1_5
  6
Continuous
 62
     7
 48
1000.0
370
    13
100
AcDbLine
 10
127.5501908724599
 20
147.256551949547
 30
0.0
 11
127.5997840521796
 21
147.1839765645917
 31
0.0
  0
LINE
  5
2E7
330
74
100
AcDbEntity
  8
A1-----1H2_______Schraffur_1_5
  6
Continuous
 62
     7
 48
1000.0
370
    13
100
AcDbLine
 10
127.5997840521796
 20
147.1839765645917
 30
0.0
 11
127.6300237959109
 21
147.094466923146
 31
0.0
  0
LINE
  5
2E8
330
74
100
AcDbEntity
  8
A1-----1H2_______Schraffur_1_5
  6
Continuous
 62
     7
 48
1000.0
370
    13
100
AcDbLine
 10
127.6300237959109
 20
147.094466923146
 30
0.0
 11
127.6433292831531
 21
146.9420586147396
 31
0.0
  0
LINE
  5
2E9
330
74
100
AcDbEntity
  8
A1-----1H2_______Schraffur_1_5
  6
Continuous
 62
     7
 48
1000.0
370
    13
100
AcDbLine
 10
128.2481241577831
 20
147.4017027194581
 30
0.0
 11
128.3848077994487
 21
147.387187642467
 31
0.0
  0
LINE
  5
2EA
330
74
100
AcDbEntity
  8
A1-----1H2_______Schraffur_1_5
  6
Continuous
 62
     7
 48
1000.0
370
    13
100
AcDbLine
 10
128.3848077994487
 20
147.387187642467
 30
0.0
 11
128.5674558515873
 21
147.3654150269807
 31
0.0
  0
LINE
  5
2EB
330
74
100
AcDbEntity
  8
A1-----1H2_______Schraffur_1_5
  6
Continuous
 62
     7
 48
1000.0
370
    13
100
AcDbLine
 10
128.5674558515873
 20
147.3654150269807
 30
0.0
 11
128.6690613905255
 21
147.3339656935
 31
0.0
  0
LINE
  5
2EC
330
74
100
AcDbEntity
  8
A1-----1H2_______Schraffur_1_5
  6
Continuous
 62
     7
 48
1000.0
370
    13
100
AcDbLine
 10
128.6690613905255
 20
147.3339656935
 30
0.0
 11
128.7597806217196
 21
147.256551949547
 31
0.0
  0
LINE
  5
2ED
330
74
100
AcDbEntity
  8
A1-----1H2_______Schraffur_1_5
  6
Continuous
 62
     7
 48
1000.0
370
    13
100
AcDbLine
 10
128.7597806217196
 20
147.256551949547
 30
0.0
 11
128.8093738014393
 21
147.1839765645917
 31
0.0
  0
LINE
  5
2EE
330
74
100
AcDbEntity
  8
A1-----1H2_______Schraffur_1_5
  6
Continuous
 62
     7
 48
1000.0
370
    13
100
AcDbLine
 10
128.8093738014393
 20
147.1839765645917
 30
0.0
 11
128.8396135451708
 21
147.094466923146
 31
0.0
  0
LINE
  5
2EF
330
74
100
AcDbEntity
  8
A1-----1H2_______Schraffur_1_5
  6
Continuous
 62
     7
 48
1000.0
370
    13
100
AcDbLine
 10
128.8396135451708
 20
147.094466923146
 30
0.0
 11
128.8529190324126
 21
146.9420586147396
 31
0.0
  0
LINE
  5
2F0
330
74
100
AcDbEntity
  8
A1-----1H2_______Schraffur_1_5
  6
Continuous
 62
     7
 48
1000.0
370
    13
100
AcDbLine
 10
127.6312333856608
 20
146.7799735883388
 30
0.0
 11
127.6118799496717
 21
146.6953023058901
 31
0.0
  0
LINE
  5
2F1
330
74
100
AcDbEntity
  8
A1-----1H2_______Schraffur_1_5
  6
Continuous
 62
     7
 48
1000.0
370
    13
100
AcDbLine
 10
127.6118799496717
 20
146.6953023058901
 30
0.0
 11
127.5719634879469
 21
146.6082118439438
 31
0.0
  0
LINE
  5
2F2
330
74
100
AcDbEntity
  8
A1-----1H2_______Schraffur_1_5
  6
Continuous
 62
     7
 48
1000.0
370
    13
100
AcDbLine
 10
128.8408231349201
 20
146.7799735883388
 30
0.0
 11
128.821469698932
 21
146.6953023058901
 31
0.0
  0
LINE
  5
2F3
330
74
100
AcDbEntity
  8
A1-----1H2_______Schraffur_1_5
  6
Continuous
 62
     7
 48
1000.0
370
    13
100
AcDbLine
 10
128.821469698932
 20
146.6953023058901
 30
0.0
 11
128.7815532372065
 21
146.6082118439438
 31
0.0
  0
LINE
  5
2F4
330
74
100
AcDbEntity
  8
A1-----1H2_______Schraffur_1_5
  6
Continuous
 62
     7
 48
1000.0
370
    13
100
AcDbLine
 10
127.7146950783592
 20
146.632403638929
 30
0.0
 11
128.1767583625766
 21
145.7518223014685
 31
0.0
  0
LINE
  5
2F5
330
74
100
AcDbEntity
  8
A1-----1H2_______Schraffur_1_5
  6
Continuous
 62
     7
 48
1000.0
370
    13
100
AcDbLine
 10
128.9242848276193
 20
146.632403638929
 30
0.0
 11
129.386348111836
 21
145.7518223014685
 31
0.0
  0
LINE
  5
2F6
330
74
100
AcDbEntity
  8
A1-----1H2_______Schraffur_1_5
  6
Continuous
 62
     7
 48
1000.0
370
    13
100
AcDbLine
 10
127.1099002037299
 20
145.7518223014685
 30
0.0
 11
127.5719634879469
 21
146.6082118439438
 31
0.0
  0
LINE
  5
2F7
330
74
100
AcDbEntity
  8
A1-----1H2_______Schraffur_1_5
  6
Continuous
 62
     7
 48
1000.0
370
    13
100
AcDbLine
 10
128.3194899529891
 20
145.7518223014685
 30
0.0
 11
128.7815532372065
 21
146.6082118439438
 31
0.0
  0
LINE
  5
2F8
330
74
100
AcDbEntity
  8
A1-----1H2_______Schraffur_1_5
  6
Continuous
 62
     7
 48
1000.0
370
    13
100
AcDbLine
 10
129.4262645735613
 20
145.6647318395214
 30
0.0
 11
129.3863481118358
 21
145.7518223014685
 31
0.0
  0
LINE
  5
2F9
330
74
100
AcDbEntity
  8
A1-----1H2_______Schraffur_1_5
  6
Continuous
 62
     7
 48
1000.0
370
    13
100
AcDbLine
 10
128.9460574431049
 20
147.256551949547
 30
0.0
 11
128.8964642633856
 21
147.1839765645917
 31
0.0
  0
LINE
  5
2FA
330
74
100
AcDbEntity
  8
A1-----1H2_______Schraffur_1_5
  6
Continuous
 62
     7
 48
1000.0
370
    13
100
AcDbLine
 10
128.8964642633856
 20
147.1839765645917
 30
0.0
 11
128.8662245196543
 21
147.094466923146
 31
0.0
  0
LINE
  5
2FB
330
74
100
AcDbEntity
  8
A1-----1H2_______Schraffur_1_5
  6
Continuous
 62
     7
 48
1000.0
370
    13
100
AcDbLine
 10
128.8662245196543
 20
147.094466923146
 30
0.0
 11
128.8529190324126
 21
146.9420586147396
 31
0.0
  0
LINE
  5
2FC
330
74
100
AcDbEntity
  8
A1-----1H2_______Schraffur_1_5
  6
Continuous
 62
     7
 48
1000.0
370
    13
100
AcDbLine
 10
128.8843683658931
 20
146.7194941008758
 30
0.0
 11
128.9242848276189
 21
146.632403638929
 31
0.0
  0
LINE
  5
2FD
330
74
100
AcDbEntity
  8
A1-----1H2_______Schraffur_1_5
  6
Continuous
 62
     7
 48
1000.0
370
    13
100
AcDbLine
 10
129.3210302653762
 20
147.387187642467
 30
0.0
 11
129.1383822132375
 21
147.3654150269807
 31
0.0
  0
LINE
  5
2FE
330
74
100
AcDbEntity
  8
A1-----1H2_______Schraffur_1_5
  6
Continuous
 62
     7
 48
1000.0
370
    13
100
AcDbLine
 10
129.1383822132375
 20
147.3654150269807
 30
0.0
 11
129.0367766742999
 21
147.3339656935
 31
0.0
  0
LINE
  5
2FF
330
74
100
AcDbEntity
  8
A1-----1H2_______Schraffur_1_5
  6
Continuous
 62
     7
 48
1000.0
370
    13
100
AcDbLine
 10
129.0367766742999
 20
147.3339656935
 30
0.0
 11
128.9460574431049
 21
147.256551949547
 31
0.0
  0
LINE
  5
300
330
74
100
AcDbEntity
  8
A1-----1H2_______Schraffur_1_5
  6
Continuous
 62
     7
 48
1000.0
370
    13
100
AcDbLine
 10
128.5674558515873
 20
147.3654150269807
 30
0.0
 11
128.6690613905255
 21
147.3339656935
 31
0.0
  0
LINE
  5
301
330
74
100
AcDbEntity
  8
A1-----1H2_______Schraffur_1_5
  6
Continuous
 62
     7
 48
1000.0
370
    13
100
AcDbLine
 10
128.6690613905255
 20
147.3339656935
 30
0.0
 11
128.7597806217196
 21
147.256551949547
 31
0.0
  0
LINE
  5
302
330
74
100
AcDbEntity
  8
A1-----1H2_______Schraffur_1_5
  6
Continuous
 62
     7
 48
1000.0
370
    13
100
AcDbLine
 10
128.7597806217196
 20
147.256551949547
 30
0.0
 11
128.8093738014389
 21
147.1839765645917
 31
0.0
  0
LINE
  5
303
330
74
100
AcDbEntity
  8
A1-----1H2_______Schraffur_1_5
  6
Continuous
 62
     7
 48
1000.0
370
    13
100
AcDbLine
 10
128.8093738014389
 20
147.1839765645917
 30
0.0
 11
128.8396135451702
 21
147.094466923146
 31
0.0
  0
LINE
  5
304
330
74
100
AcDbEntity
  8
A1-----1H2_______Schraffur_1_5
  6
Continuous
 62
     7
 48
1000.0
370
    13
100
AcDbLine
 10
128.8396135451702
 20
147.094466923146
 30
0.0
 11
128.8529190324126
 21
146.9420586147396
 31
0.0
  0
LINE
  5
305
330
74
100
AcDbEntity
  8
A1-----1H2_______Schraffur_1_5
  6
Continuous
 62
     7
 48
1000.0
370
    13
100
AcDbLine
 10
128.8408231349201
 20
146.7799735883388
 30
0.0
 11
128.8214696989314
 21
146.6953023058901
 31
0.0
  0
LINE
  5
306
330
74
100
AcDbEntity
  8
A1-----1H2_______Schraffur_1_5
  6
Continuous
 62
     7
 48
1000.0
370
    13
100
AcDbLine
 10
128.8214696989314
 20
146.6953023058901
 30
0.0
 11
128.7815532372065
 21
146.6082118439438
 31
0.0
  0
LINE
  5
307
330
74
100
AcDbEntity
  8
A1-----1H2_______Schraffur_1_5
  6
Continuous
 62
     7
 48
1000.0
370
    13
100
AcDbLine
 10
128.9242848276189
 20
146.632403638929
 30
0.0
 11
129.3863481118358
 21
145.7518223014685
 31
0.0
  0
LINE
  5
308
330
74
100
AcDbEntity
  8
A1-----1H2_______Schraffur_1_5
  6
Continuous
 62
     7
 48
1000.0
370
    13
100
AcDbLine
 10
128.3194899529891
 20
145.7518223014685
 30
0.0
 11
128.7815532372065
 21
146.6082118439438
 31
0.0
  0
LINE
  5
309
330
74
100
AcDbEntity
  8
A1-----1H2_______Schraffur_1_5
  6
Continuous
 62
     7
 48
1000.0
370
    13
100
AcDbLine
 10
120.3857907875949
 20
146.9178668197546
 30
0.0
 11
120.3736948901022
 21
146.7799735883388
 31
0.0
  0
LINE
  5
30A
330
74
100
AcDbEntity
  8
A1-----1H2_______Schraffur_1_5
  6
Continuous
 62
     7
 48
1000.0
370
    13
100
AcDbLine
 10
120.3857907875949
 20
146.9178668197546
 30
0.0
 11
120.3978866850874
 21
146.8041653833239
 31
0.0
  0
LINE
  5
30B
330
74
100
AcDbEntity
  8
A1-----1H2_______Schraffur_1_5
  6
Continuous
 62
     7
 48
1000.0
370
    13
100
AcDbLine
 10
121.6074764343475
 20
146.8041653833239
 30
0.0
 11
121.6268298703356
 21
146.7194941008758
 31
0.0
  0
LINE
  5
30C
330
74
100
AcDbEntity
  8
A1-----1H2_______Schraffur_1_5
  6
Continuous
 62
     7
 48
1000.0
370
    13
100
AcDbLine
 10
122.8170661836068
 20
146.8041653833239
 30
0.0
 11
122.8364196195955
 21
146.7194941008758
 31
0.0
  0
LINE
  5
30D
330
74
100
AcDbEntity
  8
A1-----1H2_______Schraffur_1_5
  6
Continuous
 62
     7
 48
1000.0
370
    13
100
AcDbLine
 10
121.5832846393621
 20
146.7799735883388
 30
0.0
 11
121.5639312033736
 21
146.6953023058901
 31
0.0
  0
LINE
  5
30E
330
74
100
AcDbEntity
  8
A1-----1H2_______Schraffur_1_5
  6
Continuous
 62
     7
 48
1000.0
370
    13
100
AcDbLine
 10
122.792874388622
 20
146.7799735883388
 30
0.0
 11
122.7735209526339
 21
146.6953023058901
 31
0.0
  0
LINE
  5
30F
330
74
100
AcDbEntity
  8
A1-----1H2_______Schraffur_1_5
  6
Continuous
 62
     7
 48
1000.0
370
    13
100
AcDbLine
 10
121.595380536855
 20
146.9178668197546
 30
0.0
 11
121.5832846393621
 21
146.7799735883388
 31
0.0
  0
LINE
  5
310
330
74
100
AcDbEntity
  8
A1-----1H2_______Schraffur_1_5
  6
Continuous
 62
     7
 48
1000.0
370
    13
100
AcDbLine
 10
121.595380536855
 20
146.9178668197546
 30
0.0
 11
121.6074764343475
 21
146.8041653833239
 31
0.0
  0
LINE
  5
311
330
74
100
AcDbEntity
  8
A1-----1H2_______Schraffur_1_5
  6
Continuous
 62
     7
 48
1000.0
370
    13
100
AcDbLine
 10
122.8049702861143
 20
146.9178668197546
 30
0.0
 11
122.7928743886213
 21
146.7799735883388
 31
0.0
  0
LINE
  5
312
330
74
100
AcDbEntity
  8
A1-----1H2_______Schraffur_1_5
  6
Continuous
 62
     7
 48
1000.0
370
    13
100
AcDbLine
 10
122.8049702861143
 20
146.9178668197546
 30
0.0
 11
122.8170661836068
 21
146.8041653833239
 31
0.0
  0
LINE
  5
313
330
74
100
AcDbEntity
  8
A1-----1H2_______Schraffur_1_5
  6
Continuous
 62
     7
 48
1000.0
370
    13
100
AcDbLine
 10
124.0266559328667
 20
146.8041653833239
 30
0.0
 11
124.0460093688547
 21
146.7194941008758
 31
0.0
  0
LINE
  5
314
330
74
100
AcDbEntity
  8
A1-----1H2_______Schraffur_1_5
  6
Continuous
 62
     7
 48
1000.0
370
    13
100
AcDbLine
 10
124.0460093688547
 20
146.7194941008758
 30
0.0
 11
124.0859258305804
 21
146.632403638929
 31
0.0
  0
LINE
  5
315
330
74
100
AcDbEntity
  8
A1-----1H2_______Schraffur_1_5
  6
Continuous
 62
     7
 48
1000.0
370
    13
100
AcDbLine
 10
125.2362456821259
 20
146.8041653833239
 30
0.0
 11
125.2555991181148
 21
146.7194941008758
 31
0.0
  0
LINE
  5
316
330
74
100
AcDbEntity
  8
A1-----1H2_______Schraffur_1_5
  6
Continuous
 62
     7
 48
1000.0
370
    13
100
AcDbLine
 10
125.2555991181148
 20
146.7194941008758
 30
0.0
 11
125.2955155798401
 21
146.632403638929
 31
0.0
  0
LINE
  5
317
330
74
100
AcDbEntity
  8
A1-----1H2_______Schraffur_1_5
  6
Continuous
 62
     7
 48
1000.0
370
    13
100
AcDbLine
 10
126.4458354313862
 20
146.8041653833239
 30
0.0
 11
126.4651888673742
 21
146.7194941008758
 31
0.0
  0
LINE
  5
318
330
74
100
AcDbEntity
  8
A1-----1H2_______Schraffur_1_5
  6
Continuous
 62
     7
 48
1000.0
370
    13
100
AcDbLine
 10
126.4651888673742
 20
146.7194941008758
 30
0.0
 11
126.5051053291
 21
146.632403638929
 31
0.0
  0
LINE
  5
319
330
74
100
AcDbEntity
  8
A1-----1H2_______Schraffur_1_5
  6
Continuous
 62
     7
 48
1000.0
370
    13
100
AcDbLine
 10
127.6554251806457
 20
146.8041653833239
 30
0.0
 11
127.6747786166339
 21
146.7194941008758
 31
0.0
  0
LINE
  5
31A
330
74
100
AcDbEntity
  8
A1-----1H2_______Schraffur_1_5
  6
Continuous
 62
     7
 48
1000.0
370
    13
100
AcDbLine
 10
127.6747786166339
 20
146.7194941008758
 30
0.0
 11
127.7146950783596
 21
146.632403638929
 31
0.0
  0
LINE
  5
31B
330
74
100
AcDbEntity
  8
A1-----1H2_______Schraffur_1_5
  6
Continuous
 62
     7
 48
1000.0
370
    13
100
AcDbLine
 10
124.0024641378814
 20
146.7799735883388
 30
0.0
 11
123.9831107018929
 21
146.6953023058901
 31
0.0
  0
LINE
  5
31C
330
74
100
AcDbEntity
  8
A1-----1H2_______Schraffur_1_5
  6
Continuous
 62
     7
 48
1000.0
370
    13
100
AcDbLine
 10
125.2120538871413
 20
146.7799735883388
 30
0.0
 11
125.1927004511533
 21
146.6953023058901
 31
0.0
  0
LINE
  5
31D
330
74
100
AcDbEntity
  8
A1-----1H2_______Schraffur_1_5
  6
Continuous
 62
     7
 48
1000.0
370
    13
100
AcDbLine
 10
126.421643636401
 20
146.7799735883388
 30
0.0
 11
126.4022902004125
 21
146.6953023058901
 31
0.0
  0
LINE
  5
31E
330
74
100
AcDbEntity
  8
A1-----1H2_______Schraffur_1_5
  6
Continuous
 62
     7
 48
1000.0
370
    13
100
AcDbLine
 10
127.6312333856608
 20
146.7799735883388
 30
0.0
 11
127.6118799496722
 21
146.6953023058901
 31
0.0
  0
LINE
  5
31F
330
74
100
AcDbEntity
  8
A1-----1H2_______Schraffur_1_5
  6
Continuous
 62
     7
 48
1000.0
370
    13
100
AcDbLine
 10
124.0145600353741
 20
146.9178668197546
 30
0.0
 11
124.0024641378814
 21
146.7799735883388
 31
0.0
  0
LINE
  5
320
330
74
100
AcDbEntity
  8
A1-----1H2_______Schraffur_1_5
  6
Continuous
 62
     7
 48
1000.0
370
    13
100
AcDbLine
 10
124.0145600353741
 20
146.9178668197546
 30
0.0
 11
124.0266559328667
 21
146.8041653833239
 31
0.0
  0
LINE
  5
321
330
74
100
AcDbEntity
  8
A1-----1H2_______Schraffur_1_5
  6
Continuous
 62
     7
 48
1000.0
370
    13
100
AcDbLine
 10
125.2241497846334
 20
146.9178668197546
 30
0.0
 11
125.2120538871406
 21
146.7799735883388
 31
0.0
  0
LINE
  5
322
330
74
100
AcDbEntity
  8
A1-----1H2_______Schraffur_1_5
  6
Continuous
 62
     7
 48
1000.0
370
    13
100
AcDbLine
 10
125.2241497846334
 20
146.9178668197546
 30
0.0
 11
125.2362456821259
 21
146.8041653833239
 31
0.0
  0
LINE
  5
323
330
74
100
AcDbEntity
  8
A1-----1H2_______Schraffur_1_5
  6
Continuous
 62
     7
 48
1000.0
370
    13
100
AcDbLine
 10
126.445835431386
 20
146.8041653833239
 30
0.0
 11
126.465188867374
 21
146.7194941008758
 31
0.0
  0
LINE
  5
324
330
74
100
AcDbEntity
  8
A1-----1H2_______Schraffur_1_5
  6
Continuous
 62
     7
 48
1000.0
370
    13
100
AcDbLine
 10
127.6554251806452
 20
146.8041653833239
 30
0.0
 11
127.6747786166339
 21
146.7194941008758
 31
0.0
  0
LINE
  5
325
330
74
100
AcDbEntity
  8
A1-----1H2_______Schraffur_1_5
  6
Continuous
 62
     7
 48
1000.0
370
    13
100
AcDbLine
 10
126.4216436364005
 20
146.7799735883388
 30
0.0
 11
126.4022902004123
 21
146.6953023058901
 31
0.0
  0
LINE
  5
326
330
74
100
AcDbEntity
  8
A1-----1H2_______Schraffur_1_5
  6
Continuous
 62
     7
 48
1000.0
370
    13
100
AcDbLine
 10
127.6312333856606
 20
146.7799735883388
 30
0.0
 11
127.6118799496726
 21
146.6953023058901
 31
0.0
  0
LINE
  5
327
330
74
100
AcDbEntity
  8
A1-----1H2_______Schraffur_1_5
  6
Continuous
 62
     7
 48
1000.0
370
    13
100
AcDbLine
 10
126.4337395338935
 20
146.9178668197546
 30
0.0
 11
126.4216436364005
 21
146.7799735883388
 31
0.0
  0
LINE
  5
328
330
74
100
AcDbEntity
  8
A1-----1H2_______Schraffur_1_5
  6
Continuous
 62
     7
 48
1000.0
370
    13
100
AcDbLine
 10
126.4337395338935
 20
146.9178668197546
 30
0.0
 11
126.445835431386
 21
146.8041653833239
 31
0.0
  0
LINE
  5
329
330
74
100
AcDbEntity
  8
A1-----1H2_______Schraffur_1_5
  6
Continuous
 62
     7
 48
1000.0
370
    13
100
AcDbLine
 10
127.6433292831527
 20
146.9178668197546
 30
0.0
 11
127.6312333856597
 21
146.7799735883388
 31
0.0
  0
LINE
  5
32A
330
74
100
AcDbEntity
  8
A1-----1H2_______Schraffur_1_5
  6
Continuous
 62
     7
 48
1000.0
370
    13
100
AcDbLine
 10
127.6433292831527
 20
146.9178668197546
 30
0.0
 11
127.6554251806452
 21
146.8041653833239
 31
0.0
  0
LINE
  5
32B
330
74
100
AcDbEntity
  8
A1-----1H2_______Schraffur_1_5
  6
Continuous
 62
     7
 48
1000.0
370
    13
100
AcDbLine
 10
128.8650149299051
 20
146.8041653833239
 30
0.0
 11
128.8843683658931
 21
146.7194941008758
 31
0.0
  0
LINE
  5
32C
330
74
100
AcDbEntity
  8
A1-----1H2_______Schraffur_1_5
  6
Continuous
 62
     7
 48
1000.0
370
    13
100
AcDbLine
 10
128.8843683658931
 20
146.7194941008758
 30
0.0
 11
128.9242848276189
 21
146.632403638929
 31
0.0
  0
LINE
  5
32D
330
74
100
AcDbEntity
  8
A1-----1H2_______Schraffur_1_5
  6
Continuous
 62
     7
 48
1000.0
370
    13
100
AcDbLine
 10
128.8408231349198
 20
146.7799735883388
 30
0.0
 11
128.8214696989314
 21
146.6953023058901
 31
0.0
  0
LINE
  5
32E
330
74
100
AcDbEntity
  8
A1-----1H2_______Schraffur_1_5
  6
Continuous
 62
     7
 48
1000.0
370
    13
100
AcDbLine
 10
128.8529190324126
 20
146.9178668197546
 30
0.0
 11
128.8408231349198
 21
146.7799735883388
 31
0.0
  0
LINE
  5
32F
330
74
100
AcDbEntity
  8
A1-----1H2_______Schraffur_1_5
  6
Continuous
 62
     7
 48
1000.0
370
    13
100
AcDbLine
 10
128.8529190324126
 20
146.9178668197546
 30
0.0
 11
128.8650149299051
 21
146.8041653833239
 31
0.0
  0
LINE
  5
330
330
74
100
AcDbEntity
  8
A1E-----M5_______Rohbau
  6
Continuous
 62
     7
 48
1000.0
370
    13
100
AcDbLine
 10
21.76441709335331
 20
148.4246658561945
 30
0.0
 11
44.83130059265129
 21
148.8377141928135
 31
0.0
  0
LINE
  5
331
330
74
100
AcDbEntity
  8
A1E-----M5_______Rohbau
  6
Continuous
 62
     7
 48
1000.0
370
    13
100
AcDbLine
 10
20.5146174480384
 20
148.4022862545193
 30
0.0
 11
21.74203749167836
 21
149.6744655015094
 31
0.0
  0
LINE
  5
332
330
74
100
AcDbEntity
  8
A1E-----M5_______Rohbau
  6
Continuous
 62
     7
 48
1000.0
370
    13
100
AcDbLine
 10
20.5146174480384
 20
148.4022862545193
 30
0.0
 11
21.78679669502848
 21
147.1748662108798
 31
0.0
  0
LINE
  5
333
330
74
100
AcDbEntity
  8
A1E-----M5_______Rohbau
  6
Continuous
 62
     7
 48
1000.0
370
    13
100
AcDbLine
 10
21.74203749167836
 20
149.6744655015094
 30
0.0
 11
21.78679669502848
 21
147.1748662108798
 31
0.0
  0
HATCH
  5
334
330
74
100
AcDbEntity
  8
A1E-----M5_______Rohbau
  6
Continuous
 62
     7
370
    13
100
AcDbHatch
 10
0.0
 20
0.0
 30
0.0
210
0.0
220
0.0
230
1.0
  2
SOLID
 70
     1
 71
     0
 91
        1
 92
        3
 72
     0
 73
     1
 93
        3
 10
20.5146174480384
 20
148.4022862545193
 10
21.78679669502848
 20
147.1748662108798
 10
21.74203749167836
 20
149.6744655015094
 97
        0
 75
     0
 76
     1
 98
        0
  0
ARC
  5
335
330
74
100
AcDbEntity
  8
A1E-----M5_______Rohbau
  6
Continuous
 62
     7
 48
1000.0
370
    13
100
AcDbCircle
 10
54.14611938274572
 20
146.2461291971171
 30
0.0
 40
2.709258697891404
100
AcDbArc
 50
335.4950143694554
 51
25.24739182725518
  0
CIRCLE
  5
336
330
74
100
AcDbEntity
  8
A1------T2_______Text_1_5
  6
Continuous
 62
     7
 48
1000.0
370
    25
100
AcDbCircle
 10
106.0453393534249
 20
145.8017027194578
 30
0.0
 40
0.6000000000000228
  0
CIRCLE
  5
337
330
74
100
AcDbEntity
  8
A1------T2_______Text_1_5
  6
Continuous
 62
     7
 48
1000.0
370
    25
100
AcDbCircle
 10
49.42459837422697
 20
140.1173715912314
 30
0.0
 40
0.6000000000000228
  0
ARC
  5
338
330
74
100
AcDbEntity
  8
A1E-----M5_______Rohbau
  6
Continuous
 62
     7
 48
1000.0
370
    13
100
AcDbCircle
 10
115.3403876151269
 20
175.8710362372953
 30
0.0
 40
4.016752029377939
100
AcDbArc
 50
283.2294021214873
 51
319.0917226961342
  0
CIRCLE
  5
339
330
74
100
AcDbEntity
  8
A1E-----M5_______Rohbau
  6
Continuous
 62
   252
 48
1000.0
370
    80
100
AcDbCircle
 10
115.8163224270408
 20
169.4550680838498
 30
0.0
 40
8.000000000000007
  0
ARC
  5
33A
330
74
100
AcDbEntity
  8
A1E-----M5_______Rohbau
  6
Continuous
 62
     7
 48
1000.0
370
    25
100
AcDbCircle
 10
169.3204992722315
 20
210.25898475558
 30
0.0
 40
12.1695351545986
100
AcDbArc
 50
283.2294021214871
 51
319.0917226961332
  0
CIRCLE
  5
33B
330
74
100
AcDbEntity
  8
A1E-----M5_______Rohbau
  6
Continuous
 62
   252
 48
1000.0
370
    80
100
AcDbCircle
 10
170.7624367835647
 20
190.8205555413593
 30
0.0
 40
24.23756321643448
  0
ARC
  5
33C
330
74
100
AcDbEntity
  8
A1E-----M5_______Rohbau
  6
STRICHLINIE_S4
 62
     7
 48
1000.0
370
    13
100
AcDbCircle
 10
144.3760836034133
 20
119.1143782788113
 30
0.0
 40
10.00000000000014
100
AcDbArc
 50
270.0
 51
90.0
  0
ARC
  5
33D
330
74
100
AcDbEntity
  8
A1E-----M5_______Rohbau
  6
STRICHLINIE_S4
 62
     7
 48
1000.0
370
    13
100
AcDbCircle
 10
144.3760836034133
 20
119.1143782788113
 30
0.0
 40
9.40000000000012
100
AcDbArc
 50
270.0
 51
90.0
  0
ARC
  5
33E
330
74
100
AcDbEntity
  8
A1E-----M5_______Rohbau
  6
STRICHLINIE_S4
 62
     7
 48
1000.0
370
    13
100
AcDbCircle
 10
39.97608360341354
 20
119.1143782788113
 30
0.0
 40
10.00000000000014
100
AcDbArc
 50
90.0
 51
270.0
  0
ARC
  5
33F
330
74
100
AcDbEntity
  8
A1E-----M5_______Rohbau
  6
STRICHLINIE_S4
 62
     7
 48
1000.0
370
    13
100
AcDbCircle
 10
39.97608360341354
 20
119.1143782788113
 30
0.0
 40
9.40000000000012
100
AcDbArc
 50
90.0
 51
270.0
  0
MTEXT
  5
341
102
{ACAD_XDICTIONARY
360
386
102
}
330
74
100
AcDbEntity
  8
A1------T2_______Text_1_5
  6
Continuous
 62
     7
370
    25
100
AcDbMText
 10
104.3381355276276
 20
85.56656760615027
 30
0.0
 40
2.2
 41
0.0
 71
     4
 72
     1
  1
{\A1;15}
  7
ERSTELLTER_STIL_1
 73
     1
 44
1.0
  0
MTEXT
  5
342
102
{ACAD_XDICTIONARY
360
388
102
}
330
74
100
AcDbEntity
  8
A1------T2_______Text_1_5
  6
Continuous
 62
     7
370
    25
100
AcDbMText
 10
47.71739454842972
 20
85.56656760615027
 30
0.0
 40
2.2
 41
0.0
 71
     4
 72
     1
  1
{\A1;15}
  7
ERSTELLTER_STIL_1
 73
     1
 44
1.0
  0
MTEXT
  5
343
102
{ACAD_XDICTIONARY
360
38A
102
}
330
74
100
AcDbEntity
  8
A1------T2_______Text_1_5
  6
Continuous
 62
     7
370
    25
100
AcDbMText
 10
20.24023728544666
 20
163.7478735950115
 30
0.0
 40
2.2
 41
0.0
 71
     4
 72
     1
  1
{\A1;49}
  7
ERSTELLTER_STIL_1
 73
     1
 44
1.0
  0
MTEXT
  5
344
102
{ACAD_XDICTIONARY
360
38C
102
}
330
74
100
AcDbEntity
  8
A1------T2_______Text_1_5
  6
Continuous
 62
     7
370
    25
100
AcDbMText
 10
58.12270854490586
 20
85.56656760615027
 30
0.0
 40
2.2
 41
0.0
 71
     4
 72
     1
  1
{\A1;26}
  7
ERSTELLTER_STIL_1
 73
     1
 44
1.0
  0
MTEXT
  5
345
102
{ACAD_XDICTIONARY
360
38E
102
}
330
74
100
AcDbEntity
  8
A1------T2_______Text_1_5
  6
Continuous
 62
     7
370
    25
100
AcDbMText
 10
68.62270153089467
 20
85.62591047912836
 30
0.0
 40
2.2
 41
0.0
 71
     4
 72
     1
  1
{\A1;47}
  7
ERSTELLTER_STIL_1
 73
     1
 44
1.0
  0
MTEXT
  5
346
102
{ACAD_XDICTIONARY
360
390
102
}
330
74
100
AcDbEntity
  8
A1------T2_______Text_1_5
  6
Continuous
 62
     7
370
    25
100
AcDbMText
 10
150.0749956610929
 20
47.48014509250791
 30
0.0
 40
2.2
 41
0.0
 71
     4
 72
     1
  1
{\A1;Kittfuge mit}
  7
ERSTELLTER_STIL_1
 73
     1
 44
1.0
  0
MTEXT
  5
347
102
{ACAD_XDICTIONARY
360
392
102
}
330
74
100
AcDbEntity
  8
A1------T2_______Text_1_5
  6
Continuous
 62
     7
370
    25
100
AcDbMText
 10
150.0749956610929
 20
43.7487196687276
 30
0.0
 40
2.2
 41
0.0
 71
     4
 72
     1
  1
{\A1;RÖFIX Fugendichtband 2D}
  7
ERSTELLTER_STIL_1
 73
     1
 44
1.0
  0
MTEXT
  5
348
102
{ACAD_XDICTIONARY
360
394
102
}
330
74
100
AcDbEntity
  8
A1------T2_______Text_1_5
  6
Continuous
 62
     7
370
    25
100
AcDbMText
 10
142.2399592232821
 20
52.70775348753924
 30
0.0
 40
2.2
 41
0.0
 71
     4
 72
     1
  1
{\A1;15}
  7
ERSTELLTER_STIL_1
 73
     1
 44
1.0
  0
MTEXT
  5
349
102
{ACAD_XDICTIONARY
360
396
102
}
330
74
100
AcDbEntity
  8
A1------T2_______Text_1_5
  6
Continuous
 62
     7
370
    25
100
AcDbMText
 10
150.0749956610929
 20
52.40869513466399
 30
0.0
 40
2.200000000000001
 41
0.0
 71
     4
 72
     1
  1
{\A1;Bauwerksabdichtung (bauseits)}
  7
ERSTELLTER_STIL_1
 73
     1
 44
1.0
  0
MTEXT
  5
34A
102
{ACAD_XDICTIONARY
360
398
102
}
330
74
100
AcDbEntity
  8
A1------T2_______Text_1_5
  6
Continuous
 62
     7
370
    25
100
AcDbMText
 10
142.2399592232821
 20
47.77920147062502
 30
0.0
 40
2.2
 41
0.0
 71
     4
 72
     1
  1
{\A1;26}
  7
ERSTELLTER_STIL_1
 73
     1
 44
1.0
  0
MTEXT
  5
34B
102
{ACAD_XDICTIONARY
360
39A
102
}
330
74
100
AcDbEntity
  8
A1------T2_______Text_1_5
  6
Continuous
 62
     7
370
    40
100
AcDbMText
 10
150.0749956610929
 20
26.13631677025167
 30
0.0
 40
2.2
 41
0.0
 71
     4
 72
     1
  1
{\A1;aus Glasfaserbeton}
  7
ERSTELLTER_STIL_1
 73
     1
 44
1.0
  0
MTEXT
  5
34C
102
{ACAD_XDICTIONARY
360
39C
102
}
330
74
100
AcDbEntity
  8
A1------T2_______Text_1_5
  6
Continuous
 62
     7
370
    40
100
AcDbMText
 10
150.0749956610929
 20
30.26207255117473
 30
0.0
 40
2.2
 41
0.0
 71
     4
 72
     1
  1
{\A1;RÖFIX Schwellenelement}
  7
ERSTELLTER_STIL_1
 73
     1
 44
1.0
  0
MTEXT
  5
34D
102
{ACAD_XDICTIONARY
360
39E
102
}
330
74
100
AcDbEntity
  8
A1------T2_______Text_1_5
  6
Continuous
 62
     7
370
    25
100
AcDbMText
 10
142.2399592232821
 20
30.0649044194398
 30
0.0
 40
2.2
 41
0.0
 71
     4
 72
     1
  1
{\A1;49}
  7
ERSTELLTER_STIL_1
 73
     1
 44
1.0
  0
MTEXT
  5
34E
102
{ACAD_XDICTIONARY
360
3A0
102
}
330
74
100
AcDbEntity
  8
A1------T2_______Text_1_5
  6
Continuous
 62
     7
370
    25
100
AcDbMText
 10
142.2399592232821
 20
38.94046812360384
 30
0.0
 40
2.2
 41
0.0
 71
     4
 72
     1
  1
{\A1;47}
  7
ERSTELLTER_STIL_1
 73
     1
 44
1.0
  0
LINE
  5
34F
330
74
100
AcDbEntity
  8
A1------T2_______Text_1_5
  6
Continuous
 62
   255
 48
1000.0
370
     5
100
AcDbLine
 10
19.99999999999935
 20
224.568173846277
 30
0.0
 11
110.8870334232925
 21
224.568173846277
 31
0.0
  0
LINE
  5
350
330
74
100
AcDbEntity
  8
A1------T2_______Text_1_5
  6
Continuous
 62
   255
 48
1000.0
370
     5
100
AcDbLine
 10
110.8870334232925
 20
224.568173846277
 30
0.0
 11
110.8870334232925
 21
228.0241974645456
 31
0.0
  0
LINE
  5
351
330
74
100
AcDbEntity
  8
A1------T2_______Text_1_5
  6
Continuous
 62
   255
 48
1000.0
370
     5
100
AcDbLine
 10
110.8870334232925
 20
228.0241974645456
 30
0.0
 11
19.99999999999935
 21
228.0241974645456
 31
0.0
  0
LINE
  5
352
330
74
100
AcDbEntity
  8
A1------T2_______Text_1_5
  6
Continuous
 62
   255
 48
1000.0
370
     5
100
AcDbLine
 10
19.99999999999935
 20
228.0241974645456
 30
0.0
 11
19.99999999999935
 21
224.568173846277
 31
0.0
  0
MTEXT
  5
353
102
{ACAD_XDICTIONARY
360
3A2
102
}
330
74
100
AcDbEntity
  8
A1------T2_______Text_1_5
  6
Continuous
 62
     7
370
    25
100
AcDbMText
 10
19.99999999999935
 20
226.2797144609669
 30
0.0
 40
2.50009201388889
 41
0.0
 71
     4
 72
     1
  1
{\A1;\W0.93383x;Datum 08.07.2019}
 73
     1
 44
1.0
  0
LINE
  5
354
330
74
100
AcDbEntity
  8
A1------T2_______Text_1_5
  6
Continuous
 62
   255
 48
1000.0
370
     5
100
AcDbLine
 10
19.99999999999935
 20
246.054370446247
 30
0.0
 11
126.7916666666662
 21
246.054370446247
 31
0.0
  0
LINE
  5
355
330
74
100
AcDbEntity
  8
A1------T2_______Text_1_5
  6
Continuous
 62
   255
 48
1000.0
370
     5
100
AcDbLine
 10
126.7916666666662
 20
246.054370446247
 30
0.0
 11
126.7916666666662
 21
251.5836565971112
 31
0.0
  0
LINE
  5
356
330
74
100
AcDbEntity
  8
A1------T2_______Text_1_5
  6
Continuous
 62
   255
 48
1000.0
370
     5
100
AcDbLine
 10
126.7916666666662
 20
251.5836565971112
 30
0.0
 11
19.99999999999935
 21
251.5836565971112
 31
0.0
  0
LINE
  5
357
330
74
100
AcDbEntity
  8
A1------T2_______Text_1_5
  6
Continuous
 62
   255
 48
1000.0
370
     5
100
AcDbLine
 10
19.99999999999935
 20
251.5836565971112
 30
0.0
 11
19.99999999999935
 21
246.054370446247
 31
0.0
  0
MTEXT
  5
358
102
{ACAD_XDICTIONARY
360
3A4
102
}
330
74
100
AcDbEntity
  8
A1------T2_______Text_1_5
  6
Continuous
 62
     7
370
    25
100
AcDbMText
 10
19.99999999999935
 20
249.1027790952593
 30
0.0
 40
3.999897337962964
 41
0.0
 71
     4
 72
     1
  1
{\A1;\W0.93383x;E. Sitzplatz, Balkon, Terrasse}
 73
     1
 44
1.0
  0
LINE
  5
359
330
74
100
AcDbEntity
  8
A1------T2_______Text_1_5
  6
Continuous
 62
   255
 48
1000.0
370
     5
100
AcDbLine
 10
19.99999999999935
 20
235.2015609753335
 30
0.0
 11
197.759788378062
 21
235.2015609753335
 31
0.0
  0
LINE
  5
35A
330
74
100
AcDbEntity
  8
A1------T2_______Text_1_5
  6
Continuous
 62
   255
 48
1000.0
370
     5
100
AcDbLine
 10
197.759788378062
 20
235.2015609753335
 30
0.0
 11
197.759788378062
 21
239.2605566787443
 31
0.0
  0
LINE
  5
35B
330
74
100
AcDbEntity
  8
A1------T2_______Text_1_5
  6
Continuous
 62
   255
 48
1000.0
370
     5
100
AcDbLine
 10
197.759788378062
 20
239.2605566787443
 30
0.0
 11
19.99999999999935
 21
239.2605566787443
 31
0.0
  0
LINE
  5
35C
330
74
100
AcDbEntity
  8
A1------T2_______Text_1_5
  6
Continuous
 62
   255
 48
1000.0
370
     5
100
AcDbLine
 10
19.99999999999935
 20
239.2605566787443
 30
0.0
 11
19.99999999999935
 21
235.2015609753335
 31
0.0
  0
MTEXT
  5
35D
102
{ACAD_XDICTIONARY
360
3A6
102
}
330
74
100
AcDbEntity
  8
A1------T2_______Text_1_5
  6
Continuous
 62
     7
370
    25
100
AcDbMText
 10
19.99999999999935
 20
237.2430592687054
 30
0.0
 40
2.999999999999997
 41
0.0
 71
     4
 72
     1
  1
{\A1;\W0.93383x;E.2 ^I }{\A1;\H1.00004x;\W0.93383x;Schwellenelement aus Glasfaserbeton}
 73
     1
 44
1.0
  0
MTEXT
  5
35E
102
{ACAD_XDICTIONARY
360
3A8
102
}
330
74
100
AcDbEntity
  8
A1------T2_______Text_1_5
  6
Continuous
 62
     7
370
    25
100
AcDbMText
 10
137.4094511312862
 20
193.8608895214778
 30
0.0
 40
2.2
 41
0.0
 71
     4
 72
     1
  1
{\A1;26}
  7
ERSTELLTER_STIL_1
 73
     1
 44
1.0
  0
MTEXT
  5
35F
102
{ACAD_XDICTIONARY
360
3AA
102
}
330
74
100
AcDbEntity
  8
A1------T2_______Text_1_5
  6
Continuous
 62
     7
370
    40
100
AcDbMText
 10
20.69560684723116
 20
152.1176126413013
 30
0.0
 40
2.2
 41
0.0
 71
     4
 72
     1
  1
{\A1;Gefälle mind.1.5%}
  7
ERSTELLTER_STIL_1
 11
0.999839716251794
 21
0.01790368134021516
 31
0.0
 73
     1
 44
1.0
  0
MTEXT
  5
360
102
{ACAD_XDICTIONARY
360
3AC
102
}
330
74
100
AcDbEntity
  8
A1------T2_______Text_1_5
  6
Continuous
 62
     7
370
    40
100
AcDbMText
 10
150.0878075940766
 20
38.62299044503253
 30
0.0
 40
2.2
 41
0.0
 71
     4
 72
     1
  1
{\A1;Vollflächige Verklebung mit}
  7
ERSTELLTER_STIL_1
 73
     1
 44
1.0
  0
MTEXT
  5
361
102
{ACAD_XDICTIONARY
360
3AE
102
}
330
74
100
AcDbEntity
  8
A1------T2_______Text_1_5
  6
Continuous
 62
     7
370
    25
100
AcDbMText
 10
150.0878075940766
 20
34.90918644948346
 30
0.0
 40
2.200120659722223
 41
0.0
 71
     4
 72
     1
  1
{\A1;RÖFIX Collstar oder }{\A1;\H0.99994x;RÖFIX Optiflex{\A1;\Ftxt.shx;\H0.66000x;\S®^  ;}}
  7
ERSTELLTER_STIL_1
 73
     1
 44
1.0
  0
LINE
  5
362
330
74
100
AcDbEntity
  8
A1E-----M5_______Rohbau
  6
Continuous
 62
     7
 48
1000.0
370
    20
100
AcDbLine
 10
49.42459837422697
 20
139.5173715912312
 30
0.0
 11
49.42459837422697
 21
87.867443242724
 31
0.0
  0
CIRCLE
  5
363
330
74
100
AcDbEntity
  8
A1E-----M5_______Rohbau
  6
Continuous
 62
     7
 48
1000.0
370
    20
100
AcDbCircle
 10
49.42459837422697
 20
140.1173715912314
 30
0.0
 40
0.6000000000000001
  0
HATCH
  5
364
330
74
100
AcDbEntity
  8
A1E-----M5_______Rohbau
  6
Continuous
 62
     7
370
    20
100
AcDbHatch
 10
0.0
 20
0.0
 30
0.0
210
0.0
220
0.0
230
1.0
  2
SOLID
 70
     1
 71
     0
 91
        1
 92
        3
 72
     0
 73
     1
 93
       16
 10
48.82459837422681
 20
140.1173715912314
 10
48.87027066161686
 20
139.8877615311498
 10
49.00033430155681
 20
139.6931075185612
 10
49.19498831414537
 20
139.5630438786215
 10
49.42459837422697
 20
139.5173715912312
 10
49.65420843430856
 20
139.5630438786215
 10
49.84886244689712
 20
139.6931075185612
 10
49.97892608683707
 20
139.8877615311498
 10
50.0245983742269
 20
140.1173715912314
 10
49.97892608683707
 20
140.346981651313
 10
49.84886244689712
 20
140.5416356639015
 10
49.65420843430856
 20
140.6716993038413
 10
49.42459837422697
 20
140.7173715912313
 10
49.19498831414537
 20
140.6716993038413
 10
49.00033430155681
 20
140.5416356639015
 10
48.87027066161686
 20
140.346981651313
 97
        0
 75
     0
 76
     1
 98
        0
  0
LINE
  5
365
330
74
100
AcDbEntity
  8
A1E-----M5_______Rohbau
  6
Continuous
 62
     7
 48
1000.0
370
    20
100
AcDbLine
 10
106.0453393534249
 20
145.2017027194579
 30
0.0
 11
106.0453393534249
 21
87.867443242724
 31
0.0
  0
CIRCLE
  5
366
330
74
100
AcDbEntity
  8
A1E-----M5_______Rohbau
  6
Continuous
 62
     7
 48
1000.0
370
    20
100
AcDbCircle
 10
106.0453393534249
 20
145.8017027194578
 30
0.0
 40
0.6000000000000001
  0
HATCH
  5
367
330
74
100
AcDbEntity
  8
A1E-----M5_______Rohbau
  6
Continuous
 62
     7
370
    20
100
AcDbHatch
 10
0.0
 20
0.0
 30
0.0
210
0.0
220
0.0
230
1.0
  2
SOLID
 70
     1
 71
     0
 91
        1
 92
        3
 72
     0
 73
     1
 93
       16
 10
105.4453393534249
 20
145.8017027194578
 10
105.491011640815
 20
145.5720926593762
 10
105.6210752807547
 20
145.3774386467877
 10
105.8157292933433
 20
145.2473750068479
 10
106.0453393534249
 20
145.2017027194579
 10
106.2749494135065
 20
145.2473750068479
 10
106.469603426095
 20
145.3774386467877
 10
106.599667066035
 20
145.5720926593762
 10
106.645339353425
 20
145.8017027194578
 10
106.599667066035
 20
146.0313127795394
 10
106.469603426095
 20
146.225966792128
 10
106.2749494135065
 20
146.3560304320677
 10
106.0453393534249
 20
146.4017027194577
 10
105.8157292933433
 20
146.3560304320677
 10
105.6210752807547
 20
146.225966792128
 10
105.491011640815
 20
146.0313127795394
 97
        0
 75
     0
 76
     1
 98
        0
  0
HATCH
  5
368
330
74
100
AcDbEntity
  8
A1------H2_______Schraffur_Filling_1_5
  6
Continuous
 62
     7
370
    13
100
AcDbHatch
 10
0.0
 20
0.0
 30
0.0
210
0.0
220
0.0
230
1.0
  2
Kunststein__Betonwerkste_27
 70
     0
 71
     0
 91
        1
 92
        3
 72
     0
 73
     1
 93
        8
 10
112.739462493008
 20
169.7822847083816
 10
56.37598594716331
 20
166.4667734400762
 10
56.37598594716331
 20
147.4017027194581
 10
72.37598566046887
 20
147.4017027194581
 10
72.37598566046887
 20
164.3796938475126
 10
116.2590777611263
 20
166.9610365698655
 10
116.2596230110178
 20
171.9608828168784
 10
112.739462493008
 20
171.9608828168784
 97
        0
 75
     0
 76
     2
 52
0.0
 41
1.0
 77
     0
 78
     2
 53
0.0
 43
73.89973718222032
 44
159.6812927681681
 45
0.0
 46
5.000000000000001
 79
     0
 53
90.0000000000002
 43
73.89973718222032
 44
159.6812927681681
 45
-5.000000000000001
 46
0.0
 79
     0
 98
        0
  0
LWPOLYLINE
  5
369
330
74
100
AcDbEntity
  8
A1------H2_______Schraffur_Filling_1_5
  6
Continuous
 62
     7
 48
1000.0
370
    30
100
AcDbPolyline
 90
        8
 70
   129
 43
0.0
 10
112.739462493008
 20
169.7822847083816
 10
56.37598594716331
 20
166.4667734400762
 10
56.37598594716331
 20
147.4017027194581
 10
72.37598566046887
 20
147.4017027194581
 10
72.37598566046887
 20
164.3796938475126
 10
116.2590777611263
 20
166.9610365698655
 10
116.2596230110178
 20
171.9608828168784
 10
112.739462493008
 20
171.9608828168784
  0
HATCH
  5
36A
330
74
100
AcDbEntity
  8
A1------H2_______Schraffur_Filling_1_5
  6
Continuous
 62
     7
370
    13
100
AcDbHatch
 10
0.0
 20
0.0
 30
0.0
210
0.0
220
0.0
230
1.0
  2
Kunststein__Betonwerkste_27
 70
     0
 71
     0
 91
        1
 92
        3
 72
     1
 73
     1
 93
        6
 10
148.2417479629929
 20
181.860755938986
 42
0.0
 10
172.1038506811601
 20
183.2643983850524
 42
0.0
 10
172.1055025245681
 20
198.412410726017
 42
0.0
 10
161.4404877561901
 20
198.412410726017
 42
0.0
 10
161.4404877561901
 20
191.8119229288471
 42
0.0
 10
146.5248743727399
 20
190.8205546437485
 42
0.0949462929510346
 97
        0
 75
     0
 76
     2
 52
0.0
 41
1.0
 77
     0
 78
     2
 53
0.0
 43
43.76795119751464
 44
161.2089934067269
 45
0.0
 46
15.14847701027155
 79
     0
 53
90.0000000000002
 43
43.76795119751464
 44
161.2089934067269
 45
-15.14847701027155
 46
0.0
 79
     0
 98
        0
  0
LWPOLYLINE
  5
36B
330
74
100
AcDbEntity
  8
A1------H2_______Schraffur_Filling_1_5
  6
Continuous
 62
     7
 48
1000.0
370
    30
100
AcDbPolyline
 90
        6
 70
   129
 43
0.0
 10
148.2417479629929
 20
181.860755938986
 10
172.1038506811601
 20
183.2643983850524
 10
172.1055025245681
 20
198.412410726017
 10
161.4404877561901
 20
198.412410726017
 10
161.4404877561901
 20
191.8119229288471
 10
146.5248743727399
 20
190.8205546437485
 42
0.0949462929510346
  0
LINE
  5
36C
330
74
100
AcDbEntity
  8
A1E-----M5_______Rohbau
  6
Continuous
 62
     7
 48
1000.0
370
    20
100
AcDbLine
 10
60.56554576567819
 20
162.9672218878351
 30
0.0
 11
26.16998137191917
 21
162.9672218878351
 31
0.0
  0
CIRCLE
  5
36D
330
74
100
AcDbEntity
  8
A1E-----M5_______Rohbau
  6
Continuous
 62
     7
 48
1000.0
370
    20
100
AcDbCircle
 10
61.16554576567835
 20
162.9672218878351
 30
0.0
 40
0.6000000000000001
  0
HATCH
  5
36E
330
74
100
AcDbEntity
  8
A1E-----M5_______Rohbau
  6
Continuous
 62
     7
370
    20
100
AcDbHatch
 10
0.0
 20
0.0
 30
0.0
210
0.0
220
0.0
230
1.0
  2
SOLID
 70
     1
 71
     0
 91
        1
 92
        3
 72
     0
 73
     1
 93
       16
 10
60.56554576567819
 20
162.9672218878351
 10
60.61121805306824
 20
162.7376118277535
 10
60.74128169300819
 20
162.5429578151649
 10
60.93593570559675
 20
162.4128941752252
 10
61.16554576567835
 20
162.3672218878349
 10
61.39515582575994
 20
162.4128941752252
 10
61.5898098383485
 20
162.5429578151649
 10
61.71987347828845
 20
162.7376118277535
 10
61.76554576567828
 20
162.9672218878351
 10
61.71987347828845
 20
163.1968319479167
 10
61.5898098383485
 20
163.3914859605052
 10
61.39515582575994
 20
163.521549600445
 10
61.16554576567835
 20
163.567221887835
 10
60.93593570559675
 20
163.521549600445
 10
60.74128169300819
 20
163.3914859605052
 10
60.61121805306824
 20
163.1968319479167
 97
        0
 75
     0
 76
     1
 98
        0
  0
LINE
  5
36F
330
74
100
AcDbEntity
  8
A1E-----M5_______Rohbau
  6
Continuous
 62
     7
 48
1000.0
370
    20
100
AcDbLine
 10
174.8385486330974
 20
193.0802427462586
 30
0.0
 11
143.3357521509
 21
193.0802427462586
 31
0.0
  0
CIRCLE
  5
370
330
74
100
AcDbEntity
  8
A1E-----M5_______Rohbau
  6
Continuous
 62
     7
 48
1000.0
370
    20
100
AcDbCircle
 10
175.4385486330974
 20
193.0802427462586
 30
0.0
 40
0.6000000000000001
  0
HATCH
  5
371
330
74
100
AcDbEntity
  8
A1E-----M5_______Rohbau
  6
Continuous
 62
     7
370
    20
100
AcDbHatch
 10
0.0
 20
0.0
 30
0.0
210
0.0
220
0.0
230
1.0
  2
SOLID
 70
     1
 71
     0
 91
        1
 92
        3
 72
     0
 73
     1
 93
       16
 10
174.8385486330974
 20
193.0802427462586
 10
174.8842209204875
 20
192.850632686177
 10
175.0142845604272
 20
192.6559786735884
 10
175.2089385730158
 20
192.5259150336487
 10
175.4385486330974
 20
192.4802427462584
 10
175.668158693179
 20
192.5259150336487
 10
175.8628127057675
 20
192.6559786735884
 10
175.9928763457075
 20
192.850632686177
 10
176.0385486330975
 20
193.0802427462586
 10
175.9928763457075
 20
193.3098528063402
 10
175.8628127057675
 20
193.5045068189287
 10
175.668158693179
 20
193.6345704588684
 10
175.4385486330974
 20
193.6802427462585
 10
175.2089385730158
 20
193.6345704588684
 10
175.0142845604272
 20
193.5045068189287
 10
174.8842209204875
 20
193.3098528063402
 97
        0
 75
     0
 76
     1
 98
        0
  0
ENDBLK
  5
76
330
74
100
AcDbEntity
  8
0
100
AcDbBlockEnd
  0
BLOCK
  5
377
330
376
100
AcDbEntity
  8
0
100
AcDbBlockBegin
  2
02.25 23. Detail E.2_STORY_MARKER
 70
     0
 10
0.0
 20
0.0
 30
0.0
  3
02.25 23. Detail E.2_STORY_MARKER
  1

  0
ENDBLK
  5
378
330
376
100
AcDbEntity
  8
0
100
AcDbBlockEnd
  0
ENDSEC
  0
SECTION
  2
ENTITIES
  0
VIEWPORT
  5
6E
102
{ACAD_XDICTIONARY
360
384
102
}
330
1B
100
AcDbEntity
 67
     1
  8
0
  6
Continuous
370
     0
100
AcDbViewport
 10
105.0
 20
148.5
 30
0.0
 40
0.252
 41
0.3564
 68
     1
 69
     1
 12
105.0
 22
148.5
 13
0.0
 23
0.0
 14
0.5
 24
0.5
 15
0.0
 25
0.0
 16
0.0
 26
0.0
 36
1.0
 17
0.0
 27
0.0
 37
0.0
 42
50.0
 43
0.0
 44
0.0
 45
0.3564
 50
0.0
 51
0.0
 72
   100
 90
   557152
  1

281
     0
 71
     1
 74
     0
110
0.0
120
0.0
130
0.0
111
1.0
121
0.0
131
0.0
112
0.0
122
1.0
132
0.0
 79
     0
146
0.0
  0
LINE
  5
6F
330
1B
100
AcDbEntity
 67
     1
  8
FORMAT
  6
Continuous
 62
     7
 48
1000.0
370
    13
100
AcDbLine
 10
20.0
 20
215.0
 30
0.0
 11
195.0
 21
215.0
 31
0.0
  0
LINE
  5
71
330
1B
100
AcDbEntity
 67
     1
  8
FORMAT
  6
Continuous
 62
     7
 48
1000.0
370
    13
100
AcDbLine
 10
195.0
 20
215.0
 30
0.0
 11
195.0
 21
25.0
 31
0.0
  0
LINE
  5
72
330
1B
100
AcDbEntity
 67
     1
  8
FORMAT
  6
Continuous
 62
     7
 48
1000.0
370
    13
100
AcDbLine
 10
195.0
 20
25.0
 30
0.0
 11
20.0
 21
25.0
 31
0.0
  0
LINE
  5
73
330
1B
100
AcDbEntity
 67
     1
  8
FORMAT
  6
Continuous
 62
     7
 48
1000.0
370
    13
100
AcDbLine
 10
20.0
 20
25.0
 30
0.0
 11
20.0
 21
215.0
 31
0.0
  0
INSERT
  5
372
102
{ACAD_XDICTIONARY
360
373
102
}
330
1B
100
AcDbEntity
 67
     1
  8
0
  6
Continuous
 62
     1
 48
1000.0
370
    35
100
AcDbBlockReference
  2
Zeichnung_1_1
 10
1693.024586529066
 20
1652.125968747971
 30
0.0
  0
ENDSEC
  0
SECTION
  2
OBJECTS
  0
DICTIONARY
  5
C
330
0
100
AcDbDictionary
281
     1
  3
ACAD_GROUP
350
D
  3
ACAD_LAYOUT
350
1A
  3
ACAD_MATERIAL
350
43
  3
ACAD_MLEADERSTYLE
350
6B
  3
ACAD_MLINESTYLE
350
17
  3
ACAD_PLOTSETTINGS
350
19
  3
ACAD_PLOTSTYLENAME
350
E
  3
ACAD_SCALELIST
350
47
  3
ACAD_TABLESTYLE
350
69
  3
ACAD_VISUALSTYLE
350
2A
  3
AcDbVariableDictionary
350
37C
  3
ACDB_RECOMPOSE_DATA
350
3ED
  3
WATERMARKS
350
37A
  0
DICTIONARY
  5
3B0
330
8
100
AcDbDictionary
280
     1
281
     1
  3
ACAD_XREC_ROUNDTRIP
360
3B1
  0
DICTIONARY
  5
386
330
341
100
AcDbDictionary
280
     1
281
     1
  3
ACAD_MTEXT_RT
360
387
  0
DICTIONARY
  5
388
330
342
100
AcDbDictionary
280
     1
281
     1
  3
ACAD_MTEXT_RT
360
389
  0
DICTIONARY
  5
38A
330
343
100
AcDbDictionary
280
     1
281
     1
  3
ACAD_MTEXT_RT
360
38B
  0
DICTIONARY
  5
38C
330
344
100
AcDbDictionary
280
     1
281
     1
  3
ACAD_MTEXT_RT
360
38D
  0
DICTIONARY
  5
38E
330
345
100
AcDbDictionary
280
     1
281
     1
  3
ACAD_MTEXT_RT
360
38F
  0
DICTIONARY
  5
390
330
346
100
AcDbDictionary
280
     1
281
     1
  3
ACAD_MTEXT_RT
360
391
  0
DICTIONARY
  5
392
330
347
100
AcDbDictionary
280
     1
281
     1
  3
ACAD_MTEXT_RT
360
393
  0
DICTIONARY
  5
394
330
348
100
AcDbDictionary
280
     1
281
     1
  3
ACAD_MTEXT_RT
360
395
  0
DICTIONARY
  5
396
330
349
100
AcDbDictionary
280
     1
281
     1
  3
ACAD_MTEXT_RT
360
397
  0
DICTIONARY
  5
398
330
34A
100
AcDbDictionary
280
     1
281
     1
  3
ACAD_MTEXT_RT
360
399
  0
DICTIONARY
  5
39A
330
34B
100
AcDbDictionary
280
     1
281
     1
  3
ACAD_MTEXT_RT
360
39B
  0
DICTIONARY
  5
39C
330
34C
100
AcDbDictionary
280
     1
281
     1
  3
ACAD_MTEXT_RT
360
39D
  0
DICTIONARY
  5
39E
330
34D
100
AcDbDictionary
280
     1
281
     1
  3
ACAD_MTEXT_RT
360
39F
  0
DICTIONARY
  5
3A0
330
34E
100
AcDbDictionary
280
     1
281
     1
  3
ACAD_MTEXT_RT
360
3A1
  0
DICTIONARY
  5
3A2
330
353
100
AcDbDictionary
280
     1
281
     1
  3
ACAD_MTEXT_RT
360
3A3
  0
DICTIONARY
  5
3A4
330
358
100
AcDbDictionary
280
     1
281
     1
  3
ACAD_MTEXT_RT
360
3A5
  0
DICTIONARY
  5
3A6
330
35D
100
AcDbDictionary
280
     1
281
     1
  3
ACAD_MTEXT_RT
360
3A7
  0
DICTIONARY
  5
3A8
330
35E
100
AcDbDictionary
280
     1
281
     1
  3
ACAD_MTEXT_RT
360
3A9
  0
DICTIONARY
  5
3AA
330
35F
100
AcDbDictionary
280
     1
281
     1
  3
ACAD_MTEXT_RT
360
3AB
  0
DICTIONARY
  5
3AC
330
360
100
AcDbDictionary
280
     1
281
     1
  3
ACAD_MTEXT_RT
360
3AD
  0
DICTIONARY
  5
3AE
330
361
100
AcDbDictionary
280
     1
281
     1
  3
ACAD_MTEXT_RT
360
3AF
  0
DICTIONARY
  5
384
330
6E
100
AcDbDictionary
280
     1
281
     1
  3
ACAD_XREC_ROUNDTRIP
360
385
  0
DICTIONARY
  5
373
330
372
100
AcDbDictionary
280
     1
281
     1
  3
ACAD_FILTER
360
374
  0
DICTIONARY
  5
D
102
{ACAD_REACTORS
330
C
102
}
330
C
100
AcDbDictionary
281
     1
  0
DICTIONARY
  5
1A
102
{ACAD_REACTORS
330
C
102
}
330
C
100
AcDbDictionary
281
     1
  3
02.25 23. Detail E.2
350
1E
  3
Model
350
22
  0
DICTIONARY
  5
43
102
{ACAD_REACTORS
330
C
102
}
330
C
100
AcDbDictionary
281
     1
  3
ByBlock
350
45
  3
ByLayer
350
44
  3
Global
350
46
  0
DICTIONARY
  5
6B
102
{ACAD_REACTORS
330
C
102
}
330
C
100
AcDbDictionary
281
     1
  3
Standard
350
6C
  0
DICTIONARY
  5
17
102
{ACAD_REACTORS
330
C
102
}
330
C
100
AcDbDictionary
281
     1
  3
Standard
350
18
  0
DICTIONARY
  5
19
102
{ACAD_REACTORS
330
C
102
}
330
C
100
AcDbDictionary
281
     1
  0
ACDBDICTIONARYWDFLT
  5
E
102
{ACAD_REACTORS
330
C
102
}
330
C
100
AcDbDictionary
281
     1
  3
Normal
350
F
100
AcDbDictionaryWithDefault
340
F
  0
DICTIONARY
  5
47
102
{ACAD_REACTORS
330
C
102
}
330
C
100
AcDbDictionary
281
     1
  3
A0
350
48
  3
A1
350
49
  3
A2
350
4A
  3
A3
350
4B
  3
A4
350
4C
  3
A5
350
4D
  3
A6
350
4E
  3
A7
350
4F
  3
A8
350
50
  3
A9
350
51
  3
B0
350
52
  3
B1
350
53
  3
B2
350
54
  3
B3
350
55
  3
B4
350
56
  3
B5
350
57
  3
B6
350
58
  3
B7
350
59
  3
B8
350
5A
  3
B9
350
5B
  3
C0
350
5C
  3
C1
350
5D
  3
C2
350
5E
  3
C3
350
5F
  3
C4
350
60
  3
C5
350
61
  3
C6
350
62
  3
C7
350
63
  3
C8
350
64
  3
C9
350
65
  3
D0
350
66
  3
D1
350
67
  3
D2
350
68
  0
DICTIONARY
  5
69
102
{ACAD_REACTORS
330
C
102
}
330
C
100
AcDbDictionary
281
     1
  3
Standard
350
6A
  0
DICTIONARY
  5
2A
102
{ACAD_REACTORS
330
C
102
}
330
C
100
AcDbDictionary
281
     1
  3
2dWireframe
350
2F
  3
Basic
350
32
  3
Brighten
350
36
  3
ColorChange
350
3A
  3
Conceptual
350
34
  3
Dim
350
35
  3
EdgeColorOff
350
3D
  3
Facepattern
350
39
  3
Flat
350
2B
  3
FlatWithEdges
350
2C
  3
Gouraud
350
2D
  3
GouraudWithEdges
350
2E
  3
Hidden
350
31
  3
JitterOff
350
3B
  3
Linepattern
350
38
  3
OverhangOff
350
3C
  3
Realistic
350
33
  3
Shaded
350
42
  3
Shaded with edges
350
41
  3
Shades of Gray
350
3E
  3
Sketchy
350
3F
  3
Thicken
350
37
  3
Wireframe
350
30
  3
X-Ray
350
40
  0
DICTIONARY
  5
37C
102
{ACAD_REACTORS
330
C
102
}
330
C
100
AcDbDictionary
281
     1
  3
CANNOSCALE
350
3B2
  3
CMLEADERSTYLE
350
37E
  3
CTABLESTYLE
350
37D
  3
DIMASSOC
350
382
  3
HIDETEXT
350
383
  3
MSLTSCALE
350
3B3
  3
XCLIPFRAME
350
37F
  0
XRECORD
  5
3ED
102
{ACAD_REACTORS
330
C
102
}
330
C
100
AcDbXrecord
280
     1
 90
        1
330
342
330
343
330
341
330
344
330
345
330
346
330
347
330
34A
330
348
330
349
330
34D
330
34B
330
34E
330
34C
330
353
330
358
330
35D
330
35E
330
35F
330
360
330
361
  0
DICTIONARY
  5
37A
102
{ACAD_REACTORS
330
C
102
}
330
C
100
AcDbDictionary
281
     1
  3
AC_WATERMARK
350
37B
  0
XRECORD
  5
3B1
102
{ACAD_REACTORS
330
3B0
102
}
330
3B0
100
AcDbXrecord
280
     1
102
VTR_0.000_0.000_1.000_1.000_VISUALSTYLE
340
2F
102
VTR_0.000_0.000_1.000_1.000_GRIDDISPLAY
 70
     3
102
VTR_0.000_0.000_1.000_1.000_GRIDMAJOR
 70
     5
102
VTR_0.000_0.000_1.000_1.000_DEFAULTLIGHTING
280
     1
102
VTR_0.000_0.000_1.000_1.000_DEFAULTLIGHTINGTYPE
 70
     1
102
VTR_0.000_0.000_1.000_1.000_BRIGHTNESS
141
0.0
102
VTR_0.000_0.000_1.000_1.000_CONTRAST
142
0.0
  0
XRECORD
  5
387
102
{ACAD_REACTORS
330
386
102
}
330
386
100
AcDbXrecord
280
     1
 40
2658.0
  1
\A1;{\pql;\fArial|b0|i0|c0|p34;15}
  0
XRECORD
  5
389
102
{ACAD_REACTORS
330
388
102
}
330
388
100
AcDbXrecord
280
     1
 40
2658.0
  1
\A1;{\pql;\fArial|b0|i0|c0|p34;15}
  0
XRECORD
  5
38B
102
{ACAD_REACTORS
330
38A
102
}
330
38A
100
AcDbXrecord
280
     1
 40
2704.0
  1
\A1;{\pql;\fArial|b0|i0|c0|p34;49}
  0
XRECORD
  5
38D
102
{ACAD_REACTORS
330
38C
102
}
330
38C
100
AcDbXrecord
280
     1
 40
2671.0
  1
\A1;{\pql;\fArial|b0|i0|c0|p34;26}
  0
XRECORD
  5
38F
102
{ACAD_REACTORS
330
38E
102
}
330
38E
100
AcDbXrecord
280
     1
 40
2690.0
  1
\A1;{\pql;\fArial|b0|i0|c0|p34;47}
  0
XRECORD
  5
391
102
{ACAD_REACTORS
330
390
102
}
330
390
100
AcDbXrecord
280
     1
 40
16991.0
  1
\A1;{\pql;\fArial|b0|i0|c0|p34;Kittfuge mit}
  0
XRECORD
  5
393
102
{ACAD_REACTORS
330
392
102
}
330
392
100
AcDbXrecord
280
     1
 40
37943.0
  1
\A1;{\pql;\fArial|b0|i0|c0|p34;RÖFIX Fugendichtband 2D}
  0
XRECORD
  5
395
102
{ACAD_REACTORS
330
394
102
}
330
394
100
AcDbXrecord
280
     1
 40
2658.0
  1
\A1;{\pql;\fArial|b0|i0|c0|p34;15}
  0
XRECORD
  5
397
102
{ACAD_REACTORS
330
396
102
}
330
396
100
AcDbXrecord
280
     1
 40
61762.0
  1
\A1;{\pql;\fArial|b0|i0|c0|p34;Bauwerksabdichtung (bauseits)}
  0
XRECORD
  5
399
102
{ACAD_REACTORS
330
398
102
}
330
398
100
AcDbXrecord
280
     1
 40
2671.0
  1
\A1;{\pql;\fArial|b0|i0|c0|p34;26}
  0
XRECORD
  5
39B
102
{ACAD_REACTORS
330
39A
102
}
330
39A
100
AcDbXrecord
280
     1
 40
30941.0
  1
\A1;{\pql;\fArial|b0|i0|c0|p34;aus Glasfaserbeton}
  0
XRECORD
  5
39D
102
{ACAD_REACTORS
330
39C
102
}
330
39C
100
AcDbXrecord
280
     1
 40
40132.0
  1
\A1;{\pql;\fArial|b0|i0|c0|p34;RÖFIX Schwellenelement}
  0
XRECORD
  5
39F
102
{ACAD_REACTORS
330
39E
102
}
330
39E
100
AcDbXrecord
280
     1
 40
2704.0
  1
\A1;{\pql;\fArial|b0|i0|c0|p34;49}
  0
XRECORD
  5
3A1
102
{ACAD_REACTORS
330
3A0
102
}
330
3A0
100
AcDbXrecord
280
     1
 40
2690.0
  1
\A1;{\pql;\fArial|b0|i0|c0|p34;47}
  0
XRECORD
  5
3A3
102
{ACAD_REACTORS
330
3A2
102
}
330
3A2
100
AcDbXrecord
280
     1
 40
37297.0
  1
\A1;{\W0.933831x;\pql;\Ftxt.shx;Datum 08.07.2019}
  0
XRECORD
  5
3A5
102
{ACAD_REACTORS
330
3A4
102
}
330
3A4
100
AcDbXrecord
280
     1
 40
102153.0
  1
\A1;{\W0.933831x;\pql;\Ftxt.shx;E. \Ftxt.shx;Sitzplatz, Balkon, Terrasse}
  0
XRECORD
  5
3A7
102
{ACAD_REACTORS
330
3A6
102
}
330
3A6
100
AcDbXrecord
280
     1
 40
332654.0
  1
\A1;{\W0.933831x;\pql;\Ftxt.shx;E.2 ^I \Ftxt.shx;\H1.000037x;Schwellenelement aus Glasfaserbeton}
  0
XRECORD
  5
3A9
102
{ACAD_REACTORS
330
3A8
102
}
330
3A8
100
AcDbXrecord
280
     1
 40
2671.0
  1
\A1;{\pql;\fArial|b0|i0|c0|p34;26}
  0
XRECORD
  5
3AB
102
{ACAD_REACTORS
330
3AA
102
}
330
3AA
100
AcDbXrecord
280
     1
 40
20628.0
  1
\A1;{\pql;\fArial|b0|i0|c0|p34;Gefälle mind.1.5%}
  0
XRECORD
  5
3AD
102
{ACAD_REACTORS
330
3AC
102
}
330
3AC
100
AcDbXrecord
280
     1
 40
54199.0
  1
\A1;{\pql;\fArial|b0|i0|c0|p34;Vollflächige Verklebung mit}
  0
XRECORD
  5
3AF
102
{ACAD_REACTORS
330
3AE
102
}
330
3AE
100
AcDbXrecord
280
     1
 40
312445.0
  1
\A1;{\pql;\fArial|b0|i0|c0|p34;RÖFIX Collstar oder \fArial|b0|i0|c0|p34;\H0.999945x;RÖFIX Optiflex\Ftxt.shx;\H1.000053x;\A1{\H.66x;\S®^  ;}}
  0
XRECORD
  5
385
102
{ACAD_REACTORS
330
384
102
}
330
384
100
AcDbXrecord
280
     1
102
VISUALSTYLE
340
2F
102
GRIDDISPLAY
 70
     2
102
GRIDMAJOR
 70
     5
102
DEFAULTLIGHTING
280
     1
102
DEFAULTLIGHTINGTYPE
 70
     1
102
BRIGHTNESS
141
0.0
102
CONTRAST
142
0.0
  0
DICTIONARY
  5
374
102
{ACAD_REACTORS
330
373
102
}
330
373
100
AcDbDictionary
280
     1
281
     1
  3
SPATIAL
360
375
  0
LAYOUT
  5
1E
102
{ACAD_REACTORS
330
1A
102
}
330
1A
100
AcDbPlotSettings
  1

  2
none_device
  4

  6

 40
0.0
 41
0.0
 42
0.0
 43
0.0
 44
210.0
 45
297.0
 46
0.0
 47
0.0
 48
0.0
 49
0.0
140
0.0
141
0.0
142
1.0
143
1.0
 70
   688
 72
     1
 73
     0
 74
     5
  7

 75
    16
147
1.0
148
0.0
149
0.0
100
AcDbLayout
  1
02.25 23. Detail E.2
 70
     0
 71
     1
 10
0.0
 20
0.0
 11
12.0
 21
9.0
 12
0.0
 22
0.0
 32
0.0
 14
1.000000000000000E+20
 24
1.000000000000000E+20
 34
1.000000000000000E+20
 15
-1.000000000000000E+20
 25
-1.000000000000000E+20
 35
-1.000000000000000E+20
146
0.0
 13
0.0
 23
0.0
 33
0.0
 16
1.0
 26
0.0
 36
0.0
 17
0.0
 27
1.0
 37
0.0
 76
     0
330
1B
331
6E
  0
LAYOUT
  5
22
102
{ACAD_REACTORS
330
1A
102
}
330
1A
100
AcDbPlotSettings
  1

  2
none_device
  4
Letter_(8.50_x_11.00_Inches)
  6

 40
6.35
 41
6.35
 42
6.35000508
 43
6.35000508
 44
215.9
 45
279.4
 46
0.0
 47
0.0
 48
0.0
 49
0.0
140
0.0
141
0.0
142
1.0
143
1.0
 70
  1712
 72
     0
 73
     0
 74
     0
  7

 75
     0
147
1.0
148
0.0
149
0.0
100
AcDbLayout
  1
Model
 70
     1
 71
     0
 10
0.0
 20
0.0
 11
12.0
 21
9.0
 12
0.0
 22
0.0
 32
0.0
 14
1.000000000000000E+20
 24
1.000000000000000E+20
 34
1.000000000000000E+20
 15
-1.000000000000000E+20
 25
-1.000000000000000E+20
 35
-1.000000000000000E+20
146
0.0
 13
0.0
 23
0.0
 33
0.0
 16
1.0
 26
0.0
 36
0.0
 17
0.0
 27
1.0
 37
0.0
 76
     0
330
1F
331
29
  0
MATERIAL
  5
45
102
{ACAD_REACTORS
330
43
102
}
102
{ACAD_XDICTIONARY
360
3E6
102
}
330
43
100
AcDbMaterial
  1
ByBlock
  0
MATERIAL
  5
44
102
{ACAD_REACTORS
330
43
102
}
102
{ACAD_XDICTIONARY
360
3E4
102
}
330
43
100
AcDbMaterial
  1
ByLayer
  0
MATERIAL
  5
46
102
{ACAD_REACTORS
330
43
102
}
102
{ACAD_XDICTIONARY
360
3E8
102
}
330
43
100
AcDbMaterial
  1
Global
  0
MLEADERSTYLE
  5
6C
102
{ACAD_REACTORS
330
6B
102
}
102
{ACAD_XDICTIONARY
360
3EB
102
}
330
6B
100
AcDbMLeaderStyle
170
     2
171
     1
172
     0
 90
        2
 40
0.0
 41
0.0
173
     1
 91
-1056964608
340
14
 92
       -2
290
     1
 42
0.09
291
     1
 43
0.36
  3
Standard
341
0
 44
0.18
300

342
11
174
     1
178
     6
175
     1
176
     0
 93
-1056964608
 45
0.18
292
     0
297
     0
 46
0.18
343
0
 94
-1056964608
 47
1.0
 49
1.0
140
1.0
293
     1
141
0.0
294
     1
177
     0
142
1.0
295
     0
296
     0
143
0.125
1001
ACAD_MLEADERVER
1070
     2
  0
MLINESTYLE
  5
18
102
{ACAD_REACTORS
330
17
102
}
330
17
100
AcDbMlineStyle
  2
Standard
 70
     0
  3

 62
   256
 51
90.0
 52
90.0
 71
     2
 49
0.5
 62
   256
  6
BYLAYER
 49
-0.5
 62
   256
  6
BYLAYER
  0
ACDBPLACEHOLDER
  5
F
102
{ACAD_REACTORS
330
E
102
}
330
E
  0
SCALE
  5
48
102
{ACAD_REACTORS
330
47
102
}
330
47
100
AcDbScale
 70
     0
300
1:1
140
1.0
141
1.0
290
     1
  0
SCALE
  5
49
102
{ACAD_REACTORS
330
47
102
}
330
47
100
AcDbScale
 70
     0
300
1:2
140
1.0
141
2.0
290
     0
  0
SCALE
  5
4A
102
{ACAD_REACTORS
330
47
102
}
330
47
100
AcDbScale
 70
     0
300
1:4
140
1.0
141
4.0
290
     0
  0
SCALE
  5
4B
102
{ACAD_REACTORS
330
47
102
}
330
47
100
AcDbScale
 70
     0
300
1:5
140
1.0
141
5.0
290
     0
  0
SCALE
  5
4C
102
{ACAD_REACTORS
330
47
102
}
330
47
100
AcDbScale
 70
     0
300
1:8
140
1.0
141
8.0
290
     0
  0
SCALE
  5
4D
102
{ACAD_REACTORS
330
47
102
}
330
47
100
AcDbScale
 70
     0
300
1:10
140
1.0
141
10.0
290
     0
  0
SCALE
  5
4E
102
{ACAD_REACTORS
330
47
102
}
330
47
100
AcDbScale
 70
     0
300
1:16
140
1.0
141
16.0
290
     0
  0
SCALE
  5
4F
102
{ACAD_REACTORS
330
47
102
}
330
47
100
AcDbScale
 70
     0
300
1:20
140
1.0
141
20.0
290
     0
  0
SCALE
  5
50
102
{ACAD_REACTORS
330
47
102
}
330
47
100
AcDbScale
 70
     0
300
1:30
140
1.0
141
30.0
290
     0
  0
SCALE
  5
51
102
{ACAD_REACTORS
330
47
102
}
330
47
100
AcDbScale
 70
     0
300
1:40
140
1.0
141
40.0
290
     0
  0
SCALE
  5
52
102
{ACAD_REACTORS
330
47
102
}
330
47
100
AcDbScale
 70
     0
300
1:50
140
1.0
141
50.0
290
     0
  0
SCALE
  5
53
102
{ACAD_REACTORS
330
47
102
}
330
47
100
AcDbScale
 70
     0
300
1:100
140
1.0
141
100.0
290
     0
  0
SCALE
  5
54
102
{ACAD_REACTORS
330
47
102
}
330
47
100
AcDbScale
 70
     0
300
2:1
140
2.0
141
1.0
290
     0
  0
SCALE
  5
55
102
{ACAD_REACTORS
330
47
102
}
330
47
100
AcDbScale
 70
     0
300
4:1
140
4.0
141
1.0
290
     0
  0
SCALE
  5
56
102
{ACAD_REACTORS
330
47
102
}
330
47
100
AcDbScale
 70
     0
300
8:1
140
8.0
141
1.0
290
     0
  0
SCALE
  5
57
102
{ACAD_REACTORS
330
47
102
}
330
47
100
AcDbScale
 70
     0
300
10:1
140
10.0
141
1.0
290
     0
  0
SCALE
  5
58
102
{ACAD_REACTORS
330
47
102
}
330
47
100
AcDbScale
 70
     0
300
100:1
140
100.0
141
1.0
290
     0
  0
SCALE
  5
59
102
{ACAD_REACTORS
330
47
102
}
330
47
100
AcDbScale
 70
     0
300
1/128" = 1'-0"
140
0.0078125
141
12.0
290
     0
  0
SCALE
  5
5A
102
{ACAD_REACTORS
330
47
102
}
330
47
100
AcDbScale
 70
     0
300
1/64" = 1'-0"
140
0.015625
141
12.0
290
     0
  0
SCALE
  5
5B
102
{ACAD_REACTORS
330
47
102
}
330
47
100
AcDbScale
 70
     0
300
1/32" = 1'-0"
140
0.03125
141
12.0
290
     0
  0
SCALE
  5
5C
102
{ACAD_REACTORS
330
47
102
}
330
47
100
AcDbScale
 70
     0
300
1/16" = 1'-0"
140
0.0625
141
12.0
290
     0
  0
SCALE
  5
5D
102
{ACAD_REACTORS
330
47
102
}
330
47
100
AcDbScale
 70
     0
300
3/32" = 1'-0"
140
0.09375
141
12.0
290
     0
  0
SCALE
  5
5E
102
{ACAD_REACTORS
330
47
102
}
330
47
100
AcDbScale
 70
     0
300
1/8" = 1'-0"
140
0.125
141
12.0
290
     0
  0
SCALE
  5
5F
102
{ACAD_REACTORS
330
47
102
}
330
47
100
AcDbScale
 70
     0
300
3/16" = 1'-0"
140
0.1875
141
12.0
290
     0
  0
SCALE
  5
60
102
{ACAD_REACTORS
330
47
102
}
330
47
100
AcDbScale
 70
     0
300
1/4" = 1'-0"
140
0.25
141
12.0
290
     0
  0
SCALE
  5
61
102
{ACAD_REACTORS
330
47
102
}
330
47
100
AcDbScale
 70
     0
300
3/8" = 1'-0"
140
0.375
141
12.0
290
     0
  0
SCALE
  5
62
102
{ACAD_REACTORS
330
47
102
}
330
47
100
AcDbScale
 70
     0
300
1/2" = 1'-0"
140
0.5
141
12.0
290
     0
  0
SCALE
  5
63
102
{ACAD_REACTORS
330
47
102
}
330
47
100
AcDbScale
 70
     0
300
3/4" = 1'-0"
140
0.75
141
12.0
290
     0
  0
SCALE
  5
64
102
{ACAD_REACTORS
330
47
102
}
330
47
100
AcDbScale
 70
     0
300
1" = 1'-0"
140
1.0
141
12.0
290
     0
  0
SCALE
  5
65
102
{ACAD_REACTORS
330
47
102
}
330
47
100
AcDbScale
 70
     0
300
1-1/2" = 1'-0"
140
1.5
141
12.0
290
     0
  0
SCALE
  5
66
102
{ACAD_REACTORS
330
47
102
}
330
47
100
AcDbScale
 70
     0
300
3" = 1'-0"
140
3.0
141
12.0
290
     0
  0
SCALE
  5
67
102
{ACAD_REACTORS
330
47
102
}
330
47
100
AcDbScale
 70
     0
300
6" = 1'-0"
140
6.0
141
12.0
290
     0
  0
SCALE
  5
68
102
{ACAD_REACTORS
330
47
102
}
330
47
100
AcDbScale
 70
     0
300
1'-0" = 1'-0"
140
12.0
141
12.0
290
     0
  0
TABLESTYLE
  5
6A
102
{ACAD_REACTORS
330
69
102
}
330
69
100
AcDbTableStyle
  3
Standard
 70
     0
 71
     0
 40
0.06
 41
0.06
280
     0
281
     0
  7
Standard
140
0.18
170
     2
 62
     0
 63
   257
283
     0
274
    -2
284
     1
 64
     0
275
    -2
285
     1
 65
     0
276
    -2
286
     1
 66
     0
277
    -2
287
     1
 67
     0
278
    -2
288
     1
 68
     0
279
    -2
289
     1
 69
     0
  7
Standard
140
0.25
170
     5
 62
     0
 63
   257
283
     0
274
    -2
284
     1
 64
     0
275
    -2
285
     1
 65
     0
276
    -2
286
     1
 66
     0
277
    -2
287
     1
 67
     0
278
    -2
288
     1
 68
     0
279
    -2
289
     1
 69
     0
  7
Standard
140
0.18
170
     5
 62
     0
 63
   257
283
     0
274
    -2
284
     1
 64
     0
275
    -2
285
     1
 65
     0
276
    -2
286
     1
 66
     0
277
    -2
287
     1
 67
     0
278
    -2
288
     1
 68
     0
279
    -2
289
     1
 69
     0
  0
VISUALSTYLE
  5
2F
102
{ACAD_REACTORS
330
2A
102
}
102
{ACAD_XDICTIONARY
360
3BC
102
}
330
2A
100
AcDbVisualStyle
  2
2dWireframe
 70
     4
 71
     0
 72
     2
 73
     0
 90
        0
 40
0.6
 41
30.0
 62
     5
 63
     7
 74
     1
 91
        4
 64
     7
 65
   257
 75
     1
175
     1
 42
1.0
 92
        0
 66
   257
 43
1.0
 76
     1
 77
     6
 78
     2
 67
     7
 79
     5
170
     0
171
     0
290
     0
174
     0
 93
        1
 44
0.0
173
     0
291
     0
 45
0.0
1001
ACAD
1000
AcDbSavedByObjectVersion
1070
     0
  0
VISUALSTYLE
  5
32
102
{ACAD_REACTORS
330
2A
102
}
102
{ACAD_XDICTIONARY
360
3C2
102
}
330
2A
100
AcDbVisualStyle
  2
Basic
 70
     7
 71
     1
 72
     0
 73
     1
 90
        0
 40
0.6
 41
30.0
 62
     5
 63
     7
 74
     0
 91
        4
 64
     7
 65
   257
 75
     1
175
     1
 42
1.0
 92
        8
 66
     7
 43
1.0
 76
     1
 77
     6
 78
     2
 67
     7
 79
     5
170
     0
171
     0
290
     0
174
     0
 93
        1
 44
0.0
173
     0
291
     1
 45
0.0
1001
ACAD
1000
AcDbSavedByObjectVersion
1070
     0
  0
VISUALSTYLE
  5
36
102
{ACAD_REACTORS
330
2A
102
}
102
{ACAD_XDICTIONARY
360
3CA
102
}
330
2A
100
AcDbVisualStyle
  2
Brighten
 70
    12
 71
     2
 72
     2
 73
     0
 90
        0
 40
0.6
 41
30.0
 62
     5
 63
     7
 74
     1
 91
        4
 64
     7
 65
   257
 75
     1
175
     1
 42
1.0
 92
        8
 66
     7
 43
1.0
 76
     1
 77
     6
 78
     2
 67
     7
 79
     5
170
     0
171
     0
290
     0
174
     0
 93
        1
 44
50.0
173
     0
291
     1
 45
0.0
1001
ACAD
1000
AcDbSavedByObjectVersion
1070
     0
  0
VISUALSTYLE
  5
3A
102
{ACAD_REACTORS
330
2A
102
}
102
{ACAD_XDICTIONARY
360
3D2
102
}
330
2A
100
AcDbVisualStyle
  2
ColorChange
 70
    16
 71
     2
 72
     2
 73
     3
 90
        0
 40
0.6
 41
30.0
 62
     5
 63
     8
 74
     1
 91
        4
 64
     7
 65
   257
 75
     1
175
     1
 42
1.0
 92
        8
 66
     8
 43
1.0
 76
     1
 77
     6
 78
     2
 67
     7
 79
     5
170
     0
171
     0
290
     0
174
     0
 93
        1
 44
0.0
173
     0
291
     1
 45
0.0
1001
ACAD
1000
AcDbSavedByObjectVersion
1070
     0
  0
VISUALSTYLE
  5
34
102
{ACAD_REACTORS
330
2A
102
}
102
{ACAD_XDICTIONARY
360
3C6
102
}
330
2A
100
AcDbVisualStyle
  2
Conceptual
 70
     9
 71
     3
 72
     2
 73
     0
 90
        0
 40
0.6
 41
30.0
 62
     5
 63
     7
 74
     2
 91
        2
 64
     7
 65
   257
 75
     1
175
     1
 42
179.0
 92
        8
 66
     7
 43
1.0
 76
     1
 77
     6
 78
     2
 67
     7
 79
     3
170
     0
171
     0
290
     0
174
     0
 93
        1
 44
0.0
173
     0
291
     0
 45
0.0
1001
ACAD
1000
AcDbSavedByObjectVersion
1070
     0
  0
VISUALSTYLE
  5
35
102
{ACAD_REACTORS
330
2A
102
}
102
{ACAD_XDICTIONARY
360
3C8
102
}
330
2A
100
AcDbVisualStyle
  2
Dim
 70
    11
 71
     2
 72
     2
 73
     0
 90
        0
 40
0.6
 41
30.0
 62
     5
 63
     7
 74
     1
 91
        4
 64
     7
 65
   257
 75
     1
175
     1
 42
1.0
 92
        8
 66
     7
 43
1.0
 76
     1
 77
     6
 78
     2
 67
     7
 79
     5
170
     0
171
     0
290
     0
174
     0
 93
        1
 44
-50.0
173
     0
291
     1
 45
0.0
1001
ACAD
1000
AcDbSavedByObjectVersion
1070
     0
  0
VISUALSTYLE
  5
3D
102
{ACAD_REACTORS
330
2A
102
}
102
{ACAD_XDICTIONARY
360
3D8
102
}
330
2A
100
AcDbVisualStyle
  2
EdgeColorOff
 70
    22
 71
     2
 72
     2
 73
     0
 90
        0
 40
0.6
 41
30.0
 62
     5
 63
     7
 74
     1
 91
        4
 64
     7
 65
   257
 75
     1
175
     1
 42
1.0
 92
        8
 66
     7
 43
1.0
 76
     1
 77
     6
 78
     2
 67
     7
 79
     5
170
     0
171
     0
290
     0
174
     0
 93
        1
 44
0.0
173
     0
291
     1
 45
0.0
1001
ACAD
1000
AcDbSavedByObjectVersion
1070
     0
  0
VISUALSTYLE
  5
39
102
{ACAD_REACTORS
330
2A
102
}
102
{ACAD_XDICTIONARY
360
3D0
102
}
330
2A
100
AcDbVisualStyle
  2
Facepattern
 70
    15
 71
     2
 72
     2
 73
     0
 90
        0
 40
0.6
 41
30.0
 62
     5
 63
     7
 74
     1
 91
        4
 64
     7
 65
   257
 75
     1
175
     1
 42
1.0
 92
        8
 66
     7
 43
1.0
 76
     1
 77
     6
 78
     2
 67
     7
 79
     5
170
     0
171
     0
290
     0
174
     0
 93
        1
 44
0.0
173
     0
291
     1
 45
0.0
1001
ACAD
1000
AcDbSavedByObjectVersion
1070
     0
  0
VISUALSTYLE
  5
2B
102
{ACAD_REACTORS
330
2A
102
}
102
{ACAD_XDICTIONARY
360
3B4
102
}
330
2A
100
AcDbVisualStyle
  2
Flat
 70
     0
 71
     2
 72
     1
 73
     1
 90
        2
 40
0.6
 41
30.0
 62
     5
 63
     7
 74
     0
 91
        0
 64
     7
 65
   257
 75
     1
175
     1
 42
1.0
 92
        8
 66
     7
 43
1.0
 76
     1
 77
     6
 78
     2
 67
     7
 79
     5
170
     0
171
     0
290
     0
174
     0
 93
       13
 44
0.0
173
     0
291
     1
 45
0.0
1001
ACAD
1000
AcDbSavedByObjectVersion
1070
     0
  0
VISUALSTYLE
  5
2C
102
{ACAD_REACTORS
330
2A
102
}
102
{ACAD_XDICTIONARY
360
3B6
102
}
330
2A
100
AcDbVisualStyle
  2
FlatWithEdges
 70
     1
 71
     2
 72
     1
 73
     1
 90
        2
 40
0.6
 41
30.0
 62
     5
 63
     7
 74
     1
 91
        0
 64
     7
 65
   257
 75
     1
175
     1
 42
1.0
 92
        0
 66
   257
 43
1.0
 76
     1
 77
     6
 78
     2
 67
     7
 79
     5
170
     0
171
     0
290
     0
174
     0
 93
       13
 44
0.0
173
     0
291
     1
 45
0.0
1001
ACAD
1000
AcDbSavedByObjectVersion
1070
     0
  0
VISUALSTYLE
  5
2D
102
{ACAD_REACTORS
330
2A
102
}
102
{ACAD_XDICTIONARY
360
3B8
102
}
330
2A
100
AcDbVisualStyle
  2
Gouraud
 70
     2
 71
     2
 72
     2
 73
     1
 90
        2
 40
0.6
 41
30.0
 62
     5
 63
     7
 74
     0
 91
        0
 64
     7
 65
   257
 75
     1
175
     1
 42
1.0
 92
        0
 66
     7
 43
1.0
 76
     1
 77
     6
 78
     2
 67
     7
 79
     5
170
     0
171
     0
290
     0
174
     0
 93
       13
 44
0.0
173
     0
291
     1
 45
0.0
1001
ACAD
1000
AcDbSavedByObjectVersion
1070
     0
  0
VISUALSTYLE
  5
2E
102
{ACAD_REACTORS
330
2A
102
}
102
{ACAD_XDICTIONARY
360
3BA
102
}
330
2A
100
AcDbVisualStyle
  2
GouraudWithEdges
 70
     3
 71
     2
 72
     2
 73
     1
 90
        2
 40
0.6
 41
30.0
 62
     5
 63
     7
 74
     1
 91
        0
 64
     7
 65
   257
 75
     1
175
     1
 42
1.0
 92
        0
 66
   257
 43
1.0
 76
     1
 77
     6
 78
     2
 67
     7
 79
     5
170
     0
171
     0
290
     0
174
     0
 93
       13
 44
0.0
173
     0
291
     1
 45
0.0
1001
ACAD
1000
AcDbSavedByObjectVersion
1070
     0
  0
VISUALSTYLE
  5
31
102
{ACAD_REACTORS
330
2A
102
}
102
{ACAD_XDICTIONARY
360
3C0
102
}
330
2A
100
AcDbVisualStyle
  2
Hidden
 70
     6
 71
     1
 72
     2
 73
     2
 90
        0
 40
0.6
 41
30.0
 62
     5
 63
     7
 74
     2
 91
        2
 64
     7
 65
   257
 75
     2
175
     1
 42
40.0
 92
        0
 66
   257
 43
1.0
 76
     1
 77
     6
 78
     2
 67
     7
 79
     3
170
     0
171
     0
290
     0
174
     0
 93
        1
 44
0.0
173
     0
291
     0
 45
0.0
1001
ACAD
1000
AcDbSavedByObjectVersion
1070
     0
  0
VISUALSTYLE
  5
3B
102
{ACAD_REACTORS
330
2A
102
}
102
{ACAD_XDICTIONARY
360
3D4
102
}
330
2A
100
AcDbVisualStyle
  2
JitterOff
 70
    20
 71
     2
 72
     2
 73
     0
 90
        0
 40
0.6
 41
30.0
 62
     5
 63
     7
 74
     1
 91
        4
 64
     7
 65
   257
 75
     1
175
     1
 42
1.0
 92
       10
 66
     7
 43
1.0
 76
     1
 77
     6
 78
     2
 67
     7
 79
     5
170
     0
171
     0
290
     0
174
     0
 93
        1
 44
0.0
173
     0
291
     1
 45
0.0
1001
ACAD
1000
AcDbSavedByObjectVersion
1070
     0
  0
VISUALSTYLE
  5
38
102
{ACAD_REACTORS
330
2A
102
}
102
{ACAD_XDICTIONARY
360
3CE
102
}
330
2A
100
AcDbVisualStyle
  2
Linepattern
 70
    14
 71
     2
 72
     2
 73
     0
 90
        0
 40
0.6
 41
30.0
 62
     5
 63
     7
 74
     1
 91
        4
 64
     7
 65
   257
 75
     7
175
     7
 42
1.0
 92
        8
 66
     7
 43
1.0
 76
     1
 77
     6
 78
     2
 67
     7
 79
     5
170
     0
171
     0
290
     0
174
     0
 93
        1
 44
0.0
173
     0
291
     1
 45
0.0
1001
ACAD
1000
AcDbSavedByObjectVersion
1070
     0
  0
VISUALSTYLE
  5
3C
102
{ACAD_REACTORS
330
2A
102
}
102
{ACAD_XDICTIONARY
360
3D6
102
}
330
2A
100
AcDbVisualStyle
  2
OverhangOff
 70
    21
 71
     2
 72
     2
 73
     0
 90
        0
 40
0.6
 41
30.0
 62
     5
 63
     7
 74
     1
 91
        4
 64
     7
 65
   257
 75
     1
175
     1
 42
1.0
 92
        9
 66
     7
 43
1.0
 76
     1
 77
     6
 78
     2
 67
     7
 79
     5
170
     0
171
     0
290
     0
174
     0
 93
        1
 44
0.0
173
     0
291
     1
 45
0.0
1001
ACAD
1000
AcDbSavedByObjectVersion
1070
     0
  0
VISUALSTYLE
  5
33
102
{ACAD_REACTORS
330
2A
102
}
102
{ACAD_XDICTIONARY
360
3C4
102
}
330
2A
100
AcDbVisualStyle
  2
Realistic
 70
     8
 71
     2
 72
     3
 73
     0
 90
        2
 40
0.6
 41
30.0
 62
     5
 63
     7
 74
     0
 91
        0
 64
     7
 65
   257
 75
     1
175
     1
 42
1.0
 92
        8
 66
   257
 43
1.0
 76
     1
 77
     6
 78
     2
 67
     7
 79
     3
170
     0
171
     0
290
     0
174
     0
 93
       13
 44
0.0
173
     0
291
     0
 45
0.0
1001
ACAD
1000
AcDbSavedByObjectVersion
1070
     0
  0
VISUALSTYLE
  5
42
102
{ACAD_REACTORS
330
2A
102
}
102
{ACAD_XDICTIONARY
360
3E2
102
}
330
2A
100
AcDbVisualStyle
  2
Shaded
 70
    27
 71
     2
 72
     2
 73
     1
 90
        2
 40
0.6
 41
30.0
 62
     5
 63
     7
 74
     0
 91
        4
 64
     7
 65
   257
 75
     1
175
     1
 42
1.0
 92
        8
 66
   257
 43
1.0
 76
     1
 77
     6
 78
     2
 67
     8
 79
     3
170
     0
171
     0
290
     0
174
     0
 93
        5
 44
0.0
173
     0
291
     0
 45
0.0
1001
ACAD
1000
AcDbSavedByObjectVersion
1070
     0
  0
VISUALSTYLE
  5
41
102
{ACAD_REACTORS
330
2A
102
}
102
{ACAD_XDICTIONARY
360
3E0
102
}
330
2A
100
AcDbVisualStyle
  2
Shaded with edges
 70
    26
 71
     2
 72
     2
 73
     1
 90
        2
 40
0.6
 41
30.0
 62
     5
 63
     7
 74
     1
 91
       10
 64
     7
 65
   257
 75
     2
175
     1
 42
1.0
 92
        8
 66
   257
 43
1.0
 76
     1
 77
     6
 78
     2
 67
     7
 79
     3
170
     0
171
     0
290
     0
174
     0
 93
        5
 44
0.0
173
     0
291
     0
 45
0.0
1001
ACAD
1000
AcDbSavedByObjectVersion
1070
     0
  0
VISUALSTYLE
  5
3E
102
{ACAD_REACTORS
330
2A
102
}
102
{ACAD_XDICTIONARY
360
3DA
102
}
330
2A
100
AcDbVisualStyle
  2
Shades of Gray
 70
    23
 71
     2
 72
     2
 73
     3
 90
        0
 40
0.6
 41
30.0
 62
     5
 63
     7
 74
     2
 91
        2
 64
     7
 65
     7
 75
     1
175
     1
 42
40.0
 92
        8
 66
     7
 43
1.0
 76
     1
 77
     6
 78
     2
 67
     7
 79
     3
170
     0
171
     0
290
     0
174
     0
 93
        1
 44
0.0
173
     0
291
     0
 45
0.0
1001
ACAD
1000
AcDbSavedByObjectVersion
1070
     0
  0
VISUALSTYLE
  5
3F
102
{ACAD_REACTORS
330
2A
102
}
102
{ACAD_XDICTIONARY
360
3DC
102
}
330
2A
100
AcDbVisualStyle
  2
Sketchy
 70
    24
 71
     1
 72
     2
 73
     2
 90
        0
 40
0.6
 41
30.0
 62
     5
 63
     7
 74
     2
 91
        2
 64
     7
 65
     7
 75
     1
175
     1
 42
40.0
 92
       11
 66
     7
 43
1.0
 76
     1
 77
     6
 78
     2
 67
     7
 79
     6
170
     0
171
     0
290
     0
174
     0
 93
        1
 44
0.0
173
     0
291
     0
 45
0.0
1001
ACAD
1000
AcDbSavedByObjectVersion
1070
     0
  0
VISUALSTYLE
  5
37
102
{ACAD_REACTORS
330
2A
102
}
102
{ACAD_XDICTIONARY
360
3CC
102
}
330
2A
100
AcDbVisualStyle
  2
Thicken
 70
    13
 71
     2
 72
     2
 73
     0
 90
        0
 40
0.6
 41
30.0
 62
     5
 63
     7
 74
     1
 91
        4
 64
     7
 65
   257
 75
     1
175
     1
 42
1.0
 92
       12
 66
     7
 43
1.0
 76
     1
 77
     6
 78
     2
 67
     7
 79
     5
170
     0
171
     0
290
     0
174
     0
 93
        1
 44
0.0
173
     0
291
     1
 45
0.0
1001
ACAD
1000
AcDbSavedByObjectVersion
1070
     0
  0
VISUALSTYLE
  5
30
102
{ACAD_REACTORS
330
2A
102
}
102
{ACAD_XDICTIONARY
360
3BE
102
}
330
2A
100
AcDbVisualStyle
  2
Wireframe
 70
     5
 71
     0
 72
     2
 73
     0
 90
        0
 40
0.6
 41
30.0
 62
     5
 63
     7
 74
     1
 91
        4
 64
     7
 65
   257
 75
     1
175
     1
 42
1.0
 92
        0
 66
   257
 43
1.0
 76
     1
 77
     6
 78
     2
 67
     7
 79
     3
170
     0
171
     0
290
     0
174
     0
 93
        1
 44
0.0
173
     0
291
     0
 45
0.0
1001
ACAD
1000
AcDbSavedByObjectVersion
1070
     0
  0
VISUALSTYLE
  5
40
102
{ACAD_REACTORS
330
2A
102
}
102
{ACAD_XDICTIONARY
360
3DE
102
}
330
2A
100
AcDbVisualStyle
  2
X-Ray
 70
    25
 71
     2
 72
     2
 73
     1
 90
        1
 40
0.5
 41
30.0
 62
     5
 63
     7
 74
     1
 91
        0
 64
     7
 65
   257
 75
     1
175
     1
 42
1.0
 92
        8
 66
     7
 43
1.0
 76
     1
 77
     6
 78
     2
 67
     7
 79
     3
170
     0
171
     0
290
     0
174
     0
 93
       13
 44
0.0
173
     0
291
     0
 45
0.0
1001
ACAD
1000
AcDbSavedByObjectVersion
1070
     0
  0
DICTIONARYVAR
  5
3B2
102
{ACAD_REACTORS
330
37C
102
}
330
37C
100
DictionaryVariables
280
     0
  1
1:1
  0
DICTIONARYVAR
  5
37E
102
{ACAD_REACTORS
330
37C
102
}
330
37C
100
DictionaryVariables
280
     0
  1
Standard
  0
DICTIONARYVAR
  5
37D
102
{ACAD_REACTORS
330
37C
102
}
330
37C
100
DictionaryVariables
280
     0
  1
Standard
  0
DICTIONARYVAR
  5
382
102
{ACAD_REACTORS
330
37C
102
}
330
37C
100
DictionaryVariables
280
     0
  1
2
  0
DICTIONARYVAR
  5
383
102
{ACAD_REACTORS
330
37C
102
}
330
37C
100
DictionaryVariables
280
     0
  1
1
  0
DICTIONARYVAR
  5
3B3
102
{ACAD_REACTORS
330
37C
102
}
330
37C
100
DictionaryVariables
280
     0
  1
1
  0
DICTIONARYVAR
  5
37F
102
{ACAD_REACTORS
330
37C
102
}
330
37C
100
DictionaryVariables
280
     0
  1
0
  0
XRECORD
  5
37B
102
{ACAD_REACTORS
330
37A
102
}
330
37A
100
AcDbXrecord
280
     1
1000
Diese DWG-Datei wurde mit ARCHICAD(TM)® erstellt
  0
SPATIAL_FILTER
  5
375
102
{ACAD_REACTORS
330
374
102
}
330
374
100
AcDbFilter
100
AcDbSpatialFilter
 70
     4
 10
0.0
 20
0.0000976562495314
 10
210.0
 20
0.0000976562495314
 10
210.0
 20
296.9999999999999
 10
0.0
 20
296.9999999999999
210
0.0
220
0.0
230
1.0
 11
0.0
 21
0.0
 31
0.0
 71
     1
 72
     0
 73
     0
 40
1.0
 40
0.0
 40
0.0
 40
0.0
 40
0.0
 40
1.0
 40
0.0
 40
0.0
 40
0.0
 40
0.0
 40
1.0
 40
0.0
 40
1.0
 40
0.0
 40
0.0
 40
0.0
 40
0.0
 40
1.0
 40
0.0
 40
0.0
 40
0.0
 40
0.0
 40
1.0
 40
0.0
  0
DICTIONARY
  5
3E6
330
45
100
AcDbDictionary
280
     1
281
     1
  3
ACAD_XREC_ROUNDTRIP
360
3E7
  0
DICTIONARY
  5
3E4
330
44
100
AcDbDictionary
280
     1
281
     1
  3
ACAD_XREC_ROUNDTRIP
360
3E5
  0
DICTIONARY
  5
3E8
330
46
100
AcDbDictionary
280
     1
281
     1
  3
ACAD_XREC_ROUNDTRIP
360
3E9
  0
DICTIONARY
  5
3EB
330
6C
100
AcDbDictionary
280
     1
281
     1
  3
ACAD_XREC_ROUNDTRIP
360
3EC
  0
DICTIONARY
  5
3BC
330
2F
100
AcDbDictionary
280
     1
281
     1
  3
ACAD_XREC_ROUNDTRIP
360
3BD
  0
DICTIONARY
  5
3C2
330
32
100
AcDbDictionary
280
     1
281
     1
  3
ACAD_XREC_ROUNDTRIP
360
3C3
  0
DICTIONARY
  5
3CA
330
36
100
AcDbDictionary
280
     1
281
     1
  3
ACAD_XREC_ROUNDTRIP
360
3CB
  0
DICTIONARY
  5
3D2
330
3A
100
AcDbDictionary
280
     1
281
     1
  3
ACAD_XREC_ROUNDTRIP
360
3D3
  0
DICTIONARY
  5
3C6
330
34
100
AcDbDictionary
280
     1
281
     1
  3
ACAD_XREC_ROUNDTRIP
360
3C7
  0
DICTIONARY
  5
3C8
330
35
100
AcDbDictionary
280
     1
281
     1
  3
ACAD_XREC_ROUNDTRIP
360
3C9
  0
DICTIONARY
  5
3D8
330
3D
100
AcDbDictionary
280
     1
281
     1
  3
ACAD_XREC_ROUNDTRIP
360
3D9
  0
DICTIONARY
  5
3D0
330
39
100
AcDbDictionary
280
     1
281
     1
  3
ACAD_XREC_ROUNDTRIP
360
3D1
  0
DICTIONARY
  5
3B4
330
2B
100
AcDbDictionary
280
     1
281
     1
  3
ACAD_XREC_ROUNDTRIP
360
3B5
  0
DICTIONARY
  5
3B6
330
2C
100
AcDbDictionary
280
     1
281
     1
  3
ACAD_XREC_ROUNDTRIP
360
3B7
  0
DICTIONARY
  5
3B8
330
2D
100
AcDbDictionary
280
     1
281
     1
  3
ACAD_XREC_ROUNDTRIP
360
3B9
  0
DICTIONARY
  5
3BA
330
2E
100
AcDbDictionary
280
     1
281
     1
  3
ACAD_XREC_ROUNDTRIP
360
3BB
  0
DICTIONARY
  5
3C0
330
31
100
AcDbDictionary
280
     1
281
     1
  3
ACAD_XREC_ROUNDTRIP
360
3C1
  0
DICTIONARY
  5
3D4
330
3B
100
AcDbDictionary
280
     1
281
     1
  3
ACAD_XREC_ROUNDTRIP
360
3D5
  0
DICTIONARY
  5
3CE
330
38
100
AcDbDictionary
280
     1
281
     1
  3
ACAD_XREC_ROUNDTRIP
360
3CF
  0
DICTIONARY
  5
3D6
330
3C
100
AcDbDictionary
280
     1
281
     1
  3
ACAD_XREC_ROUNDTRIP
360
3D7
  0
DICTIONARY
  5
3C4
330
33
100
AcDbDictionary
280
     1
281
     1
  3
ACAD_XREC_ROUNDTRIP
360
3C5
  0
DICTIONARY
  5
3E2
330
42
100
AcDbDictionary
280
     1
281
     1
  3
ACAD_XREC_ROUNDTRIP
360
3E3
  0
DICTIONARY
  5
3E0
330
41
100
AcDbDictionary
280
     1
281
     1
  3
ACAD_XREC_ROUNDTRIP
360
3E1
  0
DICTIONARY
  5
3DA
330
3E
100
AcDbDictionary
280
     1
281
     1
  3
ACAD_XREC_ROUNDTRIP
360
3DB
  0
DICTIONARY
  5
3DC
330
3F
100
AcDbDictionary
280
     1
281
     1
  3
ACAD_XREC_ROUNDTRIP
360
3DD
  0
DICTIONARY
  5
3CC
330
37
100
AcDbDictionary
280
     1
281
     1
  3
ACAD_XREC_ROUNDTRIP
360
3CD
  0
DICTIONARY
  5
3BE
330
30
100
AcDbDictionary
280
     1
281
     1
  3
ACAD_XREC_ROUNDTRIP
360
3BF
  0
DICTIONARY
  5
3DE
330
40
100
AcDbDictionary
280
     1
281
     1
  3
ACAD_XREC_ROUNDTRIP
360
3DF
  0
XRECORD
  5
3E7
102
{ACAD_REACTORS
330
3E6
102
}
330
3E6
100
AcDbXrecord
280
     1
102
MATERIAL
148
0.0
149
0.0
149
0.0
 93
        0
 94
      127
282
     0
 72
     1
 77
     1
171
     1
175
     1
179
     1
273
     0
  0
XRECORD
  5
3E5
102
{ACAD_REACTORS
330
3E4
102
}
330
3E4
100
AcDbXrecord
280
     1
102
MATERIAL
148
0.0
149
0.0
149
0.0
 93
        0
 94
      127
282
     0
 72
     1
 77
     1
171
     1
175
     1
179
     1
273
     0
  0
XRECORD
  5
3E9
102
{ACAD_REACTORS
330
3E8
102
}
330
3E8
100
AcDbXrecord
280
     1
102
MATERIAL
148
0.0
149
0.0
149
0.0
 93
        0
 94
      127
282
     0
 72
     1
 77
     1
171
     1
175
     1
179
     1
273
     0
  0
XRECORD
  5
3EC
102
{ACAD_REACTORS
330
3EB
102
}
330
3EB
100
AcDbXrecord
280
     1
102
ACAD_ROUNDTRIP_2010_MLEADER_STYLE
  0
XRECORD
  5
3BD
102
{ACAD_REACTORS
330
3BC
102
}
330
3BC
100
AcDbXrecord
280
     1
102
RTVSPropertyOp0
 70
     1
102
RTVSPropertyOp1
 70
     1
102
RTVSPropertyOp2
 70
     1
102
RTVSPropertyOp3
 70
     1
102
RTVSPropertyOp4
 70
     1
102
RTVSPropertyOp5
 70
     1
102
RTVSPropertyOp6
 70
     1
102
RTVSPropertyOp7
 70
     1
102
RTVSPropertyOp8
 70
     1
102
RTVSPropertyOp9
 70
     1
102
RTVSPropertyOp10
 70
     1
102
RTVSPropertyOp11
 70
     1
102
RTVSPropertyOp12
 70
     1
102
RTVSPropertyOp13
 70
     1
102
RTVSPropertyOp14
 70
     1
102
RTVSPropertyOp15
 70
     1
102
RTVSPropertyOp16
 70
     1
102
RTVSPropertyOp17
 70
     1
102
RTVSPropertyOp18
 70
     1
102
RTVSPropertyOp19
 70
     1
102
RTVSPropertyOp20
 70
     1
102
RTVSPropertyOp21
 70
     1
102
RTVSPropertyOp22
 70
     1
102
RTVSPropertyOp23
 70
     1
102
RTVSPropertyOp24
 70
     1
102
RTVSPropertyOp25
 70
     1
102
RTVSPropertyOp26
 70
     1
102
RTVSPropertyOp27
 70
     1
102
RTVSPropertyOp28
 70
     1
102
RTVSPropertyOp29
 70
     1
102
RTVSPropertyOp30
 70
     1
102
RTVSPropertyOp31
 70
     1
102
RTVSPropertyOp32
 70
     1
102
RTVSPropertyOp33
 70
     1
102
RTVSPropertyOp34
 70
     1
102
RTVSPropertyOp35
 70
     1
102
RTVSPropertyOp36
 70
     1
102
RTVSPropertyOp37
 70
     1
102
RTVSPropertyOp38
 70
     1
102
RTVSPropertyOp39
 70
     1
102
RTVSPropertyOp40
 70
     1
102
RTVSPropertyOp41
 70
     1
102
RTVSPropertyOp42
 70
     1
102
RTVSPropertyOp43
 70
     1
102
RTVSPropertyOp44
 70
     1
102
RTVSPropertyOp45
 70
     1
102
RTVSPropertyOp46
 70
     1
102
RTVSPropertyOp47
 70
     1
102
RTVSPropertyOp48
 70
     1
102
RTVSPropertyOp49
 70
     1
102
RTVSPropertyOp50
 70
     1
102
RTVSPropertyOp51
 70
     0
102
RTVSPropertyOp52
 70
     0
102
RTVSPropertyOp53
 70
     1
102
RTVSPropertyOp54
 70
     1
102
RTVSPropertyOp55
 70
     1
102
RTVSPropertyOp56
 70
     1
102
RTVSPropertyOp57
 70
     1
102
RTVSPost2010Prop28
280
     1
102
RTVSPost2010PropOp28
 70
     1
102
RTVSPost2010Prop29
280
     1
102
RTVSPost2010PropOp29
 70
     1
102
RTVSPost2010Prop30
280
     0
102
RTVSPost2010PropOp30
 70
     1
102
RTVSPost2010Prop31
280
     0
102
RTVSPost2010PropOp31
 70
     1
102
RTVSPost2010Prop32
280
     0
102
RTVSPost2010PropOp32
 70
     1
102
RTVSPost2010Prop33
280
     0
102
RTVSPost2010PropOp33
 70
     1
102
RTVSPost2010Prop34
280
     0
102
RTVSPost2010PropOp34
 70
     1
102
RTVSPost2010Prop35
280
     0
102
RTVSPost2010PropOp35
 70
     1
102
RTVSPost2010Prop36
280
     0
102
RTVSPost2010PropOp36
 70
     1
102
RTVSPost2010Prop37
 90
       50
102
RTVSPost2010PropOp37
 70
     1
102
RTVSPost2010Prop38
140
0.0
102
RTVSPost2010PropOp38
 70
     1
102
RTVSPost2010Prop39
140
1.0
102
RTVSPost2010PropOp39
 70
     1
102
RTVSPost2010Prop40
 90
        0
102
RTVSPost2010PropOp40
 70
     1
102
RTVSPost2010Prop41ColorIndex
 90
      178
102
RTVSPost2010Prop41ColorRGB
 90
        0
102
RTVSPost2010PropOp41
 70
     1
102
RTVSPost2010Prop42
 90
       50
102
RTVSPost2010PropOp42
 70
     1
102
RTVSPost2010Prop43
 90
        3
102
RTVSPost2010PropOp43
 70
     1
102
RTVSPost2010Prop44ColorIndex
 90
        5
102
RTVSPost2010Prop44ColorRGB
 90
      255
102
RTVSPost2010PropOp44
 70
     1
102
RTVSPost2010Prop45
280
     0
102
RTVSPost2010PropOp45
 70
     1
102
RTVSPost2010Prop46
 90
       50
102
RTVSPost2010PropOp46
 70
     1
102
RTVSPost2010Prop47
 90
       50
102
RTVSPost2010PropOp47
 70
     1
102
RTVSPost2010Prop48
 90
       50
102
RTVSPost2010PropOp48
 70
     1
102
RTVSPost2010Prop49
280
     0
102
RTVSPost2010PropOp49
 70
     1
102
RTVSPost2010Prop50
 90
       50
102
RTVSPost2010PropOp50
 70
     1
102
RTVSPost2010Prop51ColorIndex
 90
      256
102
RTVSPost2010Prop51ColorRGB
 90
-16777216
102
RTVSPost2010PropOp51
 70
     0
102
RTVSPost2010Prop52
140
1.0
102
RTVSPost2010PropOp52
 70
     0
102
RTVSPost2010Prop53
 90
        2
102
RTVSPost2010PropOp53
 70
     1
102
RTVSPost2010Prop54
  1
strokes_ogs.tif
102
RTVSPost2010PropOp54
 70
     1
102
RTVSPost2010Prop55
280
     0
102
RTVSPost2010PropOp55
 70
     1
102
RTVSPost2010Prop56
140
1.0
102
RTVSPost2010PropOp56
 70
     1
102
RTVSPost2010Prop57
140
1.0
102
RTVSPost2010PropOp57
 70
     1
  0
XRECORD
  5
3C3
102
{ACAD_REACTORS
330
3C2
102
}
330
3C2
100
AcDbXrecord
280
     1
102
RTVSPropertyOp0
 70
     1
102
RTVSPropertyOp1
 70
     1
102
RTVSPropertyOp2
 70
     1
102
RTVSPropertyOp3
 70
     1
102
RTVSPropertyOp4
 70
     1
102
RTVSPropertyOp5
 70
     1
102
RTVSPropertyOp6
 70
     1
102
RTVSPropertyOp7
 70
     1
102
RTVSPropertyOp8
 70
     1
102
RTVSPropertyOp9
 70
     1
102
RTVSPropertyOp10
 70
     1
102
RTVSPropertyOp11
 70
     1
102
RTVSPropertyOp12
 70
     1
102
RTVSPropertyOp13
 70
     1
102
RTVSPropertyOp14
 70
     1
102
RTVSPropertyOp15
 70
     1
102
RTVSPropertyOp16
 70
     1
102
RTVSPropertyOp17
 70
     1
102
RTVSPropertyOp18
 70
     1
102
RTVSPropertyOp19
 70
     1
102
RTVSPropertyOp20
 70
     1
102
RTVSPropertyOp21
 70
     1
102
RTVSPropertyOp22
 70
     1
102
RTVSPropertyOp23
 70
     1
102
RTVSPropertyOp24
 70
     1
102
RTVSPropertyOp25
 70
     1
102
RTVSPropertyOp26
 70
     1
102
RTVSPropertyOp27
 70
     1
102
RTVSPropertyOp28
 70
     1
102
RTVSPropertyOp29
 70
     1
102
RTVSPropertyOp30
 70
     1
102
RTVSPropertyOp31
 70
     1
102
RTVSPropertyOp32
 70
     1
102
RTVSPropertyOp33
 70
     1
102
RTVSPropertyOp34
 70
     1
102
RTVSPropertyOp35
 70
     1
102
RTVSPropertyOp36
 70
     1
102
RTVSPropertyOp37
 70
     1
102
RTVSPropertyOp38
 70
     1
102
RTVSPropertyOp39
 70
     1
102
RTVSPropertyOp40
 70
     1
102
RTVSPropertyOp41
 70
     1
102
RTVSPropertyOp42
 70
     1
102
RTVSPropertyOp43
 70
     1
102
RTVSPropertyOp44
 70
     1
102
RTVSPropertyOp45
 70
     1
102
RTVSPropertyOp46
 70
     1
102
RTVSPropertyOp47
 70
     1
102
RTVSPropertyOp48
 70
     1
102
RTVSPropertyOp49
 70
     1
102
RTVSPropertyOp50
 70
     1
102
RTVSPropertyOp51
 70
     0
102
RTVSPropertyOp52
 70
     0
102
RTVSPropertyOp53
 70
     1
102
RTVSPropertyOp54
 70
     1
102
RTVSPropertyOp55
 70
     1
102
RTVSPropertyOp56
 70
     1
102
RTVSPropertyOp57
 70
     1
102
RTVSPost2010Prop28
280
     0
102
RTVSPost2010PropOp28
 70
     1
102
RTVSPost2010Prop29
280
     1
102
RTVSPost2010PropOp29
 70
     1
102
RTVSPost2010Prop30
280
     1
102
RTVSPost2010PropOp30
 70
     1
102
RTVSPost2010Prop31
280
     0
102
RTVSPost2010PropOp31
 70
     1
102
RTVSPost2010Prop32
280
     0
102
RTVSPost2010PropOp32
 70
     1
102
RTVSPost2010Prop33
280
     0
102
RTVSPost2010PropOp33
 70
     1
102
RTVSPost2010Prop34
280
     0
102
RTVSPost2010PropOp34
 70
     1
102
RTVSPost2010Prop35
280
     0
102
RTVSPost2010PropOp35
 70
     1
102
RTVSPost2010Prop36
280
     0
102
RTVSPost2010PropOp36
 70
     1
102
RTVSPost2010Prop37
 90
       50
102
RTVSPost2010PropOp37
 70
     1
102
RTVSPost2010Prop38
140
0.0
102
RTVSPost2010PropOp38
 70
     1
102
RTVSPost2010Prop39
140
1.0
102
RTVSPost2010PropOp39
 70
     1
102
RTVSPost2010Prop40
 90
        0
102
RTVSPost2010PropOp40
 70
     1
102
RTVSPost2010Prop41ColorIndex
 90
      178
102
RTVSPost2010Prop41ColorRGB
 90
        0
102
RTVSPost2010PropOp41
 70
     1
102
RTVSPost2010Prop42
 90
       50
102
RTVSPost2010PropOp42
 70
     1
102
RTVSPost2010Prop43
 90
        3
102
RTVSPost2010PropOp43
 70
     1
102
RTVSPost2010Prop44ColorIndex
 90
        5
102
RTVSPost2010Prop44ColorRGB
 90
      255
102
RTVSPost2010PropOp44
 70
     1
102
RTVSPost2010Prop45
280
     0
102
RTVSPost2010PropOp45
 70
     1
102
RTVSPost2010Prop46
 90
       50
102
RTVSPost2010PropOp46
 70
     1
102
RTVSPost2010Prop47
 90
       50
102
RTVSPost2010PropOp47
 70
     1
102
RTVSPost2010Prop48
 90
       50
102
RTVSPost2010PropOp48
 70
     1
102
RTVSPost2010Prop49
280
     0
102
RTVSPost2010PropOp49
 70
     1
102
RTVSPost2010Prop50
 90
       50
102
RTVSPost2010PropOp50
 70
     1
102
RTVSPost2010Prop51ColorIndex
 90
      256
102
RTVSPost2010Prop51ColorRGB
 90
-16777216
102
RTVSPost2010PropOp51
 70
     0
102
RTVSPost2010Prop52
140
1.0
102
RTVSPost2010PropOp52
 70
     0
102
RTVSPost2010Prop53
 90
        2
102
RTVSPost2010PropOp53
 70
     1
102
RTVSPost2010Prop54
  1
strokes_ogs.tif
102
RTVSPost2010PropOp54
 70
     1
102
RTVSPost2010Prop55
280
     0
102
RTVSPost2010PropOp55
 70
     1
102
RTVSPost2010Prop56
140
1.0
102
RTVSPost2010PropOp56
 70
     1
102
RTVSPost2010Prop57
140
1.0
102
RTVSPost2010PropOp57
 70
     1
  0
XRECORD
  5
3CB
102
{ACAD_REACTORS
330
3CA
102
}
330
3CA
100
AcDbXrecord
280
     1
102
RTVSPropertyOp0
 70
     1
102
RTVSPropertyOp1
 70
     1
102
RTVSPropertyOp2
 70
     1
102
RTVSPropertyOp3
 70
     1
102
RTVSPropertyOp4
 70
     1
102
RTVSPropertyOp5
 70
     1
102
RTVSPropertyOp6
 70
     1
102
RTVSPropertyOp7
 70
     1
102
RTVSPropertyOp8
 70
     1
102
RTVSPropertyOp9
 70
     1
102
RTVSPropertyOp10
 70
     1
102
RTVSPropertyOp11
 70
     1
102
RTVSPropertyOp12
 70
     1
102
RTVSPropertyOp13
 70
     1
102
RTVSPropertyOp14
 70
     1
102
RTVSPropertyOp15
 70
     1
102
RTVSPropertyOp16
 70
     1
102
RTVSPropertyOp17
 70
     1
102
RTVSPropertyOp18
 70
     1
102
RTVSPropertyOp19
 70
     1
102
RTVSPropertyOp20
 70
     1
102
RTVSPropertyOp21
 70
     1
102
RTVSPropertyOp22
 70
     1
102
RTVSPropertyOp23
 70
     1
102
RTVSPropertyOp24
 70
     1
102
RTVSPropertyOp25
 70
     1
102
RTVSPropertyOp26
 70
     1
102
RTVSPropertyOp27
 70
     1
102
RTVSPropertyOp28
 70
     1
102
RTVSPropertyOp29
 70
     1
102
RTVSPropertyOp30
 70
     1
102
RTVSPropertyOp31
 70
     1
102
RTVSPropertyOp32
 70
     1
102
RTVSPropertyOp33
 70
     1
102
RTVSPropertyOp34
 70
     1
102
RTVSPropertyOp35
 70
     1
102
RTVSPropertyOp36
 70
     1
102
RTVSPropertyOp37
 70
     1
102
RTVSPropertyOp38
 70
     1
102
RTVSPropertyOp39
 70
     1
102
RTVSPropertyOp40
 70
     1
102
RTVSPropertyOp41
 70
     1
102
RTVSPropertyOp42
 70
     1
102
RTVSPropertyOp43
 70
     1
102
RTVSPropertyOp44
 70
     1
102
RTVSPropertyOp45
 70
     1
102
RTVSPropertyOp46
 70
     1
102
RTVSPropertyOp47
 70
     1
102
RTVSPropertyOp48
 70
     1
102
RTVSPropertyOp49
 70
     1
102
RTVSPropertyOp50
 70
     1
102
RTVSPropertyOp51
 70
     0
102
RTVSPropertyOp52
 70
     0
102
RTVSPropertyOp53
 70
     1
102
RTVSPropertyOp54
 70
     1
102
RTVSPropertyOp55
 70
     1
102
RTVSPropertyOp56
 70
     1
102
RTVSPropertyOp57
 70
     1
102
RTVSPost2010Prop28
280
     0
102
RTVSPost2010PropOp28
 70
     1
102
RTVSPost2010Prop29
280
     1
102
RTVSPost2010PropOp29
 70
     1
102
RTVSPost2010Prop30
280
     1
102
RTVSPost2010PropOp30
 70
     1
102
RTVSPost2010Prop31
280
     0
102
RTVSPost2010PropOp31
 70
     1
102
RTVSPost2010Prop32
280
     0
102
RTVSPost2010PropOp32
 70
     1
102
RTVSPost2010Prop33
280
     0
102
RTVSPost2010PropOp33
 70
     1
102
RTVSPost2010Prop34
280
     0
102
RTVSPost2010PropOp34
 70
     1
102
RTVSPost2010Prop35
280
     0
102
RTVSPost2010PropOp35
 70
     1
102
RTVSPost2010Prop36
280
     0
102
RTVSPost2010PropOp36
 70
     1
102
RTVSPost2010Prop37
 90
       50
102
RTVSPost2010PropOp37
 70
     1
102
RTVSPost2010Prop38
140
0.0
102
RTVSPost2010PropOp38
 70
     1
102
RTVSPost2010Prop39
140
1.0
102
RTVSPost2010PropOp39
 70
     1
102
RTVSPost2010Prop40
 90
        0
102
RTVSPost2010PropOp40
 70
     1
102
RTVSPost2010Prop41ColorIndex
 90
      178
102
RTVSPost2010Prop41ColorRGB
 90
        0
102
RTVSPost2010PropOp41
 70
     1
102
RTVSPost2010Prop42
 90
       50
102
RTVSPost2010PropOp42
 70
     1
102
RTVSPost2010Prop43
 90
        3
102
RTVSPost2010PropOp43
 70
     1
102
RTVSPost2010Prop44ColorIndex
 90
        5
102
RTVSPost2010Prop44ColorRGB
 90
      255
102
RTVSPost2010PropOp44
 70
     1
102
RTVSPost2010Prop45
280
     0
102
RTVSPost2010PropOp45
 70
     1
102
RTVSPost2010Prop46
 90
       50
102
RTVSPost2010PropOp46
 70
     1
102
RTVSPost2010Prop47
 90
       50
102
RTVSPost2010PropOp47
 70
     1
102
RTVSPost2010Prop48
 90
       50
102
RTVSPost2010PropOp48
 70
     1
102
RTVSPost2010Prop49
280
     0
102
RTVSPost2010PropOp49
 70
     1
102
RTVSPost2010Prop50
 90
       50
102
RTVSPost2010PropOp50
 70
     1
102
RTVSPost2010Prop51ColorIndex
 90
      256
102
RTVSPost2010Prop51ColorRGB
 90
-16777216
102
RTVSPost2010PropOp51
 70
     0
102
RTVSPost2010Prop52
140
1.0
102
RTVSPost2010PropOp52
 70
     0
102
RTVSPost2010Prop53
 90
        2
102
RTVSPost2010PropOp53
 70
     1
102
RTVSPost2010Prop54
  1
strokes_ogs.tif
102
RTVSPost2010PropOp54
 70
     1
102
RTVSPost2010Prop55
280
     0
102
RTVSPost2010PropOp55
 70
     1
102
RTVSPost2010Prop56
140
1.0
102
RTVSPost2010PropOp56
 70
     1
102
RTVSPost2010Prop57
140
1.0
102
RTVSPost2010PropOp57
 70
     1
  0
XRECORD
  5
3D3
102
{ACAD_REACTORS
330
3D2
102
}
330
3D2
100
AcDbXrecord
280
     1
102
RTVSPropertyOp0
 70
     1
102
RTVSPropertyOp1
 70
     1
102
RTVSPropertyOp2
 70
     1
102
RTVSPropertyOp3
 70
     1
102
RTVSPropertyOp4
 70
     1
102
RTVSPropertyOp5
 70
     1
102
RTVSPropertyOp6
 70
     1
102
RTVSPropertyOp7
 70
     1
102
RTVSPropertyOp8
 70
     1
102
RTVSPropertyOp9
 70
     1
102
RTVSPropertyOp10
 70
     1
102
RTVSPropertyOp11
 70
     1
102
RTVSPropertyOp12
 70
     1
102
RTVSPropertyOp13
 70
     1
102
RTVSPropertyOp14
 70
     1
102
RTVSPropertyOp15
 70
     1
102
RTVSPropertyOp16
 70
     1
102
RTVSPropertyOp17
 70
     1
102
RTVSPropertyOp18
 70
     1
102
RTVSPropertyOp19
 70
     1
102
RTVSPropertyOp20
 70
     1
102
RTVSPropertyOp21
 70
     1
102
RTVSPropertyOp22
 70
     1
102
RTVSPropertyOp23
 70
     1
102
RTVSPropertyOp24
 70
     1
102
RTVSPropertyOp25
 70
     1
102
RTVSPropertyOp26
 70
     1
102
RTVSPropertyOp27
 70
     1
102
RTVSPropertyOp28
 70
     1
102
RTVSPropertyOp29
 70
     1
102
RTVSPropertyOp30
 70
     1
102
RTVSPropertyOp31
 70
     1
102
RTVSPropertyOp32
 70
     1
102
RTVSPropertyOp33
 70
     1
102
RTVSPropertyOp34
 70
     1
102
RTVSPropertyOp35
 70
     1
102
RTVSPropertyOp36
 70
     1
102
RTVSPropertyOp37
 70
     1
102
RTVSPropertyOp38
 70
     1
102
RTVSPropertyOp39
 70
     1
102
RTVSPropertyOp40
 70
     1
102
RTVSPropertyOp41
 70
     1
102
RTVSPropertyOp42
 70
     1
102
RTVSPropertyOp43
 70
     1
102
RTVSPropertyOp44
 70
     1
102
RTVSPropertyOp45
 70
     1
102
RTVSPropertyOp46
 70
     1
102
RTVSPropertyOp47
 70
     1
102
RTVSPropertyOp48
 70
     1
102
RTVSPropertyOp49
 70
     1
102
RTVSPropertyOp50
 70
     1
102
RTVSPropertyOp51
 70
     0
102
RTVSPropertyOp52
 70
     0
102
RTVSPropertyOp53
 70
     1
102
RTVSPropertyOp54
 70
     1
102
RTVSPropertyOp55
 70
     1
102
RTVSPropertyOp56
 70
     1
102
RTVSPropertyOp57
 70
     1
102
RTVSPost2010Prop28
280
     0
102
RTVSPost2010PropOp28
 70
     1
102
RTVSPost2010Prop29
280
     1
102
RTVSPost2010PropOp29
 70
     1
102
RTVSPost2010Prop30
280
     1
102
RTVSPost2010PropOp30
 70
     1
102
RTVSPost2010Prop31
280
     0
102
RTVSPost2010PropOp31
 70
     1
102
RTVSPost2010Prop32
280
     0
102
RTVSPost2010PropOp32
 70
     1
102
RTVSPost2010Prop33
280
     0
102
RTVSPost2010PropOp33
 70
     1
102
RTVSPost2010Prop34
280
     0
102
RTVSPost2010PropOp34
 70
     1
102
RTVSPost2010Prop35
280
     0
102
RTVSPost2010PropOp35
 70
     1
102
RTVSPost2010Prop36
280
     0
102
RTVSPost2010PropOp36
 70
     1
102
RTVSPost2010Prop37
 90
       50
102
RTVSPost2010PropOp37
 70
     1
102
RTVSPost2010Prop38
140
0.0
102
RTVSPost2010PropOp38
 70
     1
102
RTVSPost2010Prop39
140
1.0
102
RTVSPost2010PropOp39
 70
     1
102
RTVSPost2010Prop40
 90
        0
102
RTVSPost2010PropOp40
 70
     1
102
RTVSPost2010Prop41ColorIndex
 90
      178
102
RTVSPost2010Prop41ColorRGB
 90
        0
102
RTVSPost2010PropOp41
 70
     1
102
RTVSPost2010Prop42
 90
       50
102
RTVSPost2010PropOp42
 70
     1
102
RTVSPost2010Prop43
 90
        3
102
RTVSPost2010PropOp43
 70
     1
102
RTVSPost2010Prop44ColorIndex
 90
        5
102
RTVSPost2010Prop44ColorRGB
 90
      255
102
RTVSPost2010PropOp44
 70
     1
102
RTVSPost2010Prop45
280
     0
102
RTVSPost2010PropOp45
 70
     1
102
RTVSPost2010Prop46
 90
       50
102
RTVSPost2010PropOp46
 70
     1
102
RTVSPost2010Prop47
 90
       50
102
RTVSPost2010PropOp47
 70
     1
102
RTVSPost2010Prop48
 90
       50
102
RTVSPost2010PropOp48
 70
     1
102
RTVSPost2010Prop49
280
     0
102
RTVSPost2010PropOp49
 70
     1
102
RTVSPost2010Prop50
 90
       50
102
RTVSPost2010PropOp50
 70
     1
102
RTVSPost2010Prop51ColorIndex
 90
      256
102
RTVSPost2010Prop51ColorRGB
 90
-16777216
102
RTVSPost2010PropOp51
 70
     0
102
RTVSPost2010Prop52
140
1.0
102
RTVSPost2010PropOp52
 70
     0
102
RTVSPost2010Prop53
 90
        2
102
RTVSPost2010PropOp53
 70
     1
102
RTVSPost2010Prop54
  1
strokes_ogs.tif
102
RTVSPost2010PropOp54
 70
     1
102
RTVSPost2010Prop55
280
     0
102
RTVSPost2010PropOp55
 70
     1
102
RTVSPost2010Prop56
140
1.0
102
RTVSPost2010PropOp56
 70
     1
102
RTVSPost2010Prop57
140
1.0
102
RTVSPost2010PropOp57
 70
     1
  0
XRECORD
  5
3C7
102
{ACAD_REACTORS
330
3C6
102
}
330
3C6
100
AcDbXrecord
280
     1
102
RTVSPropertyOp0
 70
     1
102
RTVSPropertyOp1
 70
     1
102
RTVSPropertyOp2
 70
     1
102
RTVSPropertyOp3
 70
     1
102
RTVSPropertyOp4
 70
     1
102
RTVSPropertyOp5
 70
     1
102
RTVSPropertyOp6
 70
     1
102
RTVSPropertyOp7
 70
     1
102
RTVSPropertyOp8
 70
     1
102
RTVSPropertyOp9
 70
     1
102
RTVSPropertyOp10
 70
     1
102
RTVSPropertyOp11
 70
     1
102
RTVSPropertyOp12
 70
     1
102
RTVSPropertyOp13
 70
     1
102
RTVSPropertyOp14
 70
     1
102
RTVSPropertyOp15
 70
     1
102
RTVSPropertyOp16
 70
     1
102
RTVSPropertyOp17
 70
     1
102
RTVSPropertyOp18
 70
     1
102
RTVSPropertyOp19
 70
     1
102
RTVSPropertyOp20
 70
     1
102
RTVSPropertyOp21
 70
     1
102
RTVSPropertyOp22
 70
     1
102
RTVSPropertyOp23
 70
     1
102
RTVSPropertyOp24
 70
     1
102
RTVSPropertyOp25
 70
     1
102
RTVSPropertyOp26
 70
     1
102
RTVSPropertyOp27
 70
     1
102
RTVSPropertyOp28
 70
     1
102
RTVSPropertyOp29
 70
     1
102
RTVSPropertyOp30
 70
     1
102
RTVSPropertyOp31
 70
     1
102
RTVSPropertyOp32
 70
     1
102
RTVSPropertyOp33
 70
     1
102
RTVSPropertyOp34
 70
     1
102
RTVSPropertyOp35
 70
     1
102
RTVSPropertyOp36
 70
     1
102
RTVSPropertyOp37
 70
     1
102
RTVSPropertyOp38
 70
     1
102
RTVSPropertyOp39
 70
     1
102
RTVSPropertyOp40
 70
     1
102
RTVSPropertyOp41
 70
     1
102
RTVSPropertyOp42
 70
     1
102
RTVSPropertyOp43
 70
     1
102
RTVSPropertyOp44
 70
     1
102
RTVSPropertyOp45
 70
     1
102
RTVSPropertyOp46
 70
     1
102
RTVSPropertyOp47
 70
     1
102
RTVSPropertyOp48
 70
     1
102
RTVSPropertyOp49
 70
     1
102
RTVSPropertyOp50
 70
     1
102
RTVSPropertyOp51
 70
     0
102
RTVSPropertyOp52
 70
     0
102
RTVSPropertyOp53
 70
     1
102
RTVSPropertyOp54
 70
     1
102
RTVSPropertyOp55
 70
     1
102
RTVSPropertyOp56
 70
     1
102
RTVSPropertyOp57
 70
     1
102
RTVSPost2010Prop28
280
     0
102
RTVSPost2010PropOp28
 70
     1
102
RTVSPost2010Prop29
280
     1
102
RTVSPost2010PropOp29
 70
     1
102
RTVSPost2010Prop30
280
     1
102
RTVSPost2010PropOp30
 70
     1
102
RTVSPost2010Prop31
280
     0
102
RTVSPost2010PropOp31
 70
     1
102
RTVSPost2010Prop32
280
     0
102
RTVSPost2010PropOp32
 70
     1
102
RTVSPost2010Prop33
280
     0
102
RTVSPost2010PropOp33
 70
     1
102
RTVSPost2010Prop34
280
     0
102
RTVSPost2010PropOp34
 70
     1
102
RTVSPost2010Prop35
280
     0
102
RTVSPost2010PropOp35
 70
     1
102
RTVSPost2010Prop36
280
     0
102
RTVSPost2010PropOp36
 70
     1
102
RTVSPost2010Prop37
 90
       50
102
RTVSPost2010PropOp37
 70
     1
102
RTVSPost2010Prop38
140
0.0
102
RTVSPost2010PropOp38
 70
     1
102
RTVSPost2010Prop39
140
1.0
102
RTVSPost2010PropOp39
 70
     1
102
RTVSPost2010Prop40
 90
        0
102
RTVSPost2010PropOp40
 70
     1
102
RTVSPost2010Prop41ColorIndex
 90
      178
102
RTVSPost2010Prop41ColorRGB
 90
        0
102
RTVSPost2010PropOp41
 70
     1
102
RTVSPost2010Prop42
 90
       50
102
RTVSPost2010PropOp42
 70
     1
102
RTVSPost2010Prop43
 90
        3
102
RTVSPost2010PropOp43
 70
     1
102
RTVSPost2010Prop44ColorIndex
 90
        5
102
RTVSPost2010Prop44ColorRGB
 90
      255
102
RTVSPost2010PropOp44
 70
     1
102
RTVSPost2010Prop45
280
     0
102
RTVSPost2010PropOp45
 70
     1
102
RTVSPost2010Prop46
 90
       50
102
RTVSPost2010PropOp46
 70
     1
102
RTVSPost2010Prop47
 90
       50
102
RTVSPost2010PropOp47
 70
     1
102
RTVSPost2010Prop48
 90
       50
102
RTVSPost2010PropOp48
 70
     1
102
RTVSPost2010Prop49
280
     0
102
RTVSPost2010PropOp49
 70
     1
102
RTVSPost2010Prop50
 90
       50
102
RTVSPost2010PropOp50
 70
     1
102
RTVSPost2010Prop51ColorIndex
 90
      256
102
RTVSPost2010Prop51ColorRGB
 90
-16777216
102
RTVSPost2010PropOp51
 70
     0
102
RTVSPost2010Prop52
140
1.0
102
RTVSPost2010PropOp52
 70
     0
102
RTVSPost2010Prop53
 90
        2
102
RTVSPost2010PropOp53
 70
     1
102
RTVSPost2010Prop54
  1
strokes_ogs.tif
102
RTVSPost2010PropOp54
 70
     1
102
RTVSPost2010Prop55
280
     0
102
RTVSPost2010PropOp55
 70
     1
102
RTVSPost2010Prop56
140
1.0
102
RTVSPost2010PropOp56
 70
     1
102
RTVSPost2010Prop57
140
1.0
102
RTVSPost2010PropOp57
 70
     1
  0
XRECORD
  5
3C9
102
{ACAD_REACTORS
330
3C8
102
}
330
3C8
100
AcDbXrecord
280
     1
102
RTVSPropertyOp0
 70
     1
102
RTVSPropertyOp1
 70
     1
102
RTVSPropertyOp2
 70
     1
102
RTVSPropertyOp3
 70
     1
102
RTVSPropertyOp4
 70
     1
102
RTVSPropertyOp5
 70
     1
102
RTVSPropertyOp6
 70
     1
102
RTVSPropertyOp7
 70
     1
102
RTVSPropertyOp8
 70
     1
102
RTVSPropertyOp9
 70
     1
102
RTVSPropertyOp10
 70
     1
102
RTVSPropertyOp11
 70
     1
102
RTVSPropertyOp12
 70
     1
102
RTVSPropertyOp13
 70
     1
102
RTVSPropertyOp14
 70
     1
102
RTVSPropertyOp15
 70
     1
102
RTVSPropertyOp16
 70
     1
102
RTVSPropertyOp17
 70
     1
102
RTVSPropertyOp18
 70
     1
102
RTVSPropertyOp19
 70
     1
102
RTVSPropertyOp20
 70
     1
102
RTVSPropertyOp21
 70
     1
102
RTVSPropertyOp22
 70
     1
102
RTVSPropertyOp23
 70
     1
102
RTVSPropertyOp24
 70
     1
102
RTVSPropertyOp25
 70
     1
102
RTVSPropertyOp26
 70
     1
102
RTVSPropertyOp27
 70
     1
102
RTVSPropertyOp28
 70
     1
102
RTVSPropertyOp29
 70
     1
102
RTVSPropertyOp30
 70
     1
102
RTVSPropertyOp31
 70
     1
102
RTVSPropertyOp32
 70
     1
102
RTVSPropertyOp33
 70
     1
102
RTVSPropertyOp34
 70
     1
102
RTVSPropertyOp35
 70
     1
102
RTVSPropertyOp36
 70
     1
102
RTVSPropertyOp37
 70
     1
102
RTVSPropertyOp38
 70
     1
102
RTVSPropertyOp39
 70
     1
102
RTVSPropertyOp40
 70
     1
102
RTVSPropertyOp41
 70
     1
102
RTVSPropertyOp42
 70
     1
102
RTVSPropertyOp43
 70
     1
102
RTVSPropertyOp44
 70
     1
102
RTVSPropertyOp45
 70
     1
102
RTVSPropertyOp46
 70
     1
102
RTVSPropertyOp47
 70
     1
102
RTVSPropertyOp48
 70
     1
102
RTVSPropertyOp49
 70
     1
102
RTVSPropertyOp50
 70
     1
102
RTVSPropertyOp51
 70
     0
102
RTVSPropertyOp52
 70
     0
102
RTVSPropertyOp53
 70
     1
102
RTVSPropertyOp54
 70
     1
102
RTVSPropertyOp55
 70
     1
102
RTVSPropertyOp56
 70
     1
102
RTVSPropertyOp57
 70
     1
102
RTVSPost2010Prop28
280
     0
102
RTVSPost2010PropOp28
 70
     1
102
RTVSPost2010Prop29
280
     1
102
RTVSPost2010PropOp29
 70
     1
102
RTVSPost2010Prop30
280
     1
102
RTVSPost2010PropOp30
 70
     1
102
RTVSPost2010Prop31
280
     0
102
RTVSPost2010PropOp31
 70
     1
102
RTVSPost2010Prop32
280
     0
102
RTVSPost2010PropOp32
 70
     1
102
RTVSPost2010Prop33
280
     0
102
RTVSPost2010PropOp33
 70
     1
102
RTVSPost2010Prop34
280
     0
102
RTVSPost2010PropOp34
 70
     1
102
RTVSPost2010Prop35
280
     0
102
RTVSPost2010PropOp35
 70
     1
102
RTVSPost2010Prop36
280
     0
102
RTVSPost2010PropOp36
 70
     1
102
RTVSPost2010Prop37
 90
       50
102
RTVSPost2010PropOp37
 70
     1
102
RTVSPost2010Prop38
140
0.0
102
RTVSPost2010PropOp38
 70
     1
102
RTVSPost2010Prop39
140
1.0
102
RTVSPost2010PropOp39
 70
     1
102
RTVSPost2010Prop40
 90
        0
102
RTVSPost2010PropOp40
 70
     1
102
RTVSPost2010Prop41ColorIndex
 90
      178
102
RTVSPost2010Prop41ColorRGB
 90
        0
102
RTVSPost2010PropOp41
 70
     1
102
RTVSPost2010Prop42
 90
       50
102
RTVSPost2010PropOp42
 70
     1
102
RTVSPost2010Prop43
 90
        3
102
RTVSPost2010PropOp43
 70
     1
102
RTVSPost2010Prop44ColorIndex
 90
        5
102
RTVSPost2010Prop44ColorRGB
 90
      255
102
RTVSPost2010PropOp44
 70
     1
102
RTVSPost2010Prop45
280
     0
102
RTVSPost2010PropOp45
 70
     1
102
RTVSPost2010Prop46
 90
       50
102
RTVSPost2010PropOp46
 70
     1
102
RTVSPost2010Prop47
 90
       50
102
RTVSPost2010PropOp47
 70
     1
102
RTVSPost2010Prop48
 90
       50
102
RTVSPost2010PropOp48
 70
     1
102
RTVSPost2010Prop49
280
     0
102
RTVSPost2010PropOp49
 70
     1
102
RTVSPost2010Prop50
 90
       50
102
RTVSPost2010PropOp50
 70
     1
102
RTVSPost2010Prop51ColorIndex
 90
      256
102
RTVSPost2010Prop51ColorRGB
 90
-16777216
102
RTVSPost2010PropOp51
 70
     0
102
RTVSPost2010Prop52
140
1.0
102
RTVSPost2010PropOp52
 70
     0
102
RTVSPost2010Prop53
 90
        2
102
RTVSPost2010PropOp53
 70
     1
102
RTVSPost2010Prop54
  1
strokes_ogs.tif
102
RTVSPost2010PropOp54
 70
     1
102
RTVSPost2010Prop55
280
     0
102
RTVSPost2010PropOp55
 70
     1
102
RTVSPost2010Prop56
140
1.0
102
RTVSPost2010PropOp56
 70
     1
102
RTVSPost2010Prop57
140
1.0
102
RTVSPost2010PropOp57
 70
     1
  0
XRECORD
  5
3D9
102
{ACAD_REACTORS
330
3D8
102
}
330
3D8
100
AcDbXrecord
280
     1
102
RTVSPropertyOp0
 70
     0
102
RTVSPropertyOp1
 70
     0
102
RTVSPropertyOp2
 70
     0
102
RTVSPropertyOp3
 70
     0
102
RTVSPropertyOp4
 70
     0
102
RTVSPropertyOp5
 70
     0
102
RTVSPropertyOp6
 70
     0
102
RTVSPropertyOp7
 70
     0
102
RTVSPropertyOp8
 70
     0
102
RTVSPropertyOp9
 70
     0
102
RTVSPropertyOp10
 70
     0
102
RTVSPropertyOp11
 70
     0
102
RTVSPropertyOp12
 70
     0
102
RTVSPropertyOp13
 70
     0
102
RTVSPropertyOp14
 70
     2
102
RTVSPropertyOp15
 70
     0
102
RTVSPropertyOp16
 70
     0
102
RTVSPropertyOp17
 70
     0
102
RTVSPropertyOp18
 70
     0
102
RTVSPropertyOp19
 70
     0
102
RTVSPropertyOp20
 70
     0
102
RTVSPropertyOp21
 70
     0
102
RTVSPropertyOp22
 70
     0
102
RTVSPropertyOp23
 70
     0
102
RTVSPropertyOp24
 70
     0
102
RTVSPropertyOp25
 70
     0
102
RTVSPropertyOp26
 70
     0
102
RTVSPropertyOp27
 70
     0
102
RTVSPropertyOp28
 70
     0
102
RTVSPropertyOp29
 70
     0
102
RTVSPropertyOp30
 70
     0
102
RTVSPropertyOp31
 70
     0
102
RTVSPropertyOp32
 70
     0
102
RTVSPropertyOp33
 70
     0
102
RTVSPropertyOp34
 70
     0
102
RTVSPropertyOp35
 70
     0
102
RTVSPropertyOp36
 70
     0
102
RTVSPropertyOp37
 70
     0
102
RTVSPropertyOp38
 70
     0
102
RTVSPropertyOp39
 70
     0
102
RTVSPropertyOp40
 70
     0
102
RTVSPropertyOp41
 70
     0
102
RTVSPropertyOp42
 70
     0
102
RTVSPropertyOp43
 70
     0
102
RTVSPropertyOp44
 70
     0
102
RTVSPropertyOp45
 70
     0
102
RTVSPropertyOp46
 70
     0
102
RTVSPropertyOp47
 70
     0
102
RTVSPropertyOp48
 70
     0
102
RTVSPropertyOp49
 70
     0
102
RTVSPropertyOp50
 70
     0
102
RTVSPropertyOp51
 70
     0
102
RTVSPropertyOp52
 70
     0
102
RTVSPropertyOp53
 70
     0
102
RTVSPropertyOp54
 70
     0
102
RTVSPropertyOp55
 70
     0
102
RTVSPropertyOp56
 70
     0
102
RTVSPropertyOp57
 70
     0
102
RTVSPost2010Prop28
280
     0
102
RTVSPost2010PropOp28
 70
     0
102
RTVSPost2010Prop29
280
     1
102
RTVSPost2010PropOp29
 70
     0
102
RTVSPost2010Prop30
280
     1
102
RTVSPost2010PropOp30
 70
     0
102
RTVSPost2010Prop31
280
     0
102
RTVSPost2010PropOp31
 70
     0
102
RTVSPost2010Prop32
280
     0
102
RTVSPost2010PropOp32
 70
     0
102
RTVSPost2010Prop33
280
     0
102
RTVSPost2010PropOp33
 70
     0
102
RTVSPost2010Prop34
280
     0
102
RTVSPost2010PropOp34
 70
     0
102
RTVSPost2010Prop35
280
     0
102
RTVSPost2010PropOp35
 70
     0
102
RTVSPost2010Prop36
280
     0
102
RTVSPost2010PropOp36
 70
     0
102
RTVSPost2010Prop37
 90
       50
102
RTVSPost2010PropOp37
 70
     0
102
RTVSPost2010Prop38
140
0.0
102
RTVSPost2010PropOp38
 70
     0
102
RTVSPost2010Prop39
140
1.0
102
RTVSPost2010PropOp39
 70
     0
102
RTVSPost2010Prop40
 90
        0
102
RTVSPost2010PropOp40
 70
     0
102
RTVSPost2010Prop41ColorIndex
 90
      178
102
RTVSPost2010Prop41ColorRGB
 90
        0
102
RTVSPost2010PropOp41
 70
     0
102
RTVSPost2010Prop42
 90
       50
102
RTVSPost2010PropOp42
 70
     0
102
RTVSPost2010Prop43
 90
        3
102
RTVSPost2010PropOp43
 70
     0
102
RTVSPost2010Prop44ColorIndex
 90
        5
102
RTVSPost2010Prop44ColorRGB
 90
      255
102
RTVSPost2010PropOp44
 70
     0
102
RTVSPost2010Prop45
280
     0
102
RTVSPost2010PropOp45
 70
     0
102
RTVSPost2010Prop46
 90
       50
102
RTVSPost2010PropOp46
 70
     0
102
RTVSPost2010Prop47
 90
       50
102
RTVSPost2010PropOp47
 70
     0
102
RTVSPost2010Prop48
 90
       50
102
RTVSPost2010PropOp48
 70
     0
102
RTVSPost2010Prop49
280
     0
102
RTVSPost2010PropOp49
 70
     0
102
RTVSPost2010Prop50
 90
       50
102
RTVSPost2010PropOp50
 70
     0
102
RTVSPost2010Prop51ColorIndex
 90
      256
102
RTVSPost2010Prop51ColorRGB
 90
-16777216
102
RTVSPost2010PropOp51
 70
     0
102
RTVSPost2010Prop52
140
1.0
102
RTVSPost2010PropOp52
 70
     0
102
RTVSPost2010Prop53
 90
        2
102
RTVSPost2010PropOp53
 70
     0
102
RTVSPost2010Prop54
  1
strokes_ogs.tif
102
RTVSPost2010PropOp54
 70
     0
102
RTVSPost2010Prop55
280
     0
102
RTVSPost2010PropOp55
 70
     0
102
RTVSPost2010Prop56
140
1.0
102
RTVSPost2010PropOp56
 70
     0
102
RTVSPost2010Prop57
140
1.0
102
RTVSPost2010PropOp57
 70
     0
  0
XRECORD
  5
3D1
102
{ACAD_REACTORS
330
3D0
102
}
330
3D0
100
AcDbXrecord
280
     1
102
RTVSPropertyOp0
 70
     1
102
RTVSPropertyOp1
 70
     1
102
RTVSPropertyOp2
 70
     1
102
RTVSPropertyOp3
 70
     1
102
RTVSPropertyOp4
 70
     1
102
RTVSPropertyOp5
 70
     1
102
RTVSPropertyOp6
 70
     1
102
RTVSPropertyOp7
 70
     1
102
RTVSPropertyOp8
 70
     1
102
RTVSPropertyOp9
 70
     1
102
RTVSPropertyOp10
 70
     1
102
RTVSPropertyOp11
 70
     1
102
RTVSPropertyOp12
 70
     1
102
RTVSPropertyOp13
 70
     1
102
RTVSPropertyOp14
 70
     1
102
RTVSPropertyOp15
 70
     1
102
RTVSPropertyOp16
 70
     1
102
RTVSPropertyOp17
 70
     1
102
RTVSPropertyOp18
 70
     1
102
RTVSPropertyOp19
 70
     1
102
RTVSPropertyOp20
 70
     1
102
RTVSPropertyOp21
 70
     1
102
RTVSPropertyOp22
 70
     1
102
RTVSPropertyOp23
 70
     1
102
RTVSPropertyOp24
 70
     1
102
RTVSPropertyOp25
 70
     1
102
RTVSPropertyOp26
 70
     1
102
RTVSPropertyOp27
 70
     1
102
RTVSPropertyOp28
 70
     1
102
RTVSPropertyOp29
 70
     1
102
RTVSPropertyOp30
 70
     1
102
RTVSPropertyOp31
 70
     1
102
RTVSPropertyOp32
 70
     1
102
RTVSPropertyOp33
 70
     1
102
RTVSPropertyOp34
 70
     1
102
RTVSPropertyOp35
 70
     1
102
RTVSPropertyOp36
 70
     1
102
RTVSPropertyOp37
 70
     1
102
RTVSPropertyOp38
 70
     1
102
RTVSPropertyOp39
 70
     1
102
RTVSPropertyOp40
 70
     1
102
RTVSPropertyOp41
 70
     1
102
RTVSPropertyOp42
 70
     1
102
RTVSPropertyOp43
 70
     1
102
RTVSPropertyOp44
 70
     1
102
RTVSPropertyOp45
 70
     1
102
RTVSPropertyOp46
 70
     1
102
RTVSPropertyOp47
 70
     1
102
RTVSPropertyOp48
 70
     1
102
RTVSPropertyOp49
 70
     1
102
RTVSPropertyOp50
 70
     1
102
RTVSPropertyOp51
 70
     0
102
RTVSPropertyOp52
 70
     0
102
RTVSPropertyOp53
 70
     1
102
RTVSPropertyOp54
 70
     1
102
RTVSPropertyOp55
 70
     1
102
RTVSPropertyOp56
 70
     1
102
RTVSPropertyOp57
 70
     1
102
RTVSPost2010Prop28
280
     0
102
RTVSPost2010PropOp28
 70
     1
102
RTVSPost2010Prop29
280
     1
102
RTVSPost2010PropOp29
 70
     1
102
RTVSPost2010Prop30
280
     1
102
RTVSPost2010PropOp30
 70
     1
102
RTVSPost2010Prop31
280
     0
102
RTVSPost2010PropOp31
 70
     1
102
RTVSPost2010Prop32
280
     0
102
RTVSPost2010PropOp32
 70
     1
102
RTVSPost2010Prop33
280
     0
102
RTVSPost2010PropOp33
 70
     1
102
RTVSPost2010Prop34
280
     0
102
RTVSPost2010PropOp34
 70
     1
102
RTVSPost2010Prop35
280
     0
102
RTVSPost2010PropOp35
 70
     1
102
RTVSPost2010Prop36
280
     0
102
RTVSPost2010PropOp36
 70
     1
102
RTVSPost2010Prop37
 90
       50
102
RTVSPost2010PropOp37
 70
     1
102
RTVSPost2010Prop38
140
0.0
102
RTVSPost2010PropOp38
 70
     1
102
RTVSPost2010Prop39
140
1.0
102
RTVSPost2010PropOp39
 70
     1
102
RTVSPost2010Prop40
 90
        0
102
RTVSPost2010PropOp40
 70
     1
102
RTVSPost2010Prop41ColorIndex
 90
      178
102
RTVSPost2010Prop41ColorRGB
 90
        0
102
RTVSPost2010PropOp41
 70
     1
102
RTVSPost2010Prop42
 90
       50
102
RTVSPost2010PropOp42
 70
     1
102
RTVSPost2010Prop43
 90
        3
102
RTVSPost2010PropOp43
 70
     1
102
RTVSPost2010Prop44ColorIndex
 90
        5
102
RTVSPost2010Prop44ColorRGB
 90
      255
102
RTVSPost2010PropOp44
 70
     1
102
RTVSPost2010Prop45
280
     0
102
RTVSPost2010PropOp45
 70
     1
102
RTVSPost2010Prop46
 90
       50
102
RTVSPost2010PropOp46
 70
     1
102
RTVSPost2010Prop47
 90
       50
102
RTVSPost2010PropOp47
 70
     1
102
RTVSPost2010Prop48
 90
       50
102
RTVSPost2010PropOp48
 70
     1
102
RTVSPost2010Prop49
280
     0
102
RTVSPost2010PropOp49
 70
     1
102
RTVSPost2010Prop50
 90
       50
102
RTVSPost2010PropOp50
 70
     1
102
RTVSPost2010Prop51ColorIndex
 90
      256
102
RTVSPost2010Prop51ColorRGB
 90
-16777216
102
RTVSPost2010PropOp51
 70
     0
102
RTVSPost2010Prop52
140
1.0
102
RTVSPost2010PropOp52
 70
     0
102
RTVSPost2010Prop53
 90
        2
102
RTVSPost2010PropOp53
 70
     1
102
RTVSPost2010Prop54
  1
strokes_ogs.tif
102
RTVSPost2010PropOp54
 70
     1
102
RTVSPost2010Prop55
280
     0
102
RTVSPost2010PropOp55
 70
     1
102
RTVSPost2010Prop56
140
1.0
102
RTVSPost2010PropOp56
 70
     1
102
RTVSPost2010Prop57
140
1.0
102
RTVSPost2010PropOp57
 70
     1
  0
XRECORD
  5
3B5
102
{ACAD_REACTORS
330
3B4
102
}
330
3B4
100
AcDbXrecord
280
     1
102
RTVSPropertyOp0
 70
     1
102
RTVSPropertyOp1
 70
     1
102
RTVSPropertyOp2
 70
     1
102
RTVSPropertyOp3
 70
     1
102
RTVSPropertyOp4
 70
     1
102
RTVSPropertyOp5
 70
     1
102
RTVSPropertyOp6
 70
     1
102
RTVSPropertyOp7
 70
     1
102
RTVSPropertyOp8
 70
     1
102
RTVSPropertyOp9
 70
     1
102
RTVSPropertyOp10
 70
     1
102
RTVSPropertyOp11
 70
     1
102
RTVSPropertyOp12
 70
     1
102
RTVSPropertyOp13
 70
     1
102
RTVSPropertyOp14
 70
     1
102
RTVSPropertyOp15
 70
     1
102
RTVSPropertyOp16
 70
     1
102
RTVSPropertyOp17
 70
     1
102
RTVSPropertyOp18
 70
     1
102
RTVSPropertyOp19
 70
     1
102
RTVSPropertyOp20
 70
     1
102
RTVSPropertyOp21
 70
     1
102
RTVSPropertyOp22
 70
     1
102
RTVSPropertyOp23
 70
     1
102
RTVSPropertyOp24
 70
     1
102
RTVSPropertyOp25
 70
     1
102
RTVSPropertyOp26
 70
     1
102
RTVSPropertyOp27
 70
     1
102
RTVSPropertyOp28
 70
     1
102
RTVSPropertyOp29
 70
     1
102
RTVSPropertyOp30
 70
     1
102
RTVSPropertyOp31
 70
     1
102
RTVSPropertyOp32
 70
     1
102
RTVSPropertyOp33
 70
     1
102
RTVSPropertyOp34
 70
     1
102
RTVSPropertyOp35
 70
     1
102
RTVSPropertyOp36
 70
     1
102
RTVSPropertyOp37
 70
     1
102
RTVSPropertyOp38
 70
     1
102
RTVSPropertyOp39
 70
     1
102
RTVSPropertyOp40
 70
     1
102
RTVSPropertyOp41
 70
     1
102
RTVSPropertyOp42
 70
     1
102
RTVSPropertyOp43
 70
     1
102
RTVSPropertyOp44
 70
     1
102
RTVSPropertyOp45
 70
     1
102
RTVSPropertyOp46
 70
     1
102
RTVSPropertyOp47
 70
     1
102
RTVSPropertyOp48
 70
     1
102
RTVSPropertyOp49
 70
     1
102
RTVSPropertyOp50
 70
     1
102
RTVSPropertyOp51
 70
     0
102
RTVSPropertyOp52
 70
     0
102
RTVSPropertyOp53
 70
     1
102
RTVSPropertyOp54
 70
     1
102
RTVSPropertyOp55
 70
     1
102
RTVSPropertyOp56
 70
     1
102
RTVSPropertyOp57
 70
     1
102
RTVSPost2010Prop28
280
     0
102
RTVSPost2010PropOp28
 70
     1
102
RTVSPost2010Prop29
280
     1
102
RTVSPost2010PropOp29
 70
     1
102
RTVSPost2010Prop30
280
     1
102
RTVSPost2010PropOp30
 70
     1
102
RTVSPost2010Prop31
280
     0
102
RTVSPost2010PropOp31
 70
     1
102
RTVSPost2010Prop32
280
     0
102
RTVSPost2010PropOp32
 70
     1
102
RTVSPost2010Prop33
280
     0
102
RTVSPost2010PropOp33
 70
     1
102
RTVSPost2010Prop34
280
     0
102
RTVSPost2010PropOp34
 70
     1
102
RTVSPost2010Prop35
280
     0
102
RTVSPost2010PropOp35
 70
     1
102
RTVSPost2010Prop36
280
     0
102
RTVSPost2010PropOp36
 70
     1
102
RTVSPost2010Prop37
 90
       50
102
RTVSPost2010PropOp37
 70
     1
102
RTVSPost2010Prop38
140
0.0
102
RTVSPost2010PropOp38
 70
     1
102
RTVSPost2010Prop39
140
1.0
102
RTVSPost2010PropOp39
 70
     1
102
RTVSPost2010Prop40
 90
        0
102
RTVSPost2010PropOp40
 70
     1
102
RTVSPost2010Prop41ColorIndex
 90
      178
102
RTVSPost2010Prop41ColorRGB
 90
        0
102
RTVSPost2010PropOp41
 70
     1
102
RTVSPost2010Prop42
 90
       50
102
RTVSPost2010PropOp42
 70
     1
102
RTVSPost2010Prop43
 90
        3
102
RTVSPost2010PropOp43
 70
     1
102
RTVSPost2010Prop44ColorIndex
 90
        5
102
RTVSPost2010Prop44ColorRGB
 90
      255
102
RTVSPost2010PropOp44
 70
     1
102
RTVSPost2010Prop45
280
     0
102
RTVSPost2010PropOp45
 70
     1
102
RTVSPost2010Prop46
 90
       50
102
RTVSPost2010PropOp46
 70
     1
102
RTVSPost2010Prop47
 90
       50
102
RTVSPost2010PropOp47
 70
     1
102
RTVSPost2010Prop48
 90
       50
102
RTVSPost2010PropOp48
 70
     1
102
RTVSPost2010Prop49
280
     0
102
RTVSPost2010PropOp49
 70
     1
102
RTVSPost2010Prop50
 90
       50
102
RTVSPost2010PropOp50
 70
     1
102
RTVSPost2010Prop51ColorIndex
 90
      256
102
RTVSPost2010Prop51ColorRGB
 90
-16777216
102
RTVSPost2010PropOp51
 70
     0
102
RTVSPost2010Prop52
140
1.0
102
RTVSPost2010PropOp52
 70
     0
102
RTVSPost2010Prop53
 90
        2
102
RTVSPost2010PropOp53
 70
     1
102
RTVSPost2010Prop54
  1
strokes_ogs.tif
102
RTVSPost2010PropOp54
 70
     1
102
RTVSPost2010Prop55
280
     0
102
RTVSPost2010PropOp55
 70
     1
102
RTVSPost2010Prop56
140
1.0
102
RTVSPost2010PropOp56
 70
     1
102
RTVSPost2010Prop57
140
1.0
102
RTVSPost2010PropOp57
 70
     1
  0
XRECORD
  5
3B7
102
{ACAD_REACTORS
330
3B6
102
}
330
3B6
100
AcDbXrecord
280
     1
102
RTVSPropertyOp0
 70
     1
102
RTVSPropertyOp1
 70
     1
102
RTVSPropertyOp2
 70
     1
102
RTVSPropertyOp3
 70
     1
102
RTVSPropertyOp4
 70
     1
102
RTVSPropertyOp5
 70
     1
102
RTVSPropertyOp6
 70
     1
102
RTVSPropertyOp7
 70
     1
102
RTVSPropertyOp8
 70
     1
102
RTVSPropertyOp9
 70
     1
102
RTVSPropertyOp10
 70
     1
102
RTVSPropertyOp11
 70
     1
102
RTVSPropertyOp12
 70
     1
102
RTVSPropertyOp13
 70
     1
102
RTVSPropertyOp14
 70
     1
102
RTVSPropertyOp15
 70
     1
102
RTVSPropertyOp16
 70
     1
102
RTVSPropertyOp17
 70
     1
102
RTVSPropertyOp18
 70
     1
102
RTVSPropertyOp19
 70
     1
102
RTVSPropertyOp20
 70
     1
102
RTVSPropertyOp21
 70
     1
102
RTVSPropertyOp22
 70
     1
102
RTVSPropertyOp23
 70
     1
102
RTVSPropertyOp24
 70
     1
102
RTVSPropertyOp25
 70
     1
102
RTVSPropertyOp26
 70
     1
102
RTVSPropertyOp27
 70
     1
102
RTVSPropertyOp28
 70
     1
102
RTVSPropertyOp29
 70
     1
102
RTVSPropertyOp30
 70
     1
102
RTVSPropertyOp31
 70
     1
102
RTVSPropertyOp32
 70
     1
102
RTVSPropertyOp33
 70
     1
102
RTVSPropertyOp34
 70
     1
102
RTVSPropertyOp35
 70
     1
102
RTVSPropertyOp36
 70
     1
102
RTVSPropertyOp37
 70
     1
102
RTVSPropertyOp38
 70
     1
102
RTVSPropertyOp39
 70
     1
102
RTVSPropertyOp40
 70
     1
102
RTVSPropertyOp41
 70
     1
102
RTVSPropertyOp42
 70
     1
102
RTVSPropertyOp43
 70
     1
102
RTVSPropertyOp44
 70
     1
102
RTVSPropertyOp45
 70
     1
102
RTVSPropertyOp46
 70
     1
102
RTVSPropertyOp47
 70
     1
102
RTVSPropertyOp48
 70
     1
102
RTVSPropertyOp49
 70
     1
102
RTVSPropertyOp50
 70
     1
102
RTVSPropertyOp51
 70
     0
102
RTVSPropertyOp52
 70
     0
102
RTVSPropertyOp53
 70
     1
102
RTVSPropertyOp54
 70
     1
102
RTVSPropertyOp55
 70
     1
102
RTVSPropertyOp56
 70
     1
102
RTVSPropertyOp57
 70
     1
102
RTVSPost2010Prop28
280
     0
102
RTVSPost2010PropOp28
 70
     1
102
RTVSPost2010Prop29
280
     1
102
RTVSPost2010PropOp29
 70
     1
102
RTVSPost2010Prop30
280
     1
102
RTVSPost2010PropOp30
 70
     1
102
RTVSPost2010Prop31
280
     0
102
RTVSPost2010PropOp31
 70
     1
102
RTVSPost2010Prop32
280
     0
102
RTVSPost2010PropOp32
 70
     1
102
RTVSPost2010Prop33
280
     0
102
RTVSPost2010PropOp33
 70
     1
102
RTVSPost2010Prop34
280
     0
102
RTVSPost2010PropOp34
 70
     1
102
RTVSPost2010Prop35
280
     0
102
RTVSPost2010PropOp35
 70
     1
102
RTVSPost2010Prop36
280
     0
102
RTVSPost2010PropOp36
 70
     1
102
RTVSPost2010Prop37
 90
       50
102
RTVSPost2010PropOp37
 70
     1
102
RTVSPost2010Prop38
140
0.0
102
RTVSPost2010PropOp38
 70
     1
102
RTVSPost2010Prop39
140
1.0
102
RTVSPost2010PropOp39
 70
     1
102
RTVSPost2010Prop40
 90
        0
102
RTVSPost2010PropOp40
 70
     1
102
RTVSPost2010Prop41ColorIndex
 90
      178
102
RTVSPost2010Prop41ColorRGB
 90
        0
102
RTVSPost2010PropOp41
 70
     1
102
RTVSPost2010Prop42
 90
       50
102
RTVSPost2010PropOp42
 70
     1
102
RTVSPost2010Prop43
 90
        3
102
RTVSPost2010PropOp43
 70
     1
102
RTVSPost2010Prop44ColorIndex
 90
        5
102
RTVSPost2010Prop44ColorRGB
 90
      255
102
RTVSPost2010PropOp44
 70
     1
102
RTVSPost2010Prop45
280
     0
102
RTVSPost2010PropOp45
 70
     1
102
RTVSPost2010Prop46
 90
       50
102
RTVSPost2010PropOp46
 70
     1
102
RTVSPost2010Prop47
 90
       50
102
RTVSPost2010PropOp47
 70
     1
102
RTVSPost2010Prop48
 90
       50
102
RTVSPost2010PropOp48
 70
     1
102
RTVSPost2010Prop49
280
     0
102
RTVSPost2010PropOp49
 70
     1
102
RTVSPost2010Prop50
 90
       50
102
RTVSPost2010PropOp50
 70
     1
102
RTVSPost2010Prop51ColorIndex
 90
      256
102
RTVSPost2010Prop51ColorRGB
 90
-16777216
102
RTVSPost2010PropOp51
 70
     0
102
RTVSPost2010Prop52
140
1.0
102
RTVSPost2010PropOp52
 70
     0
102
RTVSPost2010Prop53
 90
        2
102
RTVSPost2010PropOp53
 70
     1
102
RTVSPost2010Prop54
  1
strokes_ogs.tif
102
RTVSPost2010PropOp54
 70
     1
102
RTVSPost2010Prop55
280
     0
102
RTVSPost2010PropOp55
 70
     1
102
RTVSPost2010Prop56
140
1.0
102
RTVSPost2010PropOp56
 70
     1
102
RTVSPost2010Prop57
140
1.0
102
RTVSPost2010PropOp57
 70
     1
  0
XRECORD
  5
3B9
102
{ACAD_REACTORS
330
3B8
102
}
330
3B8
100
AcDbXrecord
280
     1
102
RTVSPropertyOp0
 70
     1
102
RTVSPropertyOp1
 70
     1
102
RTVSPropertyOp2
 70
     1
102
RTVSPropertyOp3
 70
     1
102
RTVSPropertyOp4
 70
     1
102
RTVSPropertyOp5
 70
     1
102
RTVSPropertyOp6
 70
     1
102
RTVSPropertyOp7
 70
     1
102
RTVSPropertyOp8
 70
     1
102
RTVSPropertyOp9
 70
     1
102
RTVSPropertyOp10
 70
     1
102
RTVSPropertyOp11
 70
     1
102
RTVSPropertyOp12
 70
     1
102
RTVSPropertyOp13
 70
     1
102
RTVSPropertyOp14
 70
     1
102
RTVSPropertyOp15
 70
     1
102
RTVSPropertyOp16
 70
     1
102
RTVSPropertyOp17
 70
     1
102
RTVSPropertyOp18
 70
     1
102
RTVSPropertyOp19
 70
     1
102
RTVSPropertyOp20
 70
     1
102
RTVSPropertyOp21
 70
     1
102
RTVSPropertyOp22
 70
     1
102
RTVSPropertyOp23
 70
     1
102
RTVSPropertyOp24
 70
     1
102
RTVSPropertyOp25
 70
     1
102
RTVSPropertyOp26
 70
     1
102
RTVSPropertyOp27
 70
     1
102
RTVSPropertyOp28
 70
     1
102
RTVSPropertyOp29
 70
     1
102
RTVSPropertyOp30
 70
     1
102
RTVSPropertyOp31
 70
     1
102
RTVSPropertyOp32
 70
     1
102
RTVSPropertyOp33
 70
     1
102
RTVSPropertyOp34
 70
     1
102
RTVSPropertyOp35
 70
     1
102
RTVSPropertyOp36
 70
     1
102
RTVSPropertyOp37
 70
     1
102
RTVSPropertyOp38
 70
     1
102
RTVSPropertyOp39
 70
     1
102
RTVSPropertyOp40
 70
     1
102
RTVSPropertyOp41
 70
     1
102
RTVSPropertyOp42
 70
     1
102
RTVSPropertyOp43
 70
     1
102
RTVSPropertyOp44
 70
     1
102
RTVSPropertyOp45
 70
     1
102
RTVSPropertyOp46
 70
     1
102
RTVSPropertyOp47
 70
     1
102
RTVSPropertyOp48
 70
     1
102
RTVSPropertyOp49
 70
     1
102
RTVSPropertyOp50
 70
     1
102
RTVSPropertyOp51
 70
     0
102
RTVSPropertyOp52
 70
     0
102
RTVSPropertyOp53
 70
     1
102
RTVSPropertyOp54
 70
     1
102
RTVSPropertyOp55
 70
     1
102
RTVSPropertyOp56
 70
     1
102
RTVSPropertyOp57
 70
     1
102
RTVSPost2010Prop28
280
     0
102
RTVSPost2010PropOp28
 70
     1
102
RTVSPost2010Prop29
280
     1
102
RTVSPost2010PropOp29
 70
     1
102
RTVSPost2010Prop30
280
     1
102
RTVSPost2010PropOp30
 70
     1
102
RTVSPost2010Prop31
280
     0
102
RTVSPost2010PropOp31
 70
     1
102
RTVSPost2010Prop32
280
     0
102
RTVSPost2010PropOp32
 70
     1
102
RTVSPost2010Prop33
280
     0
102
RTVSPost2010PropOp33
 70
     1
102
RTVSPost2010Prop34
280
     0
102
RTVSPost2010PropOp34
 70
     1
102
RTVSPost2010Prop35
280
     0
102
RTVSPost2010PropOp35
 70
     1
102
RTVSPost2010Prop36
280
     0
102
RTVSPost2010PropOp36
 70
     1
102
RTVSPost2010Prop37
 90
       50
102
RTVSPost2010PropOp37
 70
     1
102
RTVSPost2010Prop38
140
0.0
102
RTVSPost2010PropOp38
 70
     1
102
RTVSPost2010Prop39
140
1.0
102
RTVSPost2010PropOp39
 70
     1
102
RTVSPost2010Prop40
 90
        0
102
RTVSPost2010PropOp40
 70
     1
102
RTVSPost2010Prop41ColorIndex
 90
      178
102
RTVSPost2010Prop41ColorRGB
 90
        0
102
RTVSPost2010PropOp41
 70
     1
102
RTVSPost2010Prop42
 90
       50
102
RTVSPost2010PropOp42
 70
     1
102
RTVSPost2010Prop43
 90
        3
102
RTVSPost2010PropOp43
 70
     1
102
RTVSPost2010Prop44ColorIndex
 90
        5
102
RTVSPost2010Prop44ColorRGB
 90
      255
102
RTVSPost2010PropOp44
 70
     1
102
RTVSPost2010Prop45
280
     0
102
RTVSPost2010PropOp45
 70
     1
102
RTVSPost2010Prop46
 90
       50
102
RTVSPost2010PropOp46
 70
     1
102
RTVSPost2010Prop47
 90
       50
102
RTVSPost2010PropOp47
 70
     1
102
RTVSPost2010Prop48
 90
       50
102
RTVSPost2010PropOp48
 70
     1
102
RTVSPost2010Prop49
280
     0
102
RTVSPost2010PropOp49
 70
     1
102
RTVSPost2010Prop50
 90
       50
102
RTVSPost2010PropOp50
 70
     1
102
RTVSPost2010Prop51ColorIndex
 90
      256
102
RTVSPost2010Prop51ColorRGB
 90
-16777216
102
RTVSPost2010PropOp51
 70
     0
102
RTVSPost2010Prop52
140
1.0
102
RTVSPost2010PropOp52
 70
     0
102
RTVSPost2010Prop53
 90
        2
102
RTVSPost2010PropOp53
 70
     1
102
RTVSPost2010Prop54
  1
strokes_ogs.tif
102
RTVSPost2010PropOp54
 70
     1
102
RTVSPost2010Prop55
280
     0
102
RTVSPost2010PropOp55
 70
     1
102
RTVSPost2010Prop56
140
1.0
102
RTVSPost2010PropOp56
 70
     1
102
RTVSPost2010Prop57
140
1.0
102
RTVSPost2010PropOp57
 70
     1
  0
XRECORD
  5
3BB
102
{ACAD_REACTORS
330
3BA
102
}
330
3BA
100
AcDbXrecord
280
     1
102
RTVSPropertyOp0
 70
     1
102
RTVSPropertyOp1
 70
     1
102
RTVSPropertyOp2
 70
     1
102
RTVSPropertyOp3
 70
     1
102
RTVSPropertyOp4
 70
     1
102
RTVSPropertyOp5
 70
     1
102
RTVSPropertyOp6
 70
     1
102
RTVSPropertyOp7
 70
     1
102
RTVSPropertyOp8
 70
     1
102
RTVSPropertyOp9
 70
     1
102
RTVSPropertyOp10
 70
     1
102
RTVSPropertyOp11
 70
     1
102
RTVSPropertyOp12
 70
     1
102
RTVSPropertyOp13
 70
     1
102
RTVSPropertyOp14
 70
     1
102
RTVSPropertyOp15
 70
     1
102
RTVSPropertyOp16
 70
     1
102
RTVSPropertyOp17
 70
     1
102
RTVSPropertyOp18
 70
     1
102
RTVSPropertyOp19
 70
     1
102
RTVSPropertyOp20
 70
     1
102
RTVSPropertyOp21
 70
     1
102
RTVSPropertyOp22
 70
     1
102
RTVSPropertyOp23
 70
     1
102
RTVSPropertyOp24
 70
     1
102
RTVSPropertyOp25
 70
     1
102
RTVSPropertyOp26
 70
     1
102
RTVSPropertyOp27
 70
     1
102
RTVSPropertyOp28
 70
     1
102
RTVSPropertyOp29
 70
     1
102
RTVSPropertyOp30
 70
     1
102
RTVSPropertyOp31
 70
     1
102
RTVSPropertyOp32
 70
     1
102
RTVSPropertyOp33
 70
     1
102
RTVSPropertyOp34
 70
     1
102
RTVSPropertyOp35
 70
     1
102
RTVSPropertyOp36
 70
     1
102
RTVSPropertyOp37
 70
     1
102
RTVSPropertyOp38
 70
     1
102
RTVSPropertyOp39
 70
     1
102
RTVSPropertyOp40
 70
     1
102
RTVSPropertyOp41
 70
     1
102
RTVSPropertyOp42
 70
     1
102
RTVSPropertyOp43
 70
     1
102
RTVSPropertyOp44
 70
     1
102
RTVSPropertyOp45
 70
     1
102
RTVSPropertyOp46
 70
     1
102
RTVSPropertyOp47
 70
     1
102
RTVSPropertyOp48
 70
     1
102
RTVSPropertyOp49
 70
     1
102
RTVSPropertyOp50
 70
     1
102
RTVSPropertyOp51
 70
     0
102
RTVSPropertyOp52
 70
     0
102
RTVSPropertyOp53
 70
     1
102
RTVSPropertyOp54
 70
     1
102
RTVSPropertyOp55
 70
     1
102
RTVSPropertyOp56
 70
     1
102
RTVSPropertyOp57
 70
     1
102
RTVSPost2010Prop28
280
     0
102
RTVSPost2010PropOp28
 70
     1
102
RTVSPost2010Prop29
280
     1
102
RTVSPost2010PropOp29
 70
     1
102
RTVSPost2010Prop30
280
     1
102
RTVSPost2010PropOp30
 70
     1
102
RTVSPost2010Prop31
280
     0
102
RTVSPost2010PropOp31
 70
     1
102
RTVSPost2010Prop32
280
     0
102
RTVSPost2010PropOp32
 70
     1
102
RTVSPost2010Prop33
280
     0
102
RTVSPost2010PropOp33
 70
     1
102
RTVSPost2010Prop34
280
     0
102
RTVSPost2010PropOp34
 70
     1
102
RTVSPost2010Prop35
280
     0
102
RTVSPost2010PropOp35
 70
     1
102
RTVSPost2010Prop36
280
     0
102
RTVSPost2010PropOp36
 70
     1
102
RTVSPost2010Prop37
 90
       50
102
RTVSPost2010PropOp37
 70
     1
102
RTVSPost2010Prop38
140
0.0
102
RTVSPost2010PropOp38
 70
     1
102
RTVSPost2010Prop39
140
1.0
102
RTVSPost2010PropOp39
 70
     1
102
RTVSPost2010Prop40
 90
        0
102
RTVSPost2010PropOp40
 70
     1
102
RTVSPost2010Prop41ColorIndex
 90
      178
102
RTVSPost2010Prop41ColorRGB
 90
        0
102
RTVSPost2010PropOp41
 70
     1
102
RTVSPost2010Prop42
 90
       50
102
RTVSPost2010PropOp42
 70
     1
102
RTVSPost2010Prop43
 90
        3
102
RTVSPost2010PropOp43
 70
     1
102
RTVSPost2010Prop44ColorIndex
 90
        5
102
RTVSPost2010Prop44ColorRGB
 90
      255
102
RTVSPost2010PropOp44
 70
     1
102
RTVSPost2010Prop45
280
     0
102
RTVSPost2010PropOp45
 70
     1
102
RTVSPost2010Prop46
 90
       50
102
RTVSPost2010PropOp46
 70
     1
102
RTVSPost2010Prop47
 90
       50
102
RTVSPost2010PropOp47
 70
     1
102
RTVSPost2010Prop48
 90
       50
102
RTVSPost2010PropOp48
 70
     1
102
RTVSPost2010Prop49
280
     0
102
RTVSPost2010PropOp49
 70
     1
102
RTVSPost2010Prop50
 90
       50
102
RTVSPost2010PropOp50
 70
     1
102
RTVSPost2010Prop51ColorIndex
 90
      256
102
RTVSPost2010Prop51ColorRGB
 90
-16777216
102
RTVSPost2010PropOp51
 70
     0
102
RTVSPost2010Prop52
140
1.0
102
RTVSPost2010PropOp52
 70
     0
102
RTVSPost2010Prop53
 90
        2
102
RTVSPost2010PropOp53
 70
     1
102
RTVSPost2010Prop54
  1
strokes_ogs.tif
102
RTVSPost2010PropOp54
 70
     1
102
RTVSPost2010Prop55
280
     0
102
RTVSPost2010PropOp55
 70
     1
102
RTVSPost2010Prop56
140
1.0
102
RTVSPost2010PropOp56
 70
     1
102
RTVSPost2010Prop57
140
1.0
102
RTVSPost2010PropOp57
 70
     1
  0
XRECORD
  5
3C1
102
{ACAD_REACTORS
330
3C0
102
}
330
3C0
100
AcDbXrecord
280
     1
102
RTVSPropertyOp0
 70
     1
102
RTVSPropertyOp1
 70
     1
102
RTVSPropertyOp2
 70
     1
102
RTVSPropertyOp3
 70
     1
102
RTVSPropertyOp4
 70
     1
102
RTVSPropertyOp5
 70
     1
102
RTVSPropertyOp6
 70
     1
102
RTVSPropertyOp7
 70
     1
102
RTVSPropertyOp8
 70
     1
102
RTVSPropertyOp9
 70
     1
102
RTVSPropertyOp10
 70
     1
102
RTVSPropertyOp11
 70
     1
102
RTVSPropertyOp12
 70
     1
102
RTVSPropertyOp13
 70
     1
102
RTVSPropertyOp14
 70
     1
102
RTVSPropertyOp15
 70
     1
102
RTVSPropertyOp16
 70
     1
102
RTVSPropertyOp17
 70
     1
102
RTVSPropertyOp18
 70
     1
102
RTVSPropertyOp19
 70
     1
102
RTVSPropertyOp20
 70
     1
102
RTVSPropertyOp21
 70
     1
102
RTVSPropertyOp22
 70
     1
102
RTVSPropertyOp23
 70
     1
102
RTVSPropertyOp24
 70
     1
102
RTVSPropertyOp25
 70
     1
102
RTVSPropertyOp26
 70
     1
102
RTVSPropertyOp27
 70
     1
102
RTVSPropertyOp28
 70
     1
102
RTVSPropertyOp29
 70
     1
102
RTVSPropertyOp30
 70
     1
102
RTVSPropertyOp31
 70
     1
102
RTVSPropertyOp32
 70
     1
102
RTVSPropertyOp33
 70
     1
102
RTVSPropertyOp34
 70
     1
102
RTVSPropertyOp35
 70
     1
102
RTVSPropertyOp36
 70
     1
102
RTVSPropertyOp37
 70
     1
102
RTVSPropertyOp38
 70
     1
102
RTVSPropertyOp39
 70
     1
102
RTVSPropertyOp40
 70
     1
102
RTVSPropertyOp41
 70
     1
102
RTVSPropertyOp42
 70
     1
102
RTVSPropertyOp43
 70
     1
102
RTVSPropertyOp44
 70
     1
102
RTVSPropertyOp45
 70
     1
102
RTVSPropertyOp46
 70
     1
102
RTVSPropertyOp47
 70
     1
102
RTVSPropertyOp48
 70
     1
102
RTVSPropertyOp49
 70
     1
102
RTVSPropertyOp50
 70
     1
102
RTVSPropertyOp51
 70
     0
102
RTVSPropertyOp52
 70
     0
102
RTVSPropertyOp53
 70
     1
102
RTVSPropertyOp54
 70
     1
102
RTVSPropertyOp55
 70
     1
102
RTVSPropertyOp56
 70
     1
102
RTVSPropertyOp57
 70
     1
102
RTVSPost2010Prop28
280
     0
102
RTVSPost2010PropOp28
 70
     1
102
RTVSPost2010Prop29
280
     1
102
RTVSPost2010PropOp29
 70
     1
102
RTVSPost2010Prop30
280
     1
102
RTVSPost2010PropOp30
 70
     1
102
RTVSPost2010Prop31
280
     0
102
RTVSPost2010PropOp31
 70
     1
102
RTVSPost2010Prop32
280
     0
102
RTVSPost2010PropOp32
 70
     1
102
RTVSPost2010Prop33
280
     0
102
RTVSPost2010PropOp33
 70
     1
102
RTVSPost2010Prop34
280
     0
102
RTVSPost2010PropOp34
 70
     1
102
RTVSPost2010Prop35
280
     0
102
RTVSPost2010PropOp35
 70
     1
102
RTVSPost2010Prop36
280
     0
102
RTVSPost2010PropOp36
 70
     1
102
RTVSPost2010Prop37
 90
       50
102
RTVSPost2010PropOp37
 70
     1
102
RTVSPost2010Prop38
140
0.0
102
RTVSPost2010PropOp38
 70
     1
102
RTVSPost2010Prop39
140
1.0
102
RTVSPost2010PropOp39
 70
     1
102
RTVSPost2010Prop40
 90
        0
102
RTVSPost2010PropOp40
 70
     1
102
RTVSPost2010Prop41ColorIndex
 90
      178
102
RTVSPost2010Prop41ColorRGB
 90
        0
102
RTVSPost2010PropOp41
 70
     1
102
RTVSPost2010Prop42
 90
       50
102
RTVSPost2010PropOp42
 70
     1
102
RTVSPost2010Prop43
 90
        3
102
RTVSPost2010PropOp43
 70
     1
102
RTVSPost2010Prop44ColorIndex
 90
        5
102
RTVSPost2010Prop44ColorRGB
 90
      255
102
RTVSPost2010PropOp44
 70
     1
102
RTVSPost2010Prop45
280
     0
102
RTVSPost2010PropOp45
 70
     1
102
RTVSPost2010Prop46
 90
       50
102
RTVSPost2010PropOp46
 70
     1
102
RTVSPost2010Prop47
 90
       50
102
RTVSPost2010PropOp47
 70
     1
102
RTVSPost2010Prop48
 90
       50
102
RTVSPost2010PropOp48
 70
     1
102
RTVSPost2010Prop49
280
     0
102
RTVSPost2010PropOp49
 70
     1
102
RTVSPost2010Prop50
 90
       50
102
RTVSPost2010PropOp50
 70
     1
102
RTVSPost2010Prop51ColorIndex
 90
      256
102
RTVSPost2010Prop51ColorRGB
 90
-16777216
102
RTVSPost2010PropOp51
 70
     0
102
RTVSPost2010Prop52
140
1.0
102
RTVSPost2010PropOp52
 70
     0
102
RTVSPost2010Prop53
 90
        2
102
RTVSPost2010PropOp53
 70
     1
102
RTVSPost2010Prop54
  1
strokes_ogs.tif
102
RTVSPost2010PropOp54
 70
     1
102
RTVSPost2010Prop55
280
     0
102
RTVSPost2010PropOp55
 70
     1
102
RTVSPost2010Prop56
140
1.0
102
RTVSPost2010PropOp56
 70
     1
102
RTVSPost2010Prop57
140
1.0
102
RTVSPost2010PropOp57
 70
     1
  0
XRECORD
  5
3D5
102
{ACAD_REACTORS
330
3D4
102
}
330
3D4
100
AcDbXrecord
280
     1
102
RTVSPropertyOp0
 70
     0
102
RTVSPropertyOp1
 70
     0
102
RTVSPropertyOp2
 70
     0
102
RTVSPropertyOp3
 70
     0
102
RTVSPropertyOp4
 70
     0
102
RTVSPropertyOp5
 70
     0
102
RTVSPropertyOp6
 70
     0
102
RTVSPropertyOp7
 70
     0
102
RTVSPropertyOp8
 70
     0
102
RTVSPropertyOp9
 70
     0
102
RTVSPropertyOp10
 70
     0
102
RTVSPropertyOp11
 70
     0
102
RTVSPropertyOp12
 70
     0
102
RTVSPropertyOp13
 70
     0
102
RTVSPropertyOp14
 70
     2
102
RTVSPropertyOp15
 70
     0
102
RTVSPropertyOp16
 70
     0
102
RTVSPropertyOp17
 70
     0
102
RTVSPropertyOp18
 70
     0
102
RTVSPropertyOp19
 70
     0
102
RTVSPropertyOp20
 70
     0
102
RTVSPropertyOp21
 70
     0
102
RTVSPropertyOp22
 70
     0
102
RTVSPropertyOp23
 70
     0
102
RTVSPropertyOp24
 70
     0
102
RTVSPropertyOp25
 70
     0
102
RTVSPropertyOp26
 70
     0
102
RTVSPropertyOp27
 70
     0
102
RTVSPropertyOp28
 70
     0
102
RTVSPropertyOp29
 70
     0
102
RTVSPropertyOp30
 70
     0
102
RTVSPropertyOp31
 70
     0
102
RTVSPropertyOp32
 70
     0
102
RTVSPropertyOp33
 70
     0
102
RTVSPropertyOp34
 70
     0
102
RTVSPropertyOp35
 70
     0
102
RTVSPropertyOp36
 70
     0
102
RTVSPropertyOp37
 70
     0
102
RTVSPropertyOp38
 70
     0
102
RTVSPropertyOp39
 70
     0
102
RTVSPropertyOp40
 70
     0
102
RTVSPropertyOp41
 70
     0
102
RTVSPropertyOp42
 70
     0
102
RTVSPropertyOp43
 70
     0
102
RTVSPropertyOp44
 70
     0
102
RTVSPropertyOp45
 70
     0
102
RTVSPropertyOp46
 70
     0
102
RTVSPropertyOp47
 70
     0
102
RTVSPropertyOp48
 70
     0
102
RTVSPropertyOp49
 70
     0
102
RTVSPropertyOp50
 70
     0
102
RTVSPropertyOp51
 70
     0
102
RTVSPropertyOp52
 70
     0
102
RTVSPropertyOp53
 70
     0
102
RTVSPropertyOp54
 70
     0
102
RTVSPropertyOp55
 70
     0
102
RTVSPropertyOp56
 70
     0
102
RTVSPropertyOp57
 70
     0
102
RTVSPost2010Prop28
280
     0
102
RTVSPost2010PropOp28
 70
     0
102
RTVSPost2010Prop29
280
     1
102
RTVSPost2010PropOp29
 70
     0
102
RTVSPost2010Prop30
280
     1
102
RTVSPost2010PropOp30
 70
     0
102
RTVSPost2010Prop31
280
     0
102
RTVSPost2010PropOp31
 70
     0
102
RTVSPost2010Prop32
280
     0
102
RTVSPost2010PropOp32
 70
     0
102
RTVSPost2010Prop33
280
     0
102
RTVSPost2010PropOp33
 70
     0
102
RTVSPost2010Prop34
280
     0
102
RTVSPost2010PropOp34
 70
     0
102
RTVSPost2010Prop35
280
     0
102
RTVSPost2010PropOp35
 70
     0
102
RTVSPost2010Prop36
280
     0
102
RTVSPost2010PropOp36
 70
     0
102
RTVSPost2010Prop37
 90
       50
102
RTVSPost2010PropOp37
 70
     0
102
RTVSPost2010Prop38
140
0.0
102
RTVSPost2010PropOp38
 70
     0
102
RTVSPost2010Prop39
140
1.0
102
RTVSPost2010PropOp39
 70
     0
102
RTVSPost2010Prop40
 90
        0
102
RTVSPost2010PropOp40
 70
     0
102
RTVSPost2010Prop41ColorIndex
 90
      178
102
RTVSPost2010Prop41ColorRGB
 90
        0
102
RTVSPost2010PropOp41
 70
     0
102
RTVSPost2010Prop42
 90
       50
102
RTVSPost2010PropOp42
 70
     0
102
RTVSPost2010Prop43
 90
        3
102
RTVSPost2010PropOp43
 70
     0
102
RTVSPost2010Prop44ColorIndex
 90
        5
102
RTVSPost2010Prop44ColorRGB
 90
      255
102
RTVSPost2010PropOp44
 70
     0
102
RTVSPost2010Prop45
280
     0
102
RTVSPost2010PropOp45
 70
     0
102
RTVSPost2010Prop46
 90
       50
102
RTVSPost2010PropOp46
 70
     0
102
RTVSPost2010Prop47
 90
       50
102
RTVSPost2010PropOp47
 70
     0
102
RTVSPost2010Prop48
 90
       50
102
RTVSPost2010PropOp48
 70
     0
102
RTVSPost2010Prop49
280
     0
102
RTVSPost2010PropOp49
 70
     0
102
RTVSPost2010Prop50
 90
       50
102
RTVSPost2010PropOp50
 70
     0
102
RTVSPost2010Prop51ColorIndex
 90
      256
102
RTVSPost2010Prop51ColorRGB
 90
-16777216
102
RTVSPost2010PropOp51
 70
     0
102
RTVSPost2010Prop52
140
1.0
102
RTVSPost2010PropOp52
 70
     0
102
RTVSPost2010Prop53
 90
        2
102
RTVSPost2010PropOp53
 70
     0
102
RTVSPost2010Prop54
  1
strokes_ogs.tif
102
RTVSPost2010PropOp54
 70
     0
102
RTVSPost2010Prop55
280
     0
102
RTVSPost2010PropOp55
 70
     0
102
RTVSPost2010Prop56
140
1.0
102
RTVSPost2010PropOp56
 70
     0
102
RTVSPost2010Prop57
140
1.0
102
RTVSPost2010PropOp57
 70
     0
  0
XRECORD
  5
3CF
102
{ACAD_REACTORS
330
3CE
102
}
330
3CE
100
AcDbXrecord
280
     1
102
RTVSPropertyOp0
 70
     1
102
RTVSPropertyOp1
 70
     1
102
RTVSPropertyOp2
 70
     1
102
RTVSPropertyOp3
 70
     1
102
RTVSPropertyOp4
 70
     1
102
RTVSPropertyOp5
 70
     1
102
RTVSPropertyOp6
 70
     1
102
RTVSPropertyOp7
 70
     1
102
RTVSPropertyOp8
 70
     1
102
RTVSPropertyOp9
 70
     1
102
RTVSPropertyOp10
 70
     1
102
RTVSPropertyOp11
 70
     1
102
RTVSPropertyOp12
 70
     1
102
RTVSPropertyOp13
 70
     1
102
RTVSPropertyOp14
 70
     1
102
RTVSPropertyOp15
 70
     1
102
RTVSPropertyOp16
 70
     1
102
RTVSPropertyOp17
 70
     1
102
RTVSPropertyOp18
 70
     1
102
RTVSPropertyOp19
 70
     1
102
RTVSPropertyOp20
 70
     1
102
RTVSPropertyOp21
 70
     1
102
RTVSPropertyOp22
 70
     1
102
RTVSPropertyOp23
 70
     1
102
RTVSPropertyOp24
 70
     1
102
RTVSPropertyOp25
 70
     1
102
RTVSPropertyOp26
 70
     1
102
RTVSPropertyOp27
 70
     1
102
RTVSPropertyOp28
 70
     1
102
RTVSPropertyOp29
 70
     1
102
RTVSPropertyOp30
 70
     1
102
RTVSPropertyOp31
 70
     1
102
RTVSPropertyOp32
 70
     1
102
RTVSPropertyOp33
 70
     1
102
RTVSPropertyOp34
 70
     1
102
RTVSPropertyOp35
 70
     1
102
RTVSPropertyOp36
 70
     1
102
RTVSPropertyOp37
 70
     1
102
RTVSPropertyOp38
 70
     1
102
RTVSPropertyOp39
 70
     1
102
RTVSPropertyOp40
 70
     1
102
RTVSPropertyOp41
 70
     1
102
RTVSPropertyOp42
 70
     1
102
RTVSPropertyOp43
 70
     1
102
RTVSPropertyOp44
 70
     1
102
RTVSPropertyOp45
 70
     1
102
RTVSPropertyOp46
 70
     1
102
RTVSPropertyOp47
 70
     1
102
RTVSPropertyOp48
 70
     1
102
RTVSPropertyOp49
 70
     1
102
RTVSPropertyOp50
 70
     1
102
RTVSPropertyOp51
 70
     0
102
RTVSPropertyOp52
 70
     0
102
RTVSPropertyOp53
 70
     1
102
RTVSPropertyOp54
 70
     1
102
RTVSPropertyOp55
 70
     1
102
RTVSPropertyOp56
 70
     1
102
RTVSPropertyOp57
 70
     1
102
RTVSPost2010Prop28
280
     0
102
RTVSPost2010PropOp28
 70
     1
102
RTVSPost2010Prop29
280
     1
102
RTVSPost2010PropOp29
 70
     1
102
RTVSPost2010Prop30
280
     1
102
RTVSPost2010PropOp30
 70
     1
102
RTVSPost2010Prop31
280
     0
102
RTVSPost2010PropOp31
 70
     1
102
RTVSPost2010Prop32
280
     0
102
RTVSPost2010PropOp32
 70
     1
102
RTVSPost2010Prop33
280
     0
102
RTVSPost2010PropOp33
 70
     1
102
RTVSPost2010Prop34
280
     0
102
RTVSPost2010PropOp34
 70
     1
102
RTVSPost2010Prop35
280
     0
102
RTVSPost2010PropOp35
 70
     1
102
RTVSPost2010Prop36
280
     0
102
RTVSPost2010PropOp36
 70
     1
102
RTVSPost2010Prop37
 90
       50
102
RTVSPost2010PropOp37
 70
     1
102
RTVSPost2010Prop38
140
0.0
102
RTVSPost2010PropOp38
 70
     1
102
RTVSPost2010Prop39
140
1.0
102
RTVSPost2010PropOp39
 70
     1
102
RTVSPost2010Prop40
 90
        0
102
RTVSPost2010PropOp40
 70
     1
102
RTVSPost2010Prop41ColorIndex
 90
      178
102
RTVSPost2010Prop41ColorRGB
 90
        0
102
RTVSPost2010PropOp41
 70
     1
102
RTVSPost2010Prop42
 90
       50
102
RTVSPost2010PropOp42
 70
     1
102
RTVSPost2010Prop43
 90
        3
102
RTVSPost2010PropOp43
 70
     1
102
RTVSPost2010Prop44ColorIndex
 90
        5
102
RTVSPost2010Prop44ColorRGB
 90
      255
102
RTVSPost2010PropOp44
 70
     1
102
RTVSPost2010Prop45
280
     0
102
RTVSPost2010PropOp45
 70
     1
102
RTVSPost2010Prop46
 90
       50
102
RTVSPost2010PropOp46
 70
     1
102
RTVSPost2010Prop47
 90
       50
102
RTVSPost2010PropOp47
 70
     1
102
RTVSPost2010Prop48
 90
       50
102
RTVSPost2010PropOp48
 70
     1
102
RTVSPost2010Prop49
280
     0
102
RTVSPost2010PropOp49
 70
     1
102
RTVSPost2010Prop50
 90
       50
102
RTVSPost2010PropOp50
 70
     1
102
RTVSPost2010Prop51ColorIndex
 90
      256
102
RTVSPost2010Prop51ColorRGB
 90
-16777216
102
RTVSPost2010PropOp51
 70
     0
102
RTVSPost2010Prop52
140
1.0
102
RTVSPost2010PropOp52
 70
     0
102
RTVSPost2010Prop53
 90
        2
102
RTVSPost2010PropOp53
 70
     1
102
RTVSPost2010Prop54
  1
strokes_ogs.tif
102
RTVSPost2010PropOp54
 70
     1
102
RTVSPost2010Prop55
280
     0
102
RTVSPost2010PropOp55
 70
     1
102
RTVSPost2010Prop56
140
1.0
102
RTVSPost2010PropOp56
 70
     1
102
RTVSPost2010Prop57
140
1.0
102
RTVSPost2010PropOp57
 70
     1
  0
XRECORD
  5
3D7
102
{ACAD_REACTORS
330
3D6
102
}
330
3D6
100
AcDbXrecord
280
     1
102
RTVSPropertyOp0
 70
     0
102
RTVSPropertyOp1
 70
     0
102
RTVSPropertyOp2
 70
     0
102
RTVSPropertyOp3
 70
     0
102
RTVSPropertyOp4
 70
     0
102
RTVSPropertyOp5
 70
     0
102
RTVSPropertyOp6
 70
     0
102
RTVSPropertyOp7
 70
     0
102
RTVSPropertyOp8
 70
     0
102
RTVSPropertyOp9
 70
     0
102
RTVSPropertyOp10
 70
     0
102
RTVSPropertyOp11
 70
     0
102
RTVSPropertyOp12
 70
     0
102
RTVSPropertyOp13
 70
     0
102
RTVSPropertyOp14
 70
     2
102
RTVSPropertyOp15
 70
     0
102
RTVSPropertyOp16
 70
     0
102
RTVSPropertyOp17
 70
     0
102
RTVSPropertyOp18
 70
     0
102
RTVSPropertyOp19
 70
     0
102
RTVSPropertyOp20
 70
     0
102
RTVSPropertyOp21
 70
     0
102
RTVSPropertyOp22
 70
     0
102
RTVSPropertyOp23
 70
     0
102
RTVSPropertyOp24
 70
     0
102
RTVSPropertyOp25
 70
     0
102
RTVSPropertyOp26
 70
     0
102
RTVSPropertyOp27
 70
     0
102
RTVSPropertyOp28
 70
     0
102
RTVSPropertyOp29
 70
     0
102
RTVSPropertyOp30
 70
     0
102
RTVSPropertyOp31
 70
     0
102
RTVSPropertyOp32
 70
     0
102
RTVSPropertyOp33
 70
     0
102
RTVSPropertyOp34
 70
     0
102
RTVSPropertyOp35
 70
     0
102
RTVSPropertyOp36
 70
     0
102
RTVSPropertyOp37
 70
     0
102
RTVSPropertyOp38
 70
     0
102
RTVSPropertyOp39
 70
     0
102
RTVSPropertyOp40
 70
     0
102
RTVSPropertyOp41
 70
     0
102
RTVSPropertyOp42
 70
     0
102
RTVSPropertyOp43
 70
     0
102
RTVSPropertyOp44
 70
     0
102
RTVSPropertyOp45
 70
     0
102
RTVSPropertyOp46
 70
     0
102
RTVSPropertyOp47
 70
     0
102
RTVSPropertyOp48
 70
     0
102
RTVSPropertyOp49
 70
     0
102
RTVSPropertyOp50
 70
     0
102
RTVSPropertyOp51
 70
     0
102
RTVSPropertyOp52
 70
     0
102
RTVSPropertyOp53
 70
     0
102
RTVSPropertyOp54
 70
     0
102
RTVSPropertyOp55
 70
     0
102
RTVSPropertyOp56
 70
     0
102
RTVSPropertyOp57
 70
     0
102
RTVSPost2010Prop28
280
     0
102
RTVSPost2010PropOp28
 70
     0
102
RTVSPost2010Prop29
280
     1
102
RTVSPost2010PropOp29
 70
     0
102
RTVSPost2010Prop30
280
     1
102
RTVSPost2010PropOp30
 70
     0
102
RTVSPost2010Prop31
280
     0
102
RTVSPost2010PropOp31
 70
     0
102
RTVSPost2010Prop32
280
     0
102
RTVSPost2010PropOp32
 70
     0
102
RTVSPost2010Prop33
280
     0
102
RTVSPost2010PropOp33
 70
     0
102
RTVSPost2010Prop34
280
     0
102
RTVSPost2010PropOp34
 70
     0
102
RTVSPost2010Prop35
280
     0
102
RTVSPost2010PropOp35
 70
     0
102
RTVSPost2010Prop36
280
     0
102
RTVSPost2010PropOp36
 70
     0
102
RTVSPost2010Prop37
 90
       50
102
RTVSPost2010PropOp37
 70
     0
102
RTVSPost2010Prop38
140
0.0
102
RTVSPost2010PropOp38
 70
     0
102
RTVSPost2010Prop39
140
1.0
102
RTVSPost2010PropOp39
 70
     0
102
RTVSPost2010Prop40
 90
        0
102
RTVSPost2010PropOp40
 70
     0
102
RTVSPost2010Prop41ColorIndex
 90
      178
102
RTVSPost2010Prop41ColorRGB
 90
        0
102
RTVSPost2010PropOp41
 70
     0
102
RTVSPost2010Prop42
 90
       50
102
RTVSPost2010PropOp42
 70
     0
102
RTVSPost2010Prop43
 90
        3
102
RTVSPost2010PropOp43
 70
     0
102
RTVSPost2010Prop44ColorIndex
 90
        5
102
RTVSPost2010Prop44ColorRGB
 90
      255
102
RTVSPost2010PropOp44
 70
     0
102
RTVSPost2010Prop45
280
     0
102
RTVSPost2010PropOp45
 70
     0
102
RTVSPost2010Prop46
 90
       50
102
RTVSPost2010PropOp46
 70
     0
102
RTVSPost2010Prop47
 90
       50
102
RTVSPost2010PropOp47
 70
     0
102
RTVSPost2010Prop48
 90
       50
102
RTVSPost2010PropOp48
 70
     0
102
RTVSPost2010Prop49
280
     0
102
RTVSPost2010PropOp49
 70
     0
102
RTVSPost2010Prop50
 90
       50
102
RTVSPost2010PropOp50
 70
     0
102
RTVSPost2010Prop51ColorIndex
 90
      256
102
RTVSPost2010Prop51ColorRGB
 90
-16777216
102
RTVSPost2010PropOp51
 70
     0
102
RTVSPost2010Prop52
140
1.0
102
RTVSPost2010PropOp52
 70
     0
102
RTVSPost2010Prop53
 90
        2
102
RTVSPost2010PropOp53
 70
     0
102
RTVSPost2010Prop54
  1
strokes_ogs.tif
102
RTVSPost2010PropOp54
 70
     0
102
RTVSPost2010Prop55
280
     0
102
RTVSPost2010PropOp55
 70
     0
102
RTVSPost2010Prop56
140
1.0
102
RTVSPost2010PropOp56
 70
     0
102
RTVSPost2010Prop57
140
1.0
102
RTVSPost2010PropOp57
 70
     0
  0
XRECORD
  5
3C5
102
{ACAD_REACTORS
330
3C4
102
}
330
3C4
100
AcDbXrecord
280
     1
102
RTVSPropertyOp0
 70
     1
102
RTVSPropertyOp1
 70
     1
102
RTVSPropertyOp2
 70
     1
102
RTVSPropertyOp3
 70
     1
102
RTVSPropertyOp4
 70
     1
102
RTVSPropertyOp5
 70
     1
102
RTVSPropertyOp6
 70
     1
102
RTVSPropertyOp7
 70
     1
102
RTVSPropertyOp8
 70
     1
102
RTVSPropertyOp9
 70
     1
102
RTVSPropertyOp10
 70
     1
102
RTVSPropertyOp11
 70
     1
102
RTVSPropertyOp12
 70
     1
102
RTVSPropertyOp13
 70
     1
102
RTVSPropertyOp14
 70
     1
102
RTVSPropertyOp15
 70
     1
102
RTVSPropertyOp16
 70
     1
102
RTVSPropertyOp17
 70
     1
102
RTVSPropertyOp18
 70
     1
102
RTVSPropertyOp19
 70
     1
102
RTVSPropertyOp20
 70
     1
102
RTVSPropertyOp21
 70
     1
102
RTVSPropertyOp22
 70
     1
102
RTVSPropertyOp23
 70
     1
102
RTVSPropertyOp24
 70
     1
102
RTVSPropertyOp25
 70
     1
102
RTVSPropertyOp26
 70
     1
102
RTVSPropertyOp27
 70
     1
102
RTVSPropertyOp28
 70
     1
102
RTVSPropertyOp29
 70
     1
102
RTVSPropertyOp30
 70
     1
102
RTVSPropertyOp31
 70
     1
102
RTVSPropertyOp32
 70
     1
102
RTVSPropertyOp33
 70
     1
102
RTVSPropertyOp34
 70
     1
102
RTVSPropertyOp35
 70
     1
102
RTVSPropertyOp36
 70
     1
102
RTVSPropertyOp37
 70
     1
102
RTVSPropertyOp38
 70
     1
102
RTVSPropertyOp39
 70
     1
102
RTVSPropertyOp40
 70
     1
102
RTVSPropertyOp41
 70
     1
102
RTVSPropertyOp42
 70
     1
102
RTVSPropertyOp43
 70
     1
102
RTVSPropertyOp44
 70
     1
102
RTVSPropertyOp45
 70
     1
102
RTVSPropertyOp46
 70
     1
102
RTVSPropertyOp47
 70
     1
102
RTVSPropertyOp48
 70
     1
102
RTVSPropertyOp49
 70
     1
102
RTVSPropertyOp50
 70
     1
102
RTVSPropertyOp51
 70
     0
102
RTVSPropertyOp52
 70
     0
102
RTVSPropertyOp53
 70
     1
102
RTVSPropertyOp54
 70
     1
102
RTVSPropertyOp55
 70
     1
102
RTVSPropertyOp56
 70
     1
102
RTVSPropertyOp57
 70
     1
102
RTVSPost2010Prop28
280
     0
102
RTVSPost2010PropOp28
 70
     1
102
RTVSPost2010Prop29
280
     1
102
RTVSPost2010PropOp29
 70
     1
102
RTVSPost2010Prop30
280
     1
102
RTVSPost2010PropOp30
 70
     1
102
RTVSPost2010Prop31
280
     0
102
RTVSPost2010PropOp31
 70
     1
102
RTVSPost2010Prop32
280
     0
102
RTVSPost2010PropOp32
 70
     1
102
RTVSPost2010Prop33
280
     0
102
RTVSPost2010PropOp33
 70
     1
102
RTVSPost2010Prop34
280
     0
102
RTVSPost2010PropOp34
 70
     1
102
RTVSPost2010Prop35
280
     0
102
RTVSPost2010PropOp35
 70
     1
102
RTVSPost2010Prop36
280
     0
102
RTVSPost2010PropOp36
 70
     1
102
RTVSPost2010Prop37
 90
       50
102
RTVSPost2010PropOp37
 70
     1
102
RTVSPost2010Prop38
140
0.0
102
RTVSPost2010PropOp38
 70
     1
102
RTVSPost2010Prop39
140
1.0
102
RTVSPost2010PropOp39
 70
     1
102
RTVSPost2010Prop40
 90
        0
102
RTVSPost2010PropOp40
 70
     1
102
RTVSPost2010Prop41ColorIndex
 90
      178
102
RTVSPost2010Prop41ColorRGB
 90
        0
102
RTVSPost2010PropOp41
 70
     1
102
RTVSPost2010Prop42
 90
       50
102
RTVSPost2010PropOp42
 70
     1
102
RTVSPost2010Prop43
 90
        3
102
RTVSPost2010PropOp43
 70
     1
102
RTVSPost2010Prop44ColorIndex
 90
        5
102
RTVSPost2010Prop44ColorRGB
 90
      255
102
RTVSPost2010PropOp44
 70
     1
102
RTVSPost2010Prop45
280
     0
102
RTVSPost2010PropOp45
 70
     1
102
RTVSPost2010Prop46
 90
       50
102
RTVSPost2010PropOp46
 70
     1
102
RTVSPost2010Prop47
 90
       50
102
RTVSPost2010PropOp47
 70
     1
102
RTVSPost2010Prop48
 90
       50
102
RTVSPost2010PropOp48
 70
     1
102
RTVSPost2010Prop49
280
     0
102
RTVSPost2010PropOp49
 70
     1
102
RTVSPost2010Prop50
 90
       50
102
RTVSPost2010PropOp50
 70
     1
102
RTVSPost2010Prop51ColorIndex
 90
      256
102
RTVSPost2010Prop51ColorRGB
 90
-16777216
102
RTVSPost2010PropOp51
 70
     0
102
RTVSPost2010Prop52
140
1.0
102
RTVSPost2010PropOp52
 70
     0
102
RTVSPost2010Prop53
 90
        2
102
RTVSPost2010PropOp53
 70
     1
102
RTVSPost2010Prop54
  1
strokes_ogs.tif
102
RTVSPost2010PropOp54
 70
     1
102
RTVSPost2010Prop55
280
     0
102
RTVSPost2010PropOp55
 70
     1
102
RTVSPost2010Prop56
140
1.0
102
RTVSPost2010PropOp56
 70
     1
102
RTVSPost2010Prop57
140
1.0
102
RTVSPost2010PropOp57
 70
     1
  0
XRECORD
  5
3E3
102
{ACAD_REACTORS
330
3E2
102
}
330
3E2
100
AcDbXrecord
280
     1
102
RTVSPropertyOp0
 70
     1
102
RTVSPropertyOp1
 70
     1
102
RTVSPropertyOp2
 70
     1
102
RTVSPropertyOp3
 70
     1
102
RTVSPropertyOp4
 70
     1
102
RTVSPropertyOp5
 70
     1
102
RTVSPropertyOp6
 70
     1
102
RTVSPropertyOp7
 70
     1
102
RTVSPropertyOp8
 70
     1
102
RTVSPropertyOp9
 70
     1
102
RTVSPropertyOp10
 70
     1
102
RTVSPropertyOp11
 70
     1
102
RTVSPropertyOp12
 70
     1
102
RTVSPropertyOp13
 70
     1
102
RTVSPropertyOp14
 70
     1
102
RTVSPropertyOp15
 70
     1
102
RTVSPropertyOp16
 70
     1
102
RTVSPropertyOp17
 70
     1
102
RTVSPropertyOp18
 70
     1
102
RTVSPropertyOp19
 70
     1
102
RTVSPropertyOp20
 70
     1
102
RTVSPropertyOp21
 70
     1
102
RTVSPropertyOp22
 70
     1
102
RTVSPropertyOp23
 70
     1
102
RTVSPropertyOp24
 70
     1
102
RTVSPropertyOp25
 70
     1
102
RTVSPropertyOp26
 70
     1
102
RTVSPropertyOp27
 70
     1
102
RTVSPropertyOp28
 70
     1
102
RTVSPropertyOp29
 70
     1
102
RTVSPropertyOp30
 70
     1
102
RTVSPropertyOp31
 70
     1
102
RTVSPropertyOp32
 70
     1
102
RTVSPropertyOp33
 70
     1
102
RTVSPropertyOp34
 70
     1
102
RTVSPropertyOp35
 70
     1
102
RTVSPropertyOp36
 70
     1
102
RTVSPropertyOp37
 70
     1
102
RTVSPropertyOp38
 70
     1
102
RTVSPropertyOp39
 70
     1
102
RTVSPropertyOp40
 70
     1
102
RTVSPropertyOp41
 70
     1
102
RTVSPropertyOp42
 70
     1
102
RTVSPropertyOp43
 70
     1
102
RTVSPropertyOp44
 70
     1
102
RTVSPropertyOp45
 70
     1
102
RTVSPropertyOp46
 70
     1
102
RTVSPropertyOp47
 70
     1
102
RTVSPropertyOp48
 70
     1
102
RTVSPropertyOp49
 70
     1
102
RTVSPropertyOp50
 70
     1
102
RTVSPropertyOp51
 70
     0
102
RTVSPropertyOp52
 70
     0
102
RTVSPropertyOp53
 70
     1
102
RTVSPropertyOp54
 70
     1
102
RTVSPropertyOp55
 70
     1
102
RTVSPropertyOp56
 70
     1
102
RTVSPropertyOp57
 70
     1
102
RTVSPost2010Prop28
280
     0
102
RTVSPost2010PropOp28
 70
     1
102
RTVSPost2010Prop29
280
     1
102
RTVSPost2010PropOp29
 70
     1
102
RTVSPost2010Prop30
280
     1
102
RTVSPost2010PropOp30
 70
     1
102
RTVSPost2010Prop31
280
     0
102
RTVSPost2010PropOp31
 70
     1
102
RTVSPost2010Prop32
280
     0
102
RTVSPost2010PropOp32
 70
     1
102
RTVSPost2010Prop33
280
     0
102
RTVSPost2010PropOp33
 70
     1
102
RTVSPost2010Prop34
280
     0
102
RTVSPost2010PropOp34
 70
     1
102
RTVSPost2010Prop35
280
     0
102
RTVSPost2010PropOp35
 70
     1
102
RTVSPost2010Prop36
280
     0
102
RTVSPost2010PropOp36
 70
     1
102
RTVSPost2010Prop37
 90
       50
102
RTVSPost2010PropOp37
 70
     1
102
RTVSPost2010Prop38
140
0.0
102
RTVSPost2010PropOp38
 70
     1
102
RTVSPost2010Prop39
140
1.0
102
RTVSPost2010PropOp39
 70
     1
102
RTVSPost2010Prop40
 90
        0
102
RTVSPost2010PropOp40
 70
     1
102
RTVSPost2010Prop41ColorIndex
 90
      178
102
RTVSPost2010Prop41ColorRGB
 90
        0
102
RTVSPost2010PropOp41
 70
     1
102
RTVSPost2010Prop42
 90
       50
102
RTVSPost2010PropOp42
 70
     1
102
RTVSPost2010Prop43
 90
        3
102
RTVSPost2010PropOp43
 70
     1
102
RTVSPost2010Prop44ColorIndex
 90
        5
102
RTVSPost2010Prop44ColorRGB
 90
      255
102
RTVSPost2010PropOp44
 70
     1
102
RTVSPost2010Prop45
280
     0
102
RTVSPost2010PropOp45
 70
     1
102
RTVSPost2010Prop46
 90
       50
102
RTVSPost2010PropOp46
 70
     1
102
RTVSPost2010Prop47
 90
       50
102
RTVSPost2010PropOp47
 70
     1
102
RTVSPost2010Prop48
 90
       50
102
RTVSPost2010PropOp48
 70
     1
102
RTVSPost2010Prop49
280
     0
102
RTVSPost2010PropOp49
 70
     1
102
RTVSPost2010Prop50
 90
       50
102
RTVSPost2010PropOp50
 70
     1
102
RTVSPost2010Prop51ColorIndex
 90
      256
102
RTVSPost2010Prop51ColorRGB
 90
-16777216
102
RTVSPost2010PropOp51
 70
     0
102
RTVSPost2010Prop52
140
1.0
102
RTVSPost2010PropOp52
 70
     0
102
RTVSPost2010Prop53
 90
        2
102
RTVSPost2010PropOp53
 70
     1
102
RTVSPost2010Prop54
  1
strokes_ogs.tif
102
RTVSPost2010PropOp54
 70
     1
102
RTVSPost2010Prop55
280
     0
102
RTVSPost2010PropOp55
 70
     1
102
RTVSPost2010Prop56
140
1.0
102
RTVSPost2010PropOp56
 70
     1
102
RTVSPost2010Prop57
140
1.0
102
RTVSPost2010PropOp57
 70
     1
  0
XRECORD
  5
3E1
102
{ACAD_REACTORS
330
3E0
102
}
330
3E0
100
AcDbXrecord
280
     1
102
RTVSPropertyOp0
 70
     1
102
RTVSPropertyOp1
 70
     1
102
RTVSPropertyOp2
 70
     1
102
RTVSPropertyOp3
 70
     1
102
RTVSPropertyOp4
 70
     1
102
RTVSPropertyOp5
 70
     1
102
RTVSPropertyOp6
 70
     1
102
RTVSPropertyOp7
 70
     1
102
RTVSPropertyOp8
 70
     1
102
RTVSPropertyOp9
 70
     1
102
RTVSPropertyOp10
 70
     1
102
RTVSPropertyOp11
 70
     1
102
RTVSPropertyOp12
 70
     1
102
RTVSPropertyOp13
 70
     1
102
RTVSPropertyOp14
 70
     1
102
RTVSPropertyOp15
 70
     1
102
RTVSPropertyOp16
 70
     1
102
RTVSPropertyOp17
 70
     1
102
RTVSPropertyOp18
 70
     1
102
RTVSPropertyOp19
 70
     1
102
RTVSPropertyOp20
 70
     1
102
RTVSPropertyOp21
 70
     1
102
RTVSPropertyOp22
 70
     1
102
RTVSPropertyOp23
 70
     1
102
RTVSPropertyOp24
 70
     1
102
RTVSPropertyOp25
 70
     1
102
RTVSPropertyOp26
 70
     1
102
RTVSPropertyOp27
 70
     1
102
RTVSPropertyOp28
 70
     1
102
RTVSPropertyOp29
 70
     1
102
RTVSPropertyOp30
 70
     1
102
RTVSPropertyOp31
 70
     1
102
RTVSPropertyOp32
 70
     1
102
RTVSPropertyOp33
 70
     1
102
RTVSPropertyOp34
 70
     1
102
RTVSPropertyOp35
 70
     1
102
RTVSPropertyOp36
 70
     1
102
RTVSPropertyOp37
 70
     1
102
RTVSPropertyOp38
 70
     1
102
RTVSPropertyOp39
 70
     1
102
RTVSPropertyOp40
 70
     1
102
RTVSPropertyOp41
 70
     1
102
RTVSPropertyOp42
 70
     1
102
RTVSPropertyOp43
 70
     1
102
RTVSPropertyOp44
 70
     1
102
RTVSPropertyOp45
 70
     1
102
RTVSPropertyOp46
 70
     1
102
RTVSPropertyOp47
 70
     1
102
RTVSPropertyOp48
 70
     1
102
RTVSPropertyOp49
 70
     1
102
RTVSPropertyOp50
 70
     1
102
RTVSPropertyOp51
 70
     0
102
RTVSPropertyOp52
 70
     0
102
RTVSPropertyOp53
 70
     1
102
RTVSPropertyOp54
 70
     1
102
RTVSPropertyOp55
 70
     1
102
RTVSPropertyOp56
 70
     1
102
RTVSPropertyOp57
 70
     1
102
RTVSPost2010Prop28
280
     0
102
RTVSPost2010PropOp28
 70
     1
102
RTVSPost2010Prop29
280
     1
102
RTVSPost2010PropOp29
 70
     1
102
RTVSPost2010Prop30
280
     1
102
RTVSPost2010PropOp30
 70
     1
102
RTVSPost2010Prop31
280
     0
102
RTVSPost2010PropOp31
 70
     1
102
RTVSPost2010Prop32
280
     0
102
RTVSPost2010PropOp32
 70
     1
102
RTVSPost2010Prop33
280
     0
102
RTVSPost2010PropOp33
 70
     1
102
RTVSPost2010Prop34
280
     0
102
RTVSPost2010PropOp34
 70
     1
102
RTVSPost2010Prop35
280
     0
102
RTVSPost2010PropOp35
 70
     1
102
RTVSPost2010Prop36
280
     0
102
RTVSPost2010PropOp36
 70
     1
102
RTVSPost2010Prop37
 90
       50
102
RTVSPost2010PropOp37
 70
     1
102
RTVSPost2010Prop38
140
0.0
102
RTVSPost2010PropOp38
 70
     1
102
RTVSPost2010Prop39
140
1.0
102
RTVSPost2010PropOp39
 70
     1
102
RTVSPost2010Prop40
 90
        0
102
RTVSPost2010PropOp40
 70
     1
102
RTVSPost2010Prop41ColorIndex
 90
      178
102
RTVSPost2010Prop41ColorRGB
 90
        0
102
RTVSPost2010PropOp41
 70
     1
102
RTVSPost2010Prop42
 90
       50
102
RTVSPost2010PropOp42
 70
     1
102
RTVSPost2010Prop43
 90
        3
102
RTVSPost2010PropOp43
 70
     1
102
RTVSPost2010Prop44ColorIndex
 90
        5
102
RTVSPost2010Prop44ColorRGB
 90
      255
102
RTVSPost2010PropOp44
 70
     1
102
RTVSPost2010Prop45
280
     0
102
RTVSPost2010PropOp45
 70
     1
102
RTVSPost2010Prop46
 90
       50
102
RTVSPost2010PropOp46
 70
     1
102
RTVSPost2010Prop47
 90
       50
102
RTVSPost2010PropOp47
 70
     1
102
RTVSPost2010Prop48
 90
       50
102
RTVSPost2010PropOp48
 70
     1
102
RTVSPost2010Prop49
280
     0
102
RTVSPost2010PropOp49
 70
     1
102
RTVSPost2010Prop50
 90
       50
102
RTVSPost2010PropOp50
 70
     1
102
RTVSPost2010Prop51ColorIndex
 90
      256
102
RTVSPost2010Prop51ColorRGB
 90
-16777216
102
RTVSPost2010PropOp51
 70
     0
102
RTVSPost2010Prop52
140
1.0
102
RTVSPost2010PropOp52
 70
     0
102
RTVSPost2010Prop53
 90
        2
102
RTVSPost2010PropOp53
 70
     1
102
RTVSPost2010Prop54
  1
strokes_ogs.tif
102
RTVSPost2010PropOp54
 70
     1
102
RTVSPost2010Prop55
280
     0
102
RTVSPost2010PropOp55
 70
     1
102
RTVSPost2010Prop56
140
1.0
102
RTVSPost2010PropOp56
 70
     1
102
RTVSPost2010Prop57
140
1.0
102
RTVSPost2010PropOp57
 70
     1
  0
XRECORD
  5
3DB
102
{ACAD_REACTORS
330
3DA
102
}
330
3DA
100
AcDbXrecord
280
     1
102
RTVSPropertyOp0
 70
     1
102
RTVSPropertyOp1
 70
     1
102
RTVSPropertyOp2
 70
     1
102
RTVSPropertyOp3
 70
     1
102
RTVSPropertyOp4
 70
     1
102
RTVSPropertyOp5
 70
     1
102
RTVSPropertyOp6
 70
     1
102
RTVSPropertyOp7
 70
     1
102
RTVSPropertyOp8
 70
     1
102
RTVSPropertyOp9
 70
     1
102
RTVSPropertyOp10
 70
     1
102
RTVSPropertyOp11
 70
     1
102
RTVSPropertyOp12
 70
     1
102
RTVSPropertyOp13
 70
     1
102
RTVSPropertyOp14
 70
     1
102
RTVSPropertyOp15
 70
     1
102
RTVSPropertyOp16
 70
     1
102
RTVSPropertyOp17
 70
     1
102
RTVSPropertyOp18
 70
     1
102
RTVSPropertyOp19
 70
     1
102
RTVSPropertyOp20
 70
     1
102
RTVSPropertyOp21
 70
     1
102
RTVSPropertyOp22
 70
     1
102
RTVSPropertyOp23
 70
     1
102
RTVSPropertyOp24
 70
     1
102
RTVSPropertyOp25
 70
     1
102
RTVSPropertyOp26
 70
     1
102
RTVSPropertyOp27
 70
     1
102
RTVSPropertyOp28
 70
     1
102
RTVSPropertyOp29
 70
     1
102
RTVSPropertyOp30
 70
     1
102
RTVSPropertyOp31
 70
     1
102
RTVSPropertyOp32
 70
     1
102
RTVSPropertyOp33
 70
     1
102
RTVSPropertyOp34
 70
     1
102
RTVSPropertyOp35
 70
     1
102
RTVSPropertyOp36
 70
     1
102
RTVSPropertyOp37
 70
     1
102
RTVSPropertyOp38
 70
     1
102
RTVSPropertyOp39
 70
     1
102
RTVSPropertyOp40
 70
     1
102
RTVSPropertyOp41
 70
     1
102
RTVSPropertyOp42
 70
     1
102
RTVSPropertyOp43
 70
     1
102
RTVSPropertyOp44
 70
     1
102
RTVSPropertyOp45
 70
     1
102
RTVSPropertyOp46
 70
     1
102
RTVSPropertyOp47
 70
     1
102
RTVSPropertyOp48
 70
     1
102
RTVSPropertyOp49
 70
     1
102
RTVSPropertyOp50
 70
     1
102
RTVSPropertyOp51
 70
     0
102
RTVSPropertyOp52
 70
     0
102
RTVSPropertyOp53
 70
     1
102
RTVSPropertyOp54
 70
     1
102
RTVSPropertyOp55
 70
     1
102
RTVSPropertyOp56
 70
     1
102
RTVSPropertyOp57
 70
     1
102
RTVSPost2010Prop28
280
     0
102
RTVSPost2010PropOp28
 70
     1
102
RTVSPost2010Prop29
280
     1
102
RTVSPost2010PropOp29
 70
     1
102
RTVSPost2010Prop30
280
     1
102
RTVSPost2010PropOp30
 70
     1
102
RTVSPost2010Prop31
280
     0
102
RTVSPost2010PropOp31
 70
     1
102
RTVSPost2010Prop32
280
     0
102
RTVSPost2010PropOp32
 70
     1
102
RTVSPost2010Prop33
280
     0
102
RTVSPost2010PropOp33
 70
     1
102
RTVSPost2010Prop34
280
     0
102
RTVSPost2010PropOp34
 70
     1
102
RTVSPost2010Prop35
280
     0
102
RTVSPost2010PropOp35
 70
     1
102
RTVSPost2010Prop36
280
     0
102
RTVSPost2010PropOp36
 70
     1
102
RTVSPost2010Prop37
 90
       50
102
RTVSPost2010PropOp37
 70
     1
102
RTVSPost2010Prop38
140
0.0
102
RTVSPost2010PropOp38
 70
     1
102
RTVSPost2010Prop39
140
1.0
102
RTVSPost2010PropOp39
 70
     1
102
RTVSPost2010Prop40
 90
        0
102
RTVSPost2010PropOp40
 70
     1
102
RTVSPost2010Prop41ColorIndex
 90
      178
102
RTVSPost2010Prop41ColorRGB
 90
        0
102
RTVSPost2010PropOp41
 70
     1
102
RTVSPost2010Prop42
 90
       50
102
RTVSPost2010PropOp42
 70
     1
102
RTVSPost2010Prop43
 90
        3
102
RTVSPost2010PropOp43
 70
     1
102
RTVSPost2010Prop44ColorIndex
 90
        5
102
RTVSPost2010Prop44ColorRGB
 90
      255
102
RTVSPost2010PropOp44
 70
     1
102
RTVSPost2010Prop45
280
     0
102
RTVSPost2010PropOp45
 70
     1
102
RTVSPost2010Prop46
 90
       50
102
RTVSPost2010PropOp46
 70
     1
102
RTVSPost2010Prop47
 90
       50
102
RTVSPost2010PropOp47
 70
     1
102
RTVSPost2010Prop48
 90
       50
102
RTVSPost2010PropOp48
 70
     1
102
RTVSPost2010Prop49
280
     0
102
RTVSPost2010PropOp49
 70
     1
102
RTVSPost2010Prop50
 90
       50
102
RTVSPost2010PropOp50
 70
     1
102
RTVSPost2010Prop51ColorIndex
 90
      256
102
RTVSPost2010Prop51ColorRGB
 90
-16777216
102
RTVSPost2010PropOp51
 70
     0
102
RTVSPost2010Prop52
140
1.0
102
RTVSPost2010PropOp52
 70
     0
102
RTVSPost2010Prop53
 90
        2
102
RTVSPost2010PropOp53
 70
     1
102
RTVSPost2010Prop54
  1
strokes_ogs.tif
102
RTVSPost2010PropOp54
 70
     1
102
RTVSPost2010Prop55
280
     0
102
RTVSPost2010PropOp55
 70
     1
102
RTVSPost2010Prop56
140
1.0
102
RTVSPost2010PropOp56
 70
     1
102
RTVSPost2010Prop57
140
1.0
102
RTVSPost2010PropOp57
 70
     1
  0
XRECORD
  5
3DD
102
{ACAD_REACTORS
330
3DC
102
}
330
3DC
100
AcDbXrecord
280
     1
102
RTVSPropertyOp0
 70
     1
102
RTVSPropertyOp1
 70
     1
102
RTVSPropertyOp2
 70
     1
102
RTVSPropertyOp3
 70
     1
102
RTVSPropertyOp4
 70
     1
102
RTVSPropertyOp5
 70
     1
102
RTVSPropertyOp6
 70
     1
102
RTVSPropertyOp7
 70
     1
102
RTVSPropertyOp8
 70
     1
102
RTVSPropertyOp9
 70
     1
102
RTVSPropertyOp10
 70
     1
102
RTVSPropertyOp11
 70
     1
102
RTVSPropertyOp12
 70
     1
102
RTVSPropertyOp13
 70
     1
102
RTVSPropertyOp14
 70
     1
102
RTVSPropertyOp15
 70
     1
102
RTVSPropertyOp16
 70
     1
102
RTVSPropertyOp17
 70
     1
102
RTVSPropertyOp18
 70
     1
102
RTVSPropertyOp19
 70
     1
102
RTVSPropertyOp20
 70
     1
102
RTVSPropertyOp21
 70
     1
102
RTVSPropertyOp22
 70
     1
102
RTVSPropertyOp23
 70
     1
102
RTVSPropertyOp24
 70
     1
102
RTVSPropertyOp25
 70
     1
102
RTVSPropertyOp26
 70
     1
102
RTVSPropertyOp27
 70
     1
102
RTVSPropertyOp28
 70
     1
102
RTVSPropertyOp29
 70
     1
102
RTVSPropertyOp30
 70
     1
102
RTVSPropertyOp31
 70
     1
102
RTVSPropertyOp32
 70
     1
102
RTVSPropertyOp33
 70
     1
102
RTVSPropertyOp34
 70
     1
102
RTVSPropertyOp35
 70
     1
102
RTVSPropertyOp36
 70
     1
102
RTVSPropertyOp37
 70
     1
102
RTVSPropertyOp38
 70
     1
102
RTVSPropertyOp39
 70
     1
102
RTVSPropertyOp40
 70
     1
102
RTVSPropertyOp41
 70
     1
102
RTVSPropertyOp42
 70
     1
102
RTVSPropertyOp43
 70
     1
102
RTVSPropertyOp44
 70
     1
102
RTVSPropertyOp45
 70
     1
102
RTVSPropertyOp46
 70
     1
102
RTVSPropertyOp47
 70
     1
102
RTVSPropertyOp48
 70
     1
102
RTVSPropertyOp49
 70
     1
102
RTVSPropertyOp50
 70
     1
102
RTVSPropertyOp51
 70
     0
102
RTVSPropertyOp52
 70
     0
102
RTVSPropertyOp53
 70
     1
102
RTVSPropertyOp54
 70
     1
102
RTVSPropertyOp55
 70
     1
102
RTVSPropertyOp56
 70
     1
102
RTVSPropertyOp57
 70
     1
102
RTVSPost2010Prop28
280
     0
102
RTVSPost2010PropOp28
 70
     1
102
RTVSPost2010Prop29
280
     1
102
RTVSPost2010PropOp29
 70
     1
102
RTVSPost2010Prop30
280
     1
102
RTVSPost2010PropOp30
 70
     1
102
RTVSPost2010Prop31
280
     0
102
RTVSPost2010PropOp31
 70
     1
102
RTVSPost2010Prop32
280
     0
102
RTVSPost2010PropOp32
 70
     1
102
RTVSPost2010Prop33
280
     0
102
RTVSPost2010PropOp33
 70
     1
102
RTVSPost2010Prop34
280
     0
102
RTVSPost2010PropOp34
 70
     1
102
RTVSPost2010Prop35
280
     0
102
RTVSPost2010PropOp35
 70
     1
102
RTVSPost2010Prop36
280
     0
102
RTVSPost2010PropOp36
 70
     1
102
RTVSPost2010Prop37
 90
       50
102
RTVSPost2010PropOp37
 70
     1
102
RTVSPost2010Prop38
140
0.0
102
RTVSPost2010PropOp38
 70
     1
102
RTVSPost2010Prop39
140
1.0
102
RTVSPost2010PropOp39
 70
     1
102
RTVSPost2010Prop40
 90
        0
102
RTVSPost2010PropOp40
 70
     1
102
RTVSPost2010Prop41ColorIndex
 90
      178
102
RTVSPost2010Prop41ColorRGB
 90
        0
102
RTVSPost2010PropOp41
 70
     1
102
RTVSPost2010Prop42
 90
       50
102
RTVSPost2010PropOp42
 70
     1
102
RTVSPost2010Prop43
 90
        3
102
RTVSPost2010PropOp43
 70
     1
102
RTVSPost2010Prop44ColorIndex
 90
        5
102
RTVSPost2010Prop44ColorRGB
 90
      255
102
RTVSPost2010PropOp44
 70
     1
102
RTVSPost2010Prop45
280
     0
102
RTVSPost2010PropOp45
 70
     1
102
RTVSPost2010Prop46
 90
       50
102
RTVSPost2010PropOp46
 70
     1
102
RTVSPost2010Prop47
 90
       50
102
RTVSPost2010PropOp47
 70
     1
102
RTVSPost2010Prop48
 90
       50
102
RTVSPost2010PropOp48
 70
     1
102
RTVSPost2010Prop49
280
     0
102
RTVSPost2010PropOp49
 70
     1
102
RTVSPost2010Prop50
 90
       50
102
RTVSPost2010PropOp50
 70
     1
102
RTVSPost2010Prop51ColorIndex
 90
      256
102
RTVSPost2010Prop51ColorRGB
 90
-16777216
102
RTVSPost2010PropOp51
 70
     0
102
RTVSPost2010Prop52
140
1.0
102
RTVSPost2010PropOp52
 70
     0
102
RTVSPost2010Prop53
 90
        2
102
RTVSPost2010PropOp53
 70
     1
102
RTVSPost2010Prop54
  1
strokes_ogs.tif
102
RTVSPost2010PropOp54
 70
     1
102
RTVSPost2010Prop55
280
     0
102
RTVSPost2010PropOp55
 70
     1
102
RTVSPost2010Prop56
140
1.0
102
RTVSPost2010PropOp56
 70
     1
102
RTVSPost2010Prop57
140
1.0
102
RTVSPost2010PropOp57
 70
     1
  0
XRECORD
  5
3CD
102
{ACAD_REACTORS
330
3CC
102
}
330
3CC
100
AcDbXrecord
280
     1
102
RTVSPropertyOp0
 70
     1
102
RTVSPropertyOp1
 70
     1
102
RTVSPropertyOp2
 70
     1
102
RTVSPropertyOp3
 70
     1
102
RTVSPropertyOp4
 70
     1
102
RTVSPropertyOp5
 70
     1
102
RTVSPropertyOp6
 70
     1
102
RTVSPropertyOp7
 70
     1
102
RTVSPropertyOp8
 70
     1
102
RTVSPropertyOp9
 70
     1
102
RTVSPropertyOp10
 70
     1
102
RTVSPropertyOp11
 70
     1
102
RTVSPropertyOp12
 70
     1
102
RTVSPropertyOp13
 70
     1
102
RTVSPropertyOp14
 70
     1
102
RTVSPropertyOp15
 70
     1
102
RTVSPropertyOp16
 70
     1
102
RTVSPropertyOp17
 70
     1
102
RTVSPropertyOp18
 70
     1
102
RTVSPropertyOp19
 70
     1
102
RTVSPropertyOp20
 70
     1
102
RTVSPropertyOp21
 70
     1
102
RTVSPropertyOp22
 70
     1
102
RTVSPropertyOp23
 70
     1
102
RTVSPropertyOp24
 70
     1
102
RTVSPropertyOp25
 70
     1
102
RTVSPropertyOp26
 70
     1
102
RTVSPropertyOp27
 70
     1
102
RTVSPropertyOp28
 70
     1
102
RTVSPropertyOp29
 70
     1
102
RTVSPropertyOp30
 70
     1
102
RTVSPropertyOp31
 70
     1
102
RTVSPropertyOp32
 70
     1
102
RTVSPropertyOp33
 70
     1
102
RTVSPropertyOp34
 70
     1
102
RTVSPropertyOp35
 70
     1
102
RTVSPropertyOp36
 70
     1
102
RTVSPropertyOp37
 70
     1
102
RTVSPropertyOp38
 70
     1
102
RTVSPropertyOp39
 70
     1
102
RTVSPropertyOp40
 70
     1
102
RTVSPropertyOp41
 70
     1
102
RTVSPropertyOp42
 70
     1
102
RTVSPropertyOp43
 70
     1
102
RTVSPropertyOp44
 70
     1
102
RTVSPropertyOp45
 70
     1
102
RTVSPropertyOp46
 70
     1
102
RTVSPropertyOp47
 70
     1
102
RTVSPropertyOp48
 70
     1
102
RTVSPropertyOp49
 70
     1
102
RTVSPropertyOp50
 70
     1
102
RTVSPropertyOp51
 70
     0
102
RTVSPropertyOp52
 70
     0
102
RTVSPropertyOp53
 70
     1
102
RTVSPropertyOp54
 70
     1
102
RTVSPropertyOp55
 70
     1
102
RTVSPropertyOp56
 70
     1
102
RTVSPropertyOp57
 70
     1
102
RTVSPost2010Prop28
280
     0
102
RTVSPost2010PropOp28
 70
     1
102
RTVSPost2010Prop29
280
     1
102
RTVSPost2010PropOp29
 70
     1
102
RTVSPost2010Prop30
280
     1
102
RTVSPost2010PropOp30
 70
     1
102
RTVSPost2010Prop31
280
     0
102
RTVSPost2010PropOp31
 70
     1
102
RTVSPost2010Prop32
280
     0
102
RTVSPost2010PropOp32
 70
     1
102
RTVSPost2010Prop33
280
     0
102
RTVSPost2010PropOp33
 70
     1
102
RTVSPost2010Prop34
280
     0
102
RTVSPost2010PropOp34
 70
     1
102
RTVSPost2010Prop35
280
     0
102
RTVSPost2010PropOp35
 70
     1
102
RTVSPost2010Prop36
280
     0
102
RTVSPost2010PropOp36
 70
     1
102
RTVSPost2010Prop37
 90
       50
102
RTVSPost2010PropOp37
 70
     1
102
RTVSPost2010Prop38
140
0.0
102
RTVSPost2010PropOp38
 70
     1
102
RTVSPost2010Prop39
140
1.0
102
RTVSPost2010PropOp39
 70
     1
102
RTVSPost2010Prop40
 90
        0
102
RTVSPost2010PropOp40
 70
     1
102
RTVSPost2010Prop41ColorIndex
 90
      178
102
RTVSPost2010Prop41ColorRGB
 90
        0
102
RTVSPost2010PropOp41
 70
     1
102
RTVSPost2010Prop42
 90
       50
102
RTVSPost2010PropOp42
 70
     1
102
RTVSPost2010Prop43
 90
        3
102
RTVSPost2010PropOp43
 70
     1
102
RTVSPost2010Prop44ColorIndex
 90
        5
102
RTVSPost2010Prop44ColorRGB
 90
      255
102
RTVSPost2010PropOp44
 70
     1
102
RTVSPost2010Prop45
280
     0
102
RTVSPost2010PropOp45
 70
     1
102
RTVSPost2010Prop46
 90
       50
102
RTVSPost2010PropOp46
 70
     1
102
RTVSPost2010Prop47
 90
       50
102
RTVSPost2010PropOp47
 70
     1
102
RTVSPost2010Prop48
 90
       50
102
RTVSPost2010PropOp48
 70
     1
102
RTVSPost2010Prop49
280
     0
102
RTVSPost2010PropOp49
 70
     1
102
RTVSPost2010Prop50
 90
       50
102
RTVSPost2010PropOp50
 70
     1
102
RTVSPost2010Prop51ColorIndex
 90
      256
102
RTVSPost2010Prop51ColorRGB
 90
-16777216
102
RTVSPost2010PropOp51
 70
     0
102
RTVSPost2010Prop52
140
1.0
102
RTVSPost2010PropOp52
 70
     0
102
RTVSPost2010Prop53
 90
        2
102
RTVSPost2010PropOp53
 70
     1
102
RTVSPost2010Prop54
  1
strokes_ogs.tif
102
RTVSPost2010PropOp54
 70
     1
102
RTVSPost2010Prop55
280
     0
102
RTVSPost2010PropOp55
 70
     1
102
RTVSPost2010Prop56
140
1.0
102
RTVSPost2010PropOp56
 70
     1
102
RTVSPost2010Prop57
140
1.0
102
RTVSPost2010PropOp57
 70
     1
  0
XRECORD
  5
3BF
102
{ACAD_REACTORS
330
3BE
102
}
330
3BE
100
AcDbXrecord
280
     1
102
RTVSPropertyOp0
 70
     1
102
RTVSPropertyOp1
 70
     1
102
RTVSPropertyOp2
 70
     1
102
RTVSPropertyOp3
 70
     1
102
RTVSPropertyOp4
 70
     1
102
RTVSPropertyOp5
 70
     1
102
RTVSPropertyOp6
 70
     1
102
RTVSPropertyOp7
 70
     1
102
RTVSPropertyOp8
 70
     1
102
RTVSPropertyOp9
 70
     1
102
RTVSPropertyOp10
 70
     1
102
RTVSPropertyOp11
 70
     1
102
RTVSPropertyOp12
 70
     1
102
RTVSPropertyOp13
 70
     1
102
RTVSPropertyOp14
 70
     1
102
RTVSPropertyOp15
 70
     1
102
RTVSPropertyOp16
 70
     1
102
RTVSPropertyOp17
 70
     1
102
RTVSPropertyOp18
 70
     1
102
RTVSPropertyOp19
 70
     1
102
RTVSPropertyOp20
 70
     1
102
RTVSPropertyOp21
 70
     1
102
RTVSPropertyOp22
 70
     1
102
RTVSPropertyOp23
 70
     1
102
RTVSPropertyOp24
 70
     1
102
RTVSPropertyOp25
 70
     1
102
RTVSPropertyOp26
 70
     1
102
RTVSPropertyOp27
 70
     1
102
RTVSPropertyOp28
 70
     1
102
RTVSPropertyOp29
 70
     1
102
RTVSPropertyOp30
 70
     1
102
RTVSPropertyOp31
 70
     1
102
RTVSPropertyOp32
 70
     1
102
RTVSPropertyOp33
 70
     1
102
RTVSPropertyOp34
 70
     1
102
RTVSPropertyOp35
 70
     1
102
RTVSPropertyOp36
 70
     1
102
RTVSPropertyOp37
 70
     1
102
RTVSPropertyOp38
 70
     1
102
RTVSPropertyOp39
 70
     1
102
RTVSPropertyOp40
 70
     1
102
RTVSPropertyOp41
 70
     1
102
RTVSPropertyOp42
 70
     1
102
RTVSPropertyOp43
 70
     1
102
RTVSPropertyOp44
 70
     1
102
RTVSPropertyOp45
 70
     1
102
RTVSPropertyOp46
 70
     1
102
RTVSPropertyOp47
 70
     1
102
RTVSPropertyOp48
 70
     1
102
RTVSPropertyOp49
 70
     1
102
RTVSPropertyOp50
 70
     1
102
RTVSPropertyOp51
 70
     0
102
RTVSPropertyOp52
 70
     0
102
RTVSPropertyOp53
 70
     1
102
RTVSPropertyOp54
 70
     1
102
RTVSPropertyOp55
 70
     1
102
RTVSPropertyOp56
 70
     1
102
RTVSPropertyOp57
 70
     1
102
RTVSPost2010Prop28
280
     0
102
RTVSPost2010PropOp28
 70
     1
102
RTVSPost2010Prop29
280
     1
102
RTVSPost2010PropOp29
 70
     1
102
RTVSPost2010Prop30
280
     1
102
RTVSPost2010PropOp30
 70
     1
102
RTVSPost2010Prop31
280
     0
102
RTVSPost2010PropOp31
 70
     1
102
RTVSPost2010Prop32
280
     0
102
RTVSPost2010PropOp32
 70
     1
102
RTVSPost2010Prop33
280
     0
102
RTVSPost2010PropOp33
 70
     1
102
RTVSPost2010Prop34
280
     0
102
RTVSPost2010PropOp34
 70
     1
102
RTVSPost2010Prop35
280
     0
102
RTVSPost2010PropOp35
 70
     1
102
RTVSPost2010Prop36
280
     0
102
RTVSPost2010PropOp36
 70
     1
102
RTVSPost2010Prop37
 90
       50
102
RTVSPost2010PropOp37
 70
     1
102
RTVSPost2010Prop38
140
0.0
102
RTVSPost2010PropOp38
 70
     1
102
RTVSPost2010Prop39
140
1.0
102
RTVSPost2010PropOp39
 70
     1
102
RTVSPost2010Prop40
 90
        0
102
RTVSPost2010PropOp40
 70
     1
102
RTVSPost2010Prop41ColorIndex
 90
      178
102
RTVSPost2010Prop41ColorRGB
 90
        0
102
RTVSPost2010PropOp41
 70
     1
102
RTVSPost2010Prop42
 90
       50
102
RTVSPost2010PropOp42
 70
     1
102
RTVSPost2010Prop43
 90
        3
102
RTVSPost2010PropOp43
 70
     1
102
RTVSPost2010Prop44ColorIndex
 90
        5
102
RTVSPost2010Prop44ColorRGB
 90
      255
102
RTVSPost2010PropOp44
 70
     1
102
RTVSPost2010Prop45
280
     0
102
RTVSPost2010PropOp45
 70
     1
102
RTVSPost2010Prop46
 90
       50
102
RTVSPost2010PropOp46
 70
     1
102
RTVSPost2010Prop47
 90
       50
102
RTVSPost2010PropOp47
 70
     1
102
RTVSPost2010Prop48
 90
       50
102
RTVSPost2010PropOp48
 70
     1
102
RTVSPost2010Prop49
280
     0
102
RTVSPost2010PropOp49
 70
     1
102
RTVSPost2010Prop50
 90
       50
102
RTVSPost2010PropOp50
 70
     1
102
RTVSPost2010Prop51ColorIndex
 90
      256
102
RTVSPost2010Prop51ColorRGB
 90
-16777216
102
RTVSPost2010PropOp51
 70
     0
102
RTVSPost2010Prop52
140
1.0
102
RTVSPost2010PropOp52
 70
     0
102
RTVSPost2010Prop53
 90
        2
102
RTVSPost2010PropOp53
 70
     1
102
RTVSPost2010Prop54
  1
strokes_ogs.tif
102
RTVSPost2010PropOp54
 70
     1
102
RTVSPost2010Prop55
280
     0
102
RTVSPost2010PropOp55
 70
     1
102
RTVSPost2010Prop56
140
1.0
102
RTVSPost2010PropOp56
 70
     1
102
RTVSPost2010Prop57
140
1.0
102
RTVSPost2010PropOp57
 70
     1
  0
XRECORD
  5
3DF
102
{ACAD_REACTORS
330
3DE
102
}
330
3DE
100
AcDbXrecord
280
     1
102
RTVSPropertyOp0
 70
     1
102
RTVSPropertyOp1
 70
     1
102
RTVSPropertyOp2
 70
     1
102
RTVSPropertyOp3
 70
     1
102
RTVSPropertyOp4
 70
     1
102
RTVSPropertyOp5
 70
     1
102
RTVSPropertyOp6
 70
     1
102
RTVSPropertyOp7
 70
     1
102
RTVSPropertyOp8
 70
     1
102
RTVSPropertyOp9
 70
     1
102
RTVSPropertyOp10
 70
     1
102
RTVSPropertyOp11
 70
     1
102
RTVSPropertyOp12
 70
     1
102
RTVSPropertyOp13
 70
     1
102
RTVSPropertyOp14
 70
     1
102
RTVSPropertyOp15
 70
     1
102
RTVSPropertyOp16
 70
     1
102
RTVSPropertyOp17
 70
     1
102
RTVSPropertyOp18
 70
     1
102
RTVSPropertyOp19
 70
     1
102
RTVSPropertyOp20
 70
     1
102
RTVSPropertyOp21
 70
     1
102
RTVSPropertyOp22
 70
     1
102
RTVSPropertyOp23
 70
     1
102
RTVSPropertyOp24
 70
     1
102
RTVSPropertyOp25
 70
     1
102
RTVSPropertyOp26
 70
     1
102
RTVSPropertyOp27
 70
     1
102
RTVSPropertyOp28
 70
     1
102
RTVSPropertyOp29
 70
     1
102
RTVSPropertyOp30
 70
     1
102
RTVSPropertyOp31
 70
     1
102
RTVSPropertyOp32
 70
     1
102
RTVSPropertyOp33
 70
     1
102
RTVSPropertyOp34
 70
     1
102
RTVSPropertyOp35
 70
     1
102
RTVSPropertyOp36
 70
     1
102
RTVSPropertyOp37
 70
     1
102
RTVSPropertyOp38
 70
     1
102
RTVSPropertyOp39
 70
     1
102
RTVSPropertyOp40
 70
     1
102
RTVSPropertyOp41
 70
     1
102
RTVSPropertyOp42
 70
     1
102
RTVSPropertyOp43
 70
     1
102
RTVSPropertyOp44
 70
     1
102
RTVSPropertyOp45
 70
     1
102
RTVSPropertyOp46
 70
     1
102
RTVSPropertyOp47
 70
     1
102
RTVSPropertyOp48
 70
     1
102
RTVSPropertyOp49
 70
     1
102
RTVSPropertyOp50
 70
     1
102
RTVSPropertyOp51
 70
     0
102
RTVSPropertyOp52
 70
     0
102
RTVSPropertyOp53
 70
     1
102
RTVSPropertyOp54
 70
     1
102
RTVSPropertyOp55
 70
     1
102
RTVSPropertyOp56
 70
     1
102
RTVSPropertyOp57
 70
     1
102
RTVSPost2010Prop28
280
     0
102
RTVSPost2010PropOp28
 70
     1
102
RTVSPost2010Prop29
280
     1
102
RTVSPost2010PropOp29
 70
     1
102
RTVSPost2010Prop30
280
     1
102
RTVSPost2010PropOp30
 70
     1
102
RTVSPost2010Prop31
280
     0
102
RTVSPost2010PropOp31
 70
     1
102
RTVSPost2010Prop32
280
     0
102
RTVSPost2010PropOp32
 70
     1
102
RTVSPost2010Prop33
280
     0
102
RTVSPost2010PropOp33
 70
     1
102
RTVSPost2010Prop34
280
     0
102
RTVSPost2010PropOp34
 70
     1
102
RTVSPost2010Prop35
280
     0
102
RTVSPost2010PropOp35
 70
     1
102
RTVSPost2010Prop36
280
     0
102
RTVSPost2010PropOp36
 70
     1
102
RTVSPost2010Prop37
 90
       50
102
RTVSPost2010PropOp37
 70
     1
102
RTVSPost2010Prop38
140
0.0
102
RTVSPost2010PropOp38
 70
     1
102
RTVSPost2010Prop39
140
1.0
102
RTVSPost2010PropOp39
 70
     1
102
RTVSPost2010Prop40
 90
        0
102
RTVSPost2010PropOp40
 70
     1
102
RTVSPost2010Prop41ColorIndex
 90
      178
102
RTVSPost2010Prop41ColorRGB
 90
        0
102
RTVSPost2010PropOp41
 70
     1
102
RTVSPost2010Prop42
 90
       50
102
RTVSPost2010PropOp42
 70
     1
102
RTVSPost2010Prop43
 90
        3
102
RTVSPost2010PropOp43
 70
     1
102
RTVSPost2010Prop44ColorIndex
 90
        5
102
RTVSPost2010Prop44ColorRGB
 90
      255
102
RTVSPost2010PropOp44
 70
     1
102
RTVSPost2010Prop45
280
     0
102
RTVSPost2010PropOp45
 70
     1
102
RTVSPost2010Prop46
 90
       50
102
RTVSPost2010PropOp46
 70
     1
102
RTVSPost2010Prop47
 90
       50
102
RTVSPost2010PropOp47
 70
     1
102
RTVSPost2010Prop48
 90
       50
102
RTVSPost2010PropOp48
 70
     1
102
RTVSPost2010Prop49
280
     0
102
RTVSPost2010PropOp49
 70
     1
102
RTVSPost2010Prop50
 90
       50
102
RTVSPost2010PropOp50
 70
     1
102
RTVSPost2010Prop51ColorIndex
 90
      256
102
RTVSPost2010Prop51ColorRGB
 90
-16777216
102
RTVSPost2010PropOp51
 70
     0
102
RTVSPost2010Prop52
140
1.0
102
RTVSPost2010PropOp52
 70
     0
102
RTVSPost2010Prop53
 90
        2
102
RTVSPost2010PropOp53
 70
     1
102
RTVSPost2010Prop54
  1
strokes_ogs.tif
102
RTVSPost2010PropOp54
 70
     1
102
RTVSPost2010Prop55
280
     0
102
RTVSPost2010PropOp55
 70
     1
102
RTVSPost2010Prop56
140
1.0
102
RTVSPost2010PropOp56
 70
     1
102
RTVSPost2010Prop57
140
1.0
102
RTVSPost2010PropOp57
 70
     1
  0
ENDSEC
  0
EOF
